  0
SECTION
  2
HEADER
  9
$ACADVER
  1
AC1015
  9
$ACADMAINTVER
 70
    20
  9
$DWGCODEPAGE
  3
ANSI_932
  9
$INSBASE
 10
0.0
 20
0.0
 30
0.0
  9
$EXTMIN
 10
-59.71259231212525
 20
-412.5382891715007
 30
-0.0015258207003583
  9
$EXTMAX
 10
931.3478935277899
 20
1012.976304918633
 30
0.0000000349246037
  9
$LIMMIN
 10
0.0
 20
0.0
  9
$LIMMAX
 10
420.0
 20
297.0
  9
$ORTHOMODE
 70
     0
  9
$REGENMODE
 70
     1
  9
$FILLMODE
 70
     1
  9
$QTEXTMODE
 70
     0
  9
$MIRRTEXT
 70
     0
  9
$LTSCALE
 40
1.0
  9
$ATTMODE
 70
     1
  9
$TEXTSIZE
 40
2.5
  9
$TRACEWID
 40
1.0
  9
$TEXTSTYLE
  7
STANDARD
  9
$CLAYER
  8
0
  9
$CELTYPE
  6
ByLayer
  9
$CECOLOR
 62
   256
  9
$CELTSCALE
 40
1.0
  9
$DISPSILH
 70
     0
  9
$DIMSCALE
 40
1.0
  9
$DIMASZ
 40
0.18
  9
$DIMEXO
 40
0.0625
  9
$DIMDLI
 40
0.38
  9
$DIMRND
 40
0.0
  9
$DIMDLE
 40
0.0
  9
$DIMEXE
 40
0.18
  9
$DIMTP
 40
0.0
  9
$DIMTM
 40
0.0
  9
$DIMTXT
 40
0.18
  9
$DIMCEN
 40
0.09
  9
$DIMTSZ
 40
0.0
  9
$DIMTOL
 70
     0
  9
$DIMLIM
 70
     0
  9
$DIMTIH
 70
     1
  9
$DIMTOH
 70
     1
  9
$DIMSE1
 70
     0
  9
$DIMSE2
 70
     0
  9
$DIMTAD
 70
     0
  9
$DIMZIN
 70
     0
  9
$DIMBLK
  1

  9
$DIMASO
 70
     1
  9
$DIMSHO
 70
     1
  9
$DIMPOST
  1

  9
$DIMAPOST
  1

  9
$DIMALT
 70
     0
  9
$DIMALTD
 70
     2
  9
$DIMALTF
 40
25.4
  9
$DIMLFAC
 40
1.0
  9
$DIMTOFL
 70
     0
  9
$DIMTVP
 40
0.0
  9
$DIMTIX
 70
     0
  9
$DIMSOXD
 70
     0
  9
$DIMSAH
 70
     0
  9
$DIMBLK1
  1

  9
$DIMBLK2
  1

  9
$DIMSTYLE
  2
Standard
  9
$DIMCLRD
 70
     0
  9
$DIMCLRE
 70
     0
  9
$DIMCLRT
 70
     0
  9
$DIMTFAC
 40
1.0
  9
$DIMGAP
 40
0.09
  9
$DIMJUST
 70
     0
  9
$DIMSD1
 70
     0
  9
$DIMSD2
 70
     0
  9
$DIMTOLJ
 70
     1
  9
$DIMTZIN
 70
     0
  9
$DIMALTZ
 70
     0
  9
$DIMALTTZ
 70
     0
  9
$DIMUPT
 70
     0
  9
$DIMDEC
 70
     4
  9
$DIMTDEC
 70
     4
  9
$DIMALTU
 70
     2
  9
$DIMALTTD
 70
     2
  9
$DIMTXSTY
  7
STANDARD
  9
$DIMAUNIT
 70
     0
  9
$DIMADEC
 70
     0
  9
$DIMALTRND
 40
0.0
  9
$DIMAZIN
 70
     0
  9
$DIMDSEP
 70
    46
  9
$DIMATFIT
 70
     3
  9
$DIMFRAC
 70
     0
  9
$DIMLDRBLK
  1

  9
$DIMLUNIT
 70
     2
  9
$DIMLWD
 70
    -2
  9
$DIMLWE
 70
    -2
  9
$DIMTMOVE
 70
     0
  9
$LUNITS
 70
     2
  9
$LUPREC
 70
     2
  9
$SKETCHINC
 40
1.0
  9
$FILLETRAD
 40
0.0
  9
$AUNITS
 70
     0
  9
$AUPREC
 70
     0
  9
$MENU
  1
.
  9
$ELEVATION
 40
0.0
  9
$PELEVATION
 40
0.0
  9
$THICKNESS
 40
0.0
  9
$LIMCHECK
 70
     0
  9
$CHAMFERA
 40
1.0
  9
$CHAMFERB
 40
1.0
  9
$CHAMFERC
 40
0.0
  9
$CHAMFERD
 40
0.0
  9
$SKPOLY
 70
     0
  9
$TDCREATE
 40
2455601.773382338
  9
$TDUCREATE
 40
2455601.398382338
  9
$TDUPDATE
 40
2456678.486220070
  9
$TDUUPDATE
 40
2456678.111220069
  9
$TDINDWG
 40
0.5631769097
  9
$TDUSRTIMER
 40
0.5631765046
  9
$USRTIMER
 70
     1
  9
$ANGBASE
 50
0.0
  9
$ANGDIR
 70
     0
  9
$PDMODE
 70
    35
  9
$PDSIZE
 40
3.0
  9
$PLINEWID
 40
0.0
  9
$SPLFRAME
 70
     0
  9
$SPLINETYPE
 70
     6
  9
$SPLINESEGS
 70
     8
  9
$HANDSEED
  5
9DBD
  9
$SURFTAB1
 70
     6
  9
$SURFTAB2
 70
     6
  9
$SURFTYPE
 70
     6
  9
$SURFU
 70
     6
  9
$SURFV
 70
     6
  9
$UCSBASE
  2

  9
$UCSNAME
  2

  9
$UCSORG
 10
0.0
 20
0.0
 30
0.0
  9
$UCSXDIR
 10
1.0
 20
0.0
 30
0.0
  9
$UCSYDIR
 10
0.0
 20
1.0
 30
0.0
  9
$UCSORTHOREF
  2

  9
$UCSORTHOVIEW
 70
     0
  9
$UCSORGTOP
 10
0.0
 20
0.0
 30
0.0
  9
$UCSORGBOTTOM
 10
0.0
 20
0.0
 30
0.0
  9
$UCSORGLEFT
 10
0.0
 20
0.0
 30
0.0
  9
$UCSORGRIGHT
 10
0.0
 20
0.0
 30
0.0
  9
$UCSORGFRONT
 10
0.0
 20
0.0
 30
0.0
  9
$UCSORGBACK
 10
0.0
 20
0.0
 30
0.0
  9
$PUCSBASE
  2

  9
$PUCSNAME
  2

  9
$PUCSORG
 10
0.0
 20
0.0
 30
0.0
  9
$PUCSXDIR
 10
1.0
 20
0.0
 30
0.0
  9
$PUCSYDIR
 10
0.0
 20
1.0
 30
0.0
  9
$PUCSORTHOREF
  2

  9
$PUCSORTHOVIEW
 70
     0
  9
$PUCSORGTOP
 10
0.0
 20
0.0
 30
0.0
  9
$PUCSORGBOTTOM
 10
0.0
 20
0.0
 30
0.0
  9
$PUCSORGLEFT
 10
0.0
 20
0.0
 30
0.0
  9
$PUCSORGRIGHT
 10
0.0
 20
0.0
 30
0.0
  9
$PUCSORGFRONT
 10
0.0
 20
0.0
 30
0.0
  9
$PUCSORGBACK
 10
0.0
 20
0.0
 30
0.0
  9
$USERI1
 70
     0
  9
$USERI2
 70
     0
  9
$USERI3
 70
     0
  9
$USERI4
 70
     0
  9
$USERI5
 70
     0
  9
$USERR1
 40
0.0
  9
$USERR2
 40
0.0
  9
$USERR3
 40
0.0
  9
$USERR4
 40
0.0
  9
$USERR5
 40
0.0
  9
$WORLDVIEW
 70
     1
  9
$SHADEDGE
 70
     3
  9
$SHADEDIF
 70
    70
  9
$TILEMODE
 70
     1
  9
$MAXACTVP
 70
    64
  9
$PINSBASE
 10
0.0
 20
0.0
 30
0.0
  9
$PLIMCHECK
 70
     0
  9
$PEXTMIN
 10
0.0
 20
0.0
 30
0.0
  9
$PEXTMAX
 10
0.0
 20
0.0
 30
0.0
  9
$PLIMMIN
 10
0.0
 20
0.0
  9
$PLIMMAX
 10
12.0
 20
9.0
  9
$UNITMODE
 70
     0
  9
$VISRETAIN
 70
     1
  9
$PLINEGEN
 70
     0
  9
$PSLTSCALE
 70
     1
  9
$TREEDEPTH
 70
  3020
  9
$CMLSTYLE
  2
Standard
  9
$CMLJUST
 70
     0
  9
$CMLSCALE
 40
20.0
  9
$PROXYGRAPHICS
 70
     1
  9
$MEASUREMENT
 70
     1
  9
$CELWEIGHT
370
    -1
  9
$ENDCAPS
280
     0
  9
$JOINSTYLE
280
     0
  9
$LWDISPLAY
290
     0
  9
$INSUNITS
 70
     4
  9
$HYPERLINKBASE
  1

  9
$STYLESHEET
  1

  9
$XEDIT
290
     1
  9
$CEPSNTYPE
380
     0
  9
$PSTYLEMODE
290
     1
  9
$FINGERPRINTGUID
  2
{D38978CF-3E67-4B07-8C53-9692584EED11}
  9
$VERSIONGUID
  2
{729A7487-73CC-4B5F-89B6-2D79478C14BC}
  9
$EXTNAMES
290
     1
  9
$PSVPSCALE
 40
0.0
  9
$OLESTARTUP
290
     0
  0
ENDSEC
  0
SECTION
  2
CLASSES
  0
CLASS
  1
ACDBDICTIONARYWDFLT
  2
AcDbDictionaryWithDefault
  3
ObjectDBX Classes
 90
        0
280
     0
281
     0
  0
CLASS
  1
MATERIAL
  2
AcDbMaterial
  3
ObjectDBX Classes
 90
     1153
280
     0
281
     0
  0
CLASS
  1
VISUALSTYLE
  2
AcDbVisualStyle
  3
ObjectDBX Classes
 90
     4095
280
     0
281
     0
  0
CLASS
  1
TABLESTYLE
  2
AcDbTableStyle
  3
ObjectDBX Classes
 90
     4095
280
     0
281
     0
  0
CLASS
  1
AMGSETTINGSOBJ
  2
AmgSettingsObj
  3
"AcadM|Product Description: AutoCAD Mechanical|Company: Autodesk, Inc."
 90
     1024
280
     0
281
     0
  0
CLASS
  1
ACME_DOCUMENT
  2
AcMeDbDoc
  3
AcMeServices
 90
     1024
280
     0
281
     0
  0
CLASS
  1
ACMESCOPE
  2
AcMeScope
  3
AcMeServices
 90
     1024
280
     0
281
     0
  0
CLASS
  1
ACMECOMMANDHISTORY
  2
AcMeCommandHistory
  3
AcMeServices
 90
     1024
280
     0
281
     0
  0
CLASS
  1
ACIMSYSVARMAN
  2
AcImSysVarManager
  3
AcMeServices
 90
     1024
280
     0
281
     0
  0
CLASS
  1
ACIMINTSYSVAR
  2
AcImIntSysVar
  3
AcMeServices
 90
     1024
280
     0
281
     0
  0
CLASS
  1
ACMEDRAWINGMAN
  2
AcMeDrawingMan
  3
AcMeServices
 90
    33792
280
     0
281
     0
  0
CLASS
  1
ACMEVIEW
  2
AcMeView
  3
AcMeServices
 90
    33792
280
     0
281
     0
  0
CLASS
  1
ACDBENTITYCACHE
  2
AcMeEntityCache
  3
AcMeServices
 90
     1024
280
     0
281
     0
  0
CLASS
  1
GSMANAGER
  2
AcMeGSManager
  3
AcMeServices
 90
    33792
280
     0
281
     0
  0
CLASS
  1
AMDTINTERNALREACTOR
  2
AmdtInternalReactor
  3
AcMeServices
 90
    33792
280
     0
281
     0
  0
CLASS
  1
ACMESTATEMGR
  2
AcMeStateMgr
  3
AcMeServices
 90
     1024
280
     0
281
     0
  0
CLASS
  1
ACGREFMASTER
  2
AcGrefMaster
  3
AcAttribServices
 90
     1024
280
     0
281
     0
  0
CLASS
  1
AM_DRAWING_MGR
  2
AcDmDwgMgr
  3
AcMechDwgViewMgmt
 90
    33792
280
     0
281
     0
  0
CLASS
  1
AM_DWG_DOCUMENT
  2
AcDmDwgDocument
  3
AcMechDwgViewMgmt
 90
    33792
280
     0
281
     0
  0
CLASS
  1
AM_DWG_SHEET
  2
AcDmSheet
  3
AcMechDwgViewMgmt
 90
    33792
280
     0
281
     0
  0
CLASS
  1
AM_VIEWDIMPARMAP
  2
AcDmViewDimParMap
  3
AcMechDwgViewMgmt
 90
    33792
280
     0
281
     0
  0
CLASS
  1
ACIMREALSYSVAR
  2
AcImRealSysVar
  3
AcMeServices
 90
    33792
280
     0
281
     0
  0
CLASS
  1
AM_DWGMGR_NAME
  2
AcDmDwgMgrName
  3
AcMechDwgViewMgmt
 90
    33792
280
     0
281
     0
  0
CLASS
  1
ACME_DATABASE
  2
AcMeDbDatabase
  3
AcMeServices
 90
     1024
280
     0
281
     0
  0
CLASS
  1
ACRFINSADJUSTERMGR
  2
AcRfInsAdjusterMgr
  3
AcMeServices
 90
     1024
280
     0
281
     0
  0
CLASS
  1
ACGREFACADMASTER
  2
AcGrefacadMaster
  3
AcGrefServices
 90
     1024
280
     0
281
     0
  0
CLASS
  1
AMDTMENUSTATEMGR
  2
AmdtMenuStateMgr
  3
McadcomServices
 90
     1024
280
     0
281
     0
  0
CLASS
  1
AMDTMCOMMENUSTATE
  2
AmdtMcomMenuState
  3
McadcomServices
 90
     1024
280
     0
281
     0
  0
CLASS
  1
AMIMASTER
  2
AmiMaster
  3
AmiServices
 90
     1024
280
     0
281
     0
  0
CLASS
  1
MAPIAMMOUDLE
  2
MApiAmModule
  3
MApiAmServices
 90
     1024
280
     0
281
     0
  0
CLASS
  1
ACIMSTRSYSVAR
  2
AcImStrSysVar
  3
AcMeServices
 90
     1024
280
     0
281
     0
  0
CLASS
  1
AMDTADMENUSTATE
  2
AmdtAdMenuState
  3
DesignerServices
 90
    33792
280
     0
281
     0
  0
CLASS
  1
ADAPPL
  2
AcAdAppl
  3
DesignerAssemblies
 90
    33792
280
     0
281
     0
  0
CLASS
  1
DEPMGR
  2
AcAdDepMgr
  3
DesignerAssemblies
 90
    33792
280
     0
281
     0
  0
CLASS
  1
PARAMMGR
  2
AcAdParamMgr
  3
DesignerAssemblies
 90
    33792
280
     0
281
     0
  0
CLASS
  1
PARAMSCOPE
  2
AcAdParamScope
  3
DesignerAssemblies
 90
    33792
280
     0
281
     0
  0
CLASS
  1
NAMEDAPPL
  2
AcAdNamedAppl
  3
DesignerAssemblies
 90
    33792
280
     0
281
     0
  0
CLASS
  1
AMDTDMMENUSTATE
  2
AmdtDmMenuState
  3
AcMechDwgViewMgmt
 90
    33792
280
     0
281
     0
  0
CLASS
  1
AMDTAMMENUSTATE
  2
AmdtAmMenuState
  3
DesignerAssemblies
 90
     1024
280
     0
281
     0
  0
CLASS
  1
ACAMPROJECT
  2
AcAmProject
  3
DesignerAssemblies
 90
     1024
280
     0
281
     0
  0
CLASS
  1
ACAMGRCOMPDEF
  2
AcAmGrCompDef
  3
DesignerAssemblies
 90
     1024
280
     0
281
     0
  0
CLASS
  1
ACCMCONTEXT
  2
AcCmContext
  3
DesignerAssemblies
 90
    33792
280
     0
281
     0
  0
CLASS
  1
ACAMCOMPDEF
  2
AcAmCompDef
  3
DesignerAssemblies
 90
     1024
280
     0
281
     0
  0
CLASS
  1
ACAMCOMPDEFMGR
  2
AcAmCompDefMgr
  3
DesignerAssemblies
 90
     1024
280
     0
281
     0
  0
CLASS
  1
AMCONTEXTMGR
  2
AcAmContextMgr
  3
DesignerAssemblies
 90
     1024
280
     0
281
     0
  0
CLASS
  1
ACAMCONTEXTMODELER
  2
AcAmContextModeler
  3
DesignerAssemblies
 90
     1024
280
     0
281
     0
  0
CLASS
  1
ACMDATADICTIONARY
  2
AcmDataDictionary
  3
"AcmSymBB|Product Description: AutoCAD Mechanical|Company: Autodesk, Inc."
 90
     1024
280
     0
281
     0
  0
CLASS
  1
ACMSTANDARDISO
  2
AcmStandardISO
  3
"Amdt_StdImp|Product Description: AutoCAD Mechanical|Company: Autodesk, Inc."
 90
     1024
280
     0
281
     0
  0
CLASS
  1
AMGOBJPROPCFG
  2
AmgObjPropCfg
  3
"AmgLay|Product Description: AutoCAD Mechanical|Company: Autodesk, Inc."
 90
     1024
280
     0
281
     0
  0
CLASS
  1
AMDTEDGESTANDARDISO13715
  2
AmdtEdgeStdISO13715
  3
"Amdt_StdImp|Product Description: AutoCAD Mechanical|Company: Autodesk, Inc."
 90
     1024
280
     0
281
     0
  0
CLASS
  1
ACMSURFSTANDARDISO
  2
AcmSurfTextStdISO
  3
"Amdt_StdImp|Product Description: AutoCAD Mechanical|Company: Autodesk, Inc."
 90
    33792
280
     0
281
     0
  0
CLASS
  1
ACMFCFSTANDARDISO
  2
AcmFCFStdISO
  3
"Amdt_StdImp|Product Description: AutoCAD Mechanical|Company: Autodesk, Inc."
 90
    33792
280
     0
281
     0
  0
CLASS
  1
ACMWELDSTANDARDISO
  2
AcmWeldingStdISO
  3
"Amdt_StdImp|Product Description: AutoCAD Mechanical|Company: Autodesk, Inc."
 90
     1024
280
     0
281
     0
  0
CLASS
  1
ACMIDSTANDARDISO
  2
AcmIdStdISO
  3
"Amdt_StdImp|Product Description: AutoCAD Mechanical|Company: Autodesk, Inc."
 90
    33792
280
     0
281
     0
  0
CLASS
  1
ACMDATUMSTANDARDISO
  2
AcmDatumStdISO
  3
"Amdt_StdImp|Product Description: AutoCAD Mechanical|Company: Autodesk, Inc."
 90
     1024
280
     0
281
     0
  0
CLASS
  1
ACMBOMSTANDARDISO
  2
AcmBOMStdISO
  3
"Amdt_StdImp|Product Description: AutoCAD Mechanical|Company: Autodesk, Inc."
 90
     1024
280
     0
281
     0
  0
CLASS
  1
ACMDETAILSTANDARDISO
  2
AmdtDetailSymStdISO
  3
"Amdt_StdImp|Product Description: AutoCAD Mechanical|Company: Autodesk, Inc."
 90
     1024
280
     0
281
     0
  0
CLASS
  1
ACMSECTIONSTANDARDISO
  2
AmdtSectionSymStdISO
  3
"Amdt_StdImp|Product Description: AutoCAD Mechanical|Company: Autodesk, Inc."
 90
    33792
280
     0
281
     0
  0
CLASS
  1
ACMCENTERLINESTANDARDISO
  2
AmdtCenterLineStdISO
  3
"Amdt_StdImp|Product Description: AutoCAD Mechanical|Company: Autodesk, Inc."
 90
     1024
280
     0
281
     0
  0
CLASS
  1
ACMTHREADLINESTANDARDISO
  2
AmdtThreadLineStdISO
  3
"Amdt_StdImp|Product Description: AutoCAD Mechanical|Company: Autodesk, Inc."
 90
     1024
280
     0
281
     0
  0
CLASS
  1
ACMNOTESTANDARDISO
  2
AmdtNoteStdISO
  3
"Amdt_StdImp|Product Description: AutoCAD Mechanical|Company: Autodesk, Inc."
 90
     1024
280
     0
281
     0
  0
CLASS
  1
ACMTAPERSTANDARDISO
  2
AcmTaperStdISO
  3
"Amdt_StdImp|Product Description: AutoCAD Mechanical|Company: Autodesk, Inc."
 90
     1024
280
     0
281
     0
  0
CLASS
  1
AMDTNOTETEMPLATEDB
  2
AmdtNoteTemplateDB
  3
AcmSymBB|Product Description: AutoCAD Mechanical|Company: Autodesk, Inc.
 90
     1024
280
     0
281
     0
  0
CLASS
  1
ACAMGLAYSTD
  2
AcAmgLayStd
  3
"AmgLay|Product Description: AutoCAD Mechanical|Company: Autodesk, Inc."
 90
     1024
280
     0
281
     0
  0
CLASS
  1
ACAMGDIMSTD
  2
AcAmgDimStd
  3
"AmgDim|Product Description: AutoCAD Mechanical|Company: Autodesk, Inc."
 90
     1024
280
     0
281
     0
  0
CLASS
  1
ACAMGHOLECHARTSTDISO
  2
AcAmgHoleChartStdISO
  3
AmgDim|Product Description: AutoCAD Mechanical|Company: Autodesk, Inc.
 90
     1024
280
     0
281
     0
  0
CLASS
  1
ACAMGTITLESTD
  2
AcAmgTitleStd
  3
"AmgTitle|Product Description: AutoCAD Mechanical|Company: Autodesk, Inc."
 90
     1024
280
     0
281
     0
  0
CLASS
  1
CATALOGSTATE
  2
AcAmCatalogState
  3
DesignerAssemblies
 90
    33792
280
     0
281
     0
  0
CLASS
  1
ACAMGRCOMPDEFSET
  2
AcAmGrCompDefSet
  3
DesignerAssemblies
 90
     1024
280
     0
281
     0
  0
CLASS
  1
AMDTBROWSERDBTAB
  2
AmdtBrowserDbTab
  3
McadcomServices
 90
     1024
280
     0
281
     0
  0
CLASS
  1
CBROWSERAPPOBJECT
  2
CBrowserAppObject
  3
McadcomServices
 90
     1024
280
     0
281
     0
  0
CLASS
  1
DM_PLACEHOLDER
  2
AcDmSelsetPlaceholder
  3
McadcomServices
 90
     1024
280
     0
281
     0
  0
CLASS
  1
ACAMGFILTERDAT
  2
AcAmgFilterDat
  3
"AcadM|Product Description: AutoCAD Mechanical|Company: Autodesk, Inc."
 90
    33792
280
     0
281
     0
  0
CLASS
  1
CAMSSTRUCTBTNSTATE
  2
StructBtnState
  3
DesignerAssemblies
 90
    33792
280
     0
281
     0
  0
CLASS
  1
DICTIONARYVAR
  2
AcDbDictionaryVar
  3
ObjectDBX Classes
 90
        0
280
     0
281
     0
  0
CLASS
  1
SORTENTSTABLE
  2
AcDbSortentsTable
  3
ObjectDBX Classes
 90
        0
280
     0
281
     0
  0
CLASS
  1
DIMASSOC
  2
AcDbDimAssoc
  3
"AcDbDimAssoc|Product Desc:     AcDim ARX App For Dimension|Company:          Autodesk, Inc.|WEB Address:      www.autodesk.com"
 90
    32768
280
     0
281
     0
  0
CLASS
  1
SCALE
  2
AcDbScale
  3
ObjectDBX Classes
 90
     1153
280
     0
281
     0
  0
CLASS
  1
MLEADERSTYLE
  2
AcDbMLeaderStyle
  3
ACDB_MLEADERSTYLE_CLASS
 90
     4095
280
     0
281
     0
  0
CLASS
  1
ACMANOOTATIONVIEWSTANDARDISO
  2
AmdtAnViewStdISO
  3
"Amdt_StdImp|Product Description: AutoCAD Mechanical|Company: Autodesk, Inc."
 90
     1024
280
     0
281
     0
  0
CLASS
  1
CELLSTYLEMAP
  2
AcDbCellStyleMap
  3
ObjectDBX Classes
 90
     1152
280
     0
281
     0
  0
CLASS
  1
STDPART2D
  2
AmgStdPart
  3
AmgStdPart|Product Description: AutoCAD Mechanical|Company: Autodesk, Inc.
 90
    33792
280
     0
281
     1
  0
CLASS
  1
SUN
  2
AcDbSun
  3
SCENEOE
 90
    33921
280
     0
281
     0
  0
CLASS
  1
MULTILEADER
  2
AcDbMLeader
  3
ACDB_MLEADER_CLASS
 90
    33793
280
     0
281
     1
  0
CLASS
  1
PLOTSETTINGS
  2
AcDbPlotSettings
  3
ObjectDBX Classes
 90
        0
280
     0
281
     0
  0
CLASS
  1
ACDBSECTIONVIEWSTYLE
  2
AcDbSectionViewStyle
  3
ObjectDBX Classes
 90
     1025
280
     0
281
     0
  0
CLASS
  1
ACDBDETAILVIEWSTYLE
  2
AcDbDetailViewStyle
  3
ObjectDBX Classes
 90
     1025
280
     0
281
     0
  0
CLASS
  1
EXACXREFPANELOBJECT
  2
ExAcXREFPanelObject
  3
EXAC_ESW
 90
     1025
280
     0
281
     0
  0
CLASS
  1
NPOCOLLECTION
  2
AcDbImpNonPersistentObjectsCollection
  3
ObjectDBX Classes
 90
     1153
280
     0
281
     0
  0
CLASS
  1
ACAD_EVALUATION_GRAPH
  2
AcDbEvalGraph
  3
ObjectDBX Classes
 90
    33921
280
     0
281
     0
  0
CLASS
  1
ACAECUSTOBJ
  2
AcAeEditorObj
  3
AcAeEditorObj
 90
    33792
280
     0
281
     0
  0
CLASS
  1
ACDB_DYNAMICBLOCKPURGEPREVENTER_VERSION
  2
AcDbDynamicBlockPurgePreventer
  3
ObjectDBX Classes
 90
    33921
280
     0
281
     0
  0
CLASS
  1
ACMSECTIONSTANDARDCUSTOM
  2
AmdtSectionSymStdCustom
  3
"Amdt_StdImp|Product Description: AutoCAD Mechanical|Company: Autodesk, Inc."
 90
     1024
280
     0
281
     0
  0
CLASS
  1
ACMDETAILTANDARDCUSTOM
  2
AmdtDetailSymStdCustom
  3
"Amdt_StdImp|Product Description: AutoCAD Mechanical|Company: Autodesk, Inc."
 90
     1024
280
     0
281
     0
  0
CLASS
  1
FIELD
  2
AcDbField
  3
ObjectDBX Classes
 90
     1152
280
     0
281
     0
  0
CLASS
  1
FIELDLIST
  2
AcDbFieldList
  3
ObjectDBX Classes
 90
     1152
280
     0
281
     0
  0
CLASS
  1
AEC_REFEDIT_STATUS_TRACKER
  2
AecDbRefEditStatusTracker
  3
AecArchBase70|Product Desc: Autodesk Architectural Desktop 2007 |Company: Autodesk,Inc. |WEB Address: www.autodesk.com
 90
    32897
280
     0
281
     0
  0
CLASS
  1
ACDBPLACEHOLDER
  2
AcDbPlaceHolder
  3
ObjectDBX Classes
 90
        0
280
     0
281
     0
  0
CLASS
  1
LAYOUT
  2
AcDbLayout
  3
ObjectDBX Classes
 90
        0
280
     0
281
     0
  0
CLASS
  1
ACMSURFSTANDARDISO2002
  2
AcmSurfTextStdISO2002
  3
"Amdt_StdImp|Product Description: AutoCAD Mechanical|Company: Autodesk, Inc."
 90
     1024
280
     0
281
     0
  0
CLASS
  1
ACMFCFSTANDARDISO2004
  2
AcmFCFStdISO2004
  3
"Amdt_StdImp|Product Description: AutoCAD Mechanical|Company: Autodesk, Inc."
 90
     1024
280
     0
281
     0
  0
CLASS
  1
ACMIDSTANDARDISO2004
  2
AcmIdStdISO2004
  3
"Amdt_StdImp|Product Description: AutoCAD Mechanical|Company: Autodesk, Inc."
 90
     1024
280
     0
281
     0
  0
CLASS
  1
ACMSECTIONSTANDARDISO2001
  2
AmdtSectionSymStdISO2001
  3
"Amdt_StdImp|Product Description: AutoCAD Mechanical|Company: Autodesk, Inc."
 90
     1024
280
     0
281
     0
  0
ENDSEC
  0
SECTION
  2
TABLES
  0
TABLE
  2
VPORT
  5
8
330
0
100
AcDbSymbolTable
 70
     1
  0
VPORT
  5
28
330
8
100
AcDbSymbolTableRecord
100
AcDbViewportTableRecord
  2
*Active
 70
     0
 10
0.0
 20
0.0
 11
1.0
 21
1.0
 12
435.8176506078324
 22
300.2190078735664
 13
0.0
 23
0.0
 14
2.5
 24
2.5
 15
10.0
 25
10.0
 16
0.0
 26
0.0
 36
1.0
 17
0.0
 27
0.0
 37
0.0
 40
1436.273194800248
 41
2.026448362720402
 42
50.0
 43
0.0
 44
0.0
 50
0.0
 51
0.0
 71
     0
 72
  1000
 73
     1
 74
     3
 75
     0
 76
     0
 77
     0
 78
     0
281
     0
 65
     0
110
0.0
120
0.0
130
0.0
111
1.0
121
0.0
131
0.0
112
0.0
122
1.0
132
0.0
 79
     0
146
0.0
1001
ACAD_NAV_VCDISPLAY
1070
     3
  0
ENDTAB
  0
TABLE
  2
LTYPE
  5
5
330
0
100
AcDbSymbolTable
 70
    15
  0
LTYPE
  5
29
330
5
100
AcDbSymbolTableRecord
100
AcDbLinetypeTableRecord
  2
ByBlock
 70
     0
  3

 72
    65
 73
     0
 40
0.0
  0
LTYPE
  5
2A
330
5
100
AcDbSymbolTableRecord
100
AcDbLinetypeTableRecord
  2
ByLayer
 70
     0
  3

 72
    65
 73
     0
 40
0.0
  0
LTYPE
  5
2B
330
5
100
AcDbSymbolTableRecord
100
AcDbLinetypeTableRecord
  2
Continuous
 70
     0
  3
Solid line
 72
    65
 73
     0
 40
0.0
  0
LTYPE
  5
A4
330
5
100
AcDbSymbolTableRecord
100
AcDbLinetypeTableRecord
  2
AM_ISO02W050
 70
     0
  3
__ __ __ __ __ __ __ __ __ __ __ __ __ __ __
 72
    65
 73
     2
 40
7.5
 49
6.0
 74
     0
 49
-1.5
 74
     0
  0
LTYPE
  5
A5
330
5
100
AcDbSymbolTableRecord
100
AcDbLinetypeTableRecord
  2
AM_ISO08W050
 70
     0
  3
____ . ____ . ____ . ____ . ____ . ____ . ____
 72
    65
 73
     4
 40
18.0
 49
12.0
 74
     0
 49
-1.5
 74
     0
 49
3.0
 74
     0
 49
-1.5
 74
     0
  0
LTYPE
  5
A6
330
5
100
AcDbSymbolTableRecord
100
AcDbLinetypeTableRecord
  2
AM_ISO09W050
 70
     0
  3
_____ . . _____ . . _____ . . ____ .. ____
 72
    65
 73
     6
 40
22.5
 49
12.0
 74
     0
 49
-1.5
 74
     0
 49
3.0
 74
     0
 49
-1.5
 74
     0
 49
3.0
 74
     0
 49
-1.5
 74
     0
  0
LTYPE
  5
A7
330
5
100
AcDbSymbolTableRecord
100
AcDbLinetypeTableRecord
  2
Amconstr
 70
     0
  3
_______________________
 72
    65
 73
     2
 40
9999.0
 49
9999.0
 74
     0
 49
0.0
 74
     0
  0
LTYPE
  5
A8
330
5
100
AcDbSymbolTableRecord
100
AcDbLinetypeTableRecord
  2
AM_ISO08W050x2
 70
     0
  3
__ . __ . __ . __ . __ . __
 72
    65
 73
     4
 40
9.0
 49
6.0
 74
     0
 49
-0.75
 74
     0
 49
1.5
 74
     0
 49
-0.75
 74
     0
  0
LTYPE
  5
A9
330
5
100
AcDbSymbolTableRecord
100
AcDbLinetypeTableRecord
  2
AM_ISO02W050x2
 70
     0
  3
 _ _ _ _ _ _ _ _ _ _ _ _
 72
    65
 73
     2
 40
3.75
 49
3.0
 74
     0
 49
-0.75
 74
     0
  0
LTYPE
  5
AC
330
5
100
AcDbSymbolTableRecord
100
AcDbLinetypeTableRecord
  2
Amzigzag
 70
     0
  3
/\/-/\/-/\/-/\/-/\/-/\/
 72
    65
 73
     2
 40
11.0001
 49
0.0001
 74
     4
 75
   136
340
AB
 46
0.04
 50
0.0
 44
0.0
 45
0.0
 49
-11.0
 74
     0
  0
LTYPE
  5
BC
330
5
100
AcDbSymbolTableRecord
100
AcDbLinetypeTableRecord
  2
ACISOWELD
 70
     0
  3
_ _ _ _ _
 72
    65
 73
     2
 40
2.0
 49
2.0
 74
     0
 49
-1.0
 74
     0
  0
LTYPE
  5
BD
330
5
100
AcDbSymbolTableRecord
100
AcDbLinetypeTableRecord
  2
ACISOTGB
 70
     0
  3
__ . . __ . .
 72
    65
 73
     6
 40
9.0
 49
4.0
 74
     0
 49
-1.0
 74
     0
 49
1.0
 74
     0
 49
-1.0
 74
     0
 49
1.0
 74
     0
 49
-1.0
 74
     0
  0
LTYPE
  5
BE
330
5
100
AcDbSymbolTableRecord
100
AcDbLinetypeTableRecord
  2
ACISOTGL
 70
     0
  3
_ _ _ _ _
 72
    65
 73
     2
 40
3.0
 49
2.0
 74
     0
 49
-1.0
 74
     0
  0
ENDTAB
  0
TABLE
  2
LAYER
  5
2
102
{ACAD_XDICTIONARY
360
104
102
}
330
0
100
AcDbSymbolTable
 70
     7
  0
LAYER
  5
25
102
{ACAD_XDICTIONARY
360
2025
102
}
330
2
100
AcDbSymbolTableRecord
100
AcDbLayerTableRecord
  2
0
 70
     0
 62
     7
  6
Continuous
370
    18
390
F
  0
LAYER
  5
ED
330
2
100
AcDbSymbolTableRecord
100
AcDbLayerTableRecord
  2
Defpoints
 70
     0
 62
     7
  6
Continuous
290
     0
370
    15
390
F
  0
LAYER
  5
52A2
102
{ACAD_XDICTIONARY
360
52A3
102
}
330
2
100
AcDbSymbolTableRecord
100
AcDbLayerTableRecord
  2
AM_5
 70
     0
 62
    51
  6
Continuous
370
    18
390
F
  0
LAYER
  5
52A8
102
{ACAD_XDICTIONARY
360
52A9
102
}
330
2
100
AcDbSymbolTableRecord
100
AcDbLayerTableRecord
  2
図面枠
 70
     0
 62
   111
  6
Continuous
370
    15
390
F
  0
LAYER
  5
52AC
102
{ACAD_XDICTIONARY
360
52AD
102
}
330
2
100
AcDbSymbolTableRecord
100
AcDbLayerTableRecord
  2
弱線
 70
     0
 62
   133
  6
Continuous
370
    13
390
F
  0
LAYER
  5
803D
330
2
100
AcDbSymbolTableRecord
100
AcDbLayerTableRecord
  2
文字
 70
     0
 62
    31
  6
Continuous
370
    18
390
F
1001
AcAecLayerStandard
1000

1000

  0
ENDTAB
  0
TABLE
  2
STYLE
  5
3
330
0
100
AcDbSymbolTable
 70
     7
  0
STYLE
  5
26
330
3
100
AcDbSymbolTableRecord
100
AcDbTextStyleTableRecord
  2
STANDARD
 70
     0
 40
0.0
 41
1.0
 50
0.0
 71
     0
 42
2.5
  3
simplex.shx
  4
bigfont.shx
  0
STYLE
  5
AB
330
3
100
AcDbSymbolTableRecord
100
AcDbTextStyleTableRecord
  2

 70
     1
 40
0.0
 41
1.0
 50
0.0
 71
     0
 42
2.5
  3
genltshp.shx
  4

  0
STYLE
  5
BB
330
3
100
AcDbSymbolTableRecord
100
AcDbTextStyleTableRecord
  2
ACISOGDT
 70
     0
 40
0.0
 41
1.0
 50
0.0
 71
     0
 42
2.5
  3
amgdt.shx
  4

  0
STYLE
  5
158
330
3
100
AcDbSymbolTableRecord
100
AcDbTextStyleTableRecord
  2
承認
 70
     0
 40
0.0
 41
0.9
 50
0.0
 71
     0
 42
2.5
  3
simplex.shx
  4
bigfont.shx
  0
STYLE
  5
6DAB
330
3
100
AcDbSymbolTableRecord
100
AcDbTextStyleTableRecord
  2
0.9横
 70
     0
 40
0.0
 41
0.9
 50
0.0
 71
     0
 42
2.5
  3
simplex.shx
  4
bigfont.shx
  0
STYLE
  5
81DD
330
3
100
AcDbSymbolTableRecord
100
AcDbTextStyleTableRecord
  2
0.8横
 70
     0
 40
0.0
 41
0.8
 50
0.0
 71
     0
 42
2.5
  3
simplex.shx
  4
bigfont.shx
  0
ENDTAB
  0
TABLE
  2
VIEW
  5
6
330
0
100
AcDbSymbolTable
 70
     1
  0
VIEW
  5
4873
102
{ACAD_XDICTIONARY
360
4874
102
}
330
6
100
AcDbSymbolTableRecord
100
AcDbViewTableRecord
  2
セッティングイメージ
 70
     0
 40
558.0899368771736
 10
256.1153347947321
 20
8.07330766061932
 41
910.4716963666867
 11
0.4698463103929544
 21
-0.8137976813493736
 31
0.3420201433256687
 12
0.0
 22
0.0
 32
0.0
 42
50.0
 43
0.0
 44
0.0
 50
0.0
 71
     0
281
     0
 72
     1
110
0.0
120
0.0
130
0.0
111
1.0
121
0.0
131
0.0
112
0.0
122
1.0
132
0.0
 79
     0
146
0.0
  0
ENDTAB
  0
TABLE
  2
UCS
  5
7
330
0
100
AcDbSymbolTable
 70
     0
  0
ENDTAB
  0
TABLE
  2
APPID
  5
9
330
0
100
AcDbSymbolTable
 70
   102
  0
APPID
  5
27
330
9
100
AcDbSymbolTableRecord
100
AcDbRegAppTableRecord
  2
ACAD
 70
     0
  0
APPID
  5
47
330
9
100
AcDbSymbolTableRecord
100
AcDbRegAppTableRecord
  2
MCAD_NO_VIS
 70
     0
  0
APPID
  5
48
330
9
100
AcDbSymbolTableRecord
100
AcDbRegAppTableRecord
  2
ACAD_TEMP_GRAPHIC
 70
     0
  0
APPID
  5
7A
330
9
100
AcDbSymbolTableRecord
100
AcDbRegAppTableRecord
  2
AD_DRAW
 70
     0
  0
APPID
  5
7D
330
9
100
AcDbSymbolTableRecord
100
AcDbRegAppTableRecord
  2
ACATTRIBSERVICES
 70
     0
  0
APPID
  5
9E
330
9
100
AcDbSymbolTableRecord
100
AcDbRegAppTableRecord
  2
DESIGNERASSEMBLIES
 70
     0
  0
APPID
  5
DA
330
9
100
AcDbSymbolTableRecord
100
AcDbRegAppTableRecord
  2
ACADM_DIM_EDIT
 70
     0
  0
APPID
  5
DB
330
9
100
AcDbSymbolTableRecord
100
AcDbRegAppTableRecord
  2
AMDT_DM_ADJ
 70
     0
  0
APPID
  5
148
330
9
100
AcDbSymbolTableRecord
100
AcDbRegAppTableRecord
  2
ACAD_PSEXT
 70
     0
  0
APPID
  5
152
330
9
100
AcDbSymbolTableRecord
100
AcDbRegAppTableRecord
  2
GENIUS_GENREC_14
 70
     0
  0
APPID
  5
153
330
9
100
AcDbSymbolTableRecord
100
AcDbRegAppTableRecord
  2
GENIUS_GENODEF_13
 70
     0
  0
APPID
  5
154
330
9
100
AcDbSymbolTableRecord
100
AcDbRegAppTableRecord
  2
GENIUS_GENOBJ-N-REC_13
 70
     0
  0
APPID
  5
637
330
9
100
AcDbSymbolTableRecord
100
AcDbRegAppTableRecord
  2
DCO15
 70
     0
  0
APPID
  5
69B
330
9
100
AcDbSymbolTableRecord
100
AcDbRegAppTableRecord
  2
AcAecLayerStandard
 70
     0
  0
APPID
  5
6FD
330
9
100
AcDbSymbolTableRecord
100
AcDbRegAppTableRecord
  2
GENIUS_GENOBJ-N-CEN_13
 70
     0
  0
APPID
  5
6FE
330
9
100
AcDbSymbolTableRecord
100
AcDbRegAppTableRecord
  2
GENIUS_GENCEN_19
 70
     0
  0
APPID
  5
7B4
330
9
100
AcDbSymbolTableRecord
100
AcDbRegAppTableRecord
  2
GENIUS_GENTRA_14
 70
     0
  0
APPID
  5
7B5
330
9
100
AcDbSymbolTableRecord
100
AcDbRegAppTableRecord
  2
GENIUS_GENSCREG_15
 70
     0
  0
APPID
  5
7B6
330
9
100
AcDbSymbolTableRecord
100
AcDbRegAppTableRecord
  2
GENIUS_GENOBJ-N-SDF_13
 70
     0
  0
APPID
  5
7B7
330
9
100
AcDbSymbolTableRecord
100
AcDbRegAppTableRecord
  2
GENIUS_GENOENT_13
 70
     0
  0
APPID
  5
7B8
330
9
100
AcDbSymbolTableRecord
100
AcDbRegAppTableRecord
  2
GENIUS_GENOREF_13
 70
     0
  0
APPID
  5
7B9
330
9
100
AcDbSymbolTableRecord
100
AcDbRegAppTableRecord
  2
GENIUS_GENOLIS_13
 70
     0
  0
APPID
  5
7BA
330
9
100
AcDbSymbolTableRecord
100
AcDbRegAppTableRecord
  2
GENIUS_GENDTOL_13
 70
     0
  0
APPID
  5
7BB
330
9
100
AcDbSymbolTableRecord
100
AcDbRegAppTableRecord
  2
GENIUS_GENDIMSH_14
 70
     0
  0
APPID
  5
7BC
330
9
100
AcDbSymbolTableRecord
100
AcDbRegAppTableRecord
  2
GENIUS_GENOBJ-N-FIL_13
 70
     0
  0
APPID
  5
7BD
330
9
100
AcDbSymbolTableRecord
100
AcDbRegAppTableRecord
  2
GENIUS_GENHINW_13
 70
     0
  0
APPID
  5
7BE
330
9
100
AcDbSymbolTableRecord
100
AcDbRegAppTableRecord
  2
GENIUS_GENFIL_13
 70
     0
  0
APPID
  5
7BF
330
9
100
AcDbSymbolTableRecord
100
AcDbRegAppTableRecord
  2
GENIUS_GENBH_13
 70
     0
  0
APPID
  5
7C0
330
9
100
AcDbSymbolTableRecord
100
AcDbRegAppTableRecord
  2
GENIUS_GENOBJ-NBEHI-BHF_13
 70
     0
  0
APPID
  5
7C1
330
9
100
AcDbSymbolTableRecord
100
AcDbRegAppTableRecord
  2
GENIUS_GENOBJ-NBEHI-BHB_13
 70
     0
  0
APPID
  5
7C2
330
9
100
AcDbSymbolTableRecord
100
AcDbRegAppTableRecord
  2
GENIUS_GENREC_13
 70
     0
  0
APPID
  5
7C3
330
9
100
AcDbSymbolTableRecord
100
AcDbRegAppTableRecord
  2
GENIUS_GENOBJ-N-CHA_13
 70
     0
  0
APPID
  5
7C4
330
9
100
AcDbSymbolTableRecord
100
AcDbRegAppTableRecord
  2
GENIUS_GENIUS_GENBHEDTMP_13
 70
     0
  0
APPID
  5
7C5
330
9
100
AcDbSymbolTableRecord
100
AcDbRegAppTableRecord
  2
GENIUS_GENOBJ-N-HTC_13
 70
     0
  0
APPID
  5
7C6
330
9
100
AcDbSymbolTableRecord
100
AcDbRegAppTableRecord
  2
GENIUS_GENHATCH_13
 70
     0
  0
APPID
  5
7C7
330
9
100
AcDbSymbolTableRecord
100
AcDbRegAppTableRecord
  2
GENIUS_GENOBJ-N-CRS_13
 70
     0
  0
APPID
  5
7C8
330
9
100
AcDbSymbolTableRecord
100
AcDbRegAppTableRecord
  2
GENIUS_GENOBJ-N-RSBK_13
 70
     0
  0
APPID
  5
7C9
330
9
100
AcDbSymbolTableRecord
100
AcDbRegAppTableRecord
  2
GENIUS_GENOBJ-N-LIB_13
 70
     0
  0
APPID
  5
7CA
330
9
100
AcDbSymbolTableRecord
100
AcDbRegAppTableRecord
  2
GENIUS_GENSCALE_13
 70
     0
  0
APPID
  5
DCB
330
9
100
AcDbSymbolTableRecord
100
AcDbRegAppTableRecord
  2
ACAD_EXEMPT_FROM_CAD_STANDARDS
 70
     0
  0
APPID
  5
1759
330
9
100
AcDbSymbolTableRecord
100
AcDbRegAppTableRecord
  2
ACAD_MLEADERVER
 70
     0
  0
APPID
  5
17C0
330
9
100
AcDbSymbolTableRecord
100
AcDbRegAppTableRecord
  2
ACAD_DSTYLE_DIMJAG
 70
     0
  0
APPID
  5
17C1
330
9
100
AcDbSymbolTableRecord
100
AcDbRegAppTableRecord
  2
ACAD_DSTYLE_DIMTALN
 70
     0
  0
APPID
  5
1803
330
9
100
AcDbSymbolTableRecord
100
AcDbRegAppTableRecord
  2
ACAD_DSTYLE_DIMBREAK
 70
     0
  0
APPID
  5
1957
330
9
100
AcDbSymbolTableRecord
100
AcDbRegAppTableRecord
  2
GEVID1181262513
 70
     0
  0
APPID
  5
1958
330
9
100
AcDbSymbolTableRecord
100
AcDbRegAppTableRecord
  2
GEVDC
 70
     0
  0
APPID
  5
2011
330
9
100
AcDbSymbolTableRecord
100
AcDbRegAppTableRecord
  2
GEVID1194413920
 70
     0
  0
APPID
  5
2016
330
9
100
AcDbSymbolTableRecord
100
AcDbRegAppTableRecord
  2
GEVID1194413921
 70
     0
  0
APPID
  5
206C
330
9
100
AcDbSymbolTableRecord
100
AcDbRegAppTableRecord
  2
GEVID1194480096
 70
     0
  0
APPID
  5
2081
330
9
100
AcDbSymbolTableRecord
100
AcDbRegAppTableRecord
  2
GEVID1194480097
 70
     0
  0
APPID
  5
2085
330
9
100
AcDbSymbolTableRecord
100
AcDbRegAppTableRecord
  2
GEVID1194480098
 70
     0
  0
APPID
  5
2104
330
9
100
AcDbSymbolTableRecord
100
AcDbRegAppTableRecord
  2
ACAD_DIMASSOC_CALC_DIMLFAC
 70
     0
  0
APPID
  5
2105
330
9
100
AcDbSymbolTableRecord
100
AcDbRegAppTableRecord
  2
ACAD_DIMASSOC_DIMLFAC
 70
     0
  0
APPID
  5
2106
330
9
100
AcDbSymbolTableRecord
100
AcDbRegAppTableRecord
  2
ACAD_DIMASSOC_OVERRIDDEN_DIMLFAC
 70
     0
  0
APPID
  5
211B
330
9
100
AcDbSymbolTableRecord
100
AcDbRegAppTableRecord
  2
ACAD_DSTYLE_DIMINSPECT
 70
     0
  0
APPID
  5
2AD4
330
9
100
AcDbSymbolTableRecord
100
AcDbRegAppTableRecord
  2
ACAD_DSTYLE_DIMRADIAL_EXTENSION
 70
     0
  0
APPID
  5
2CFE
330
9
100
AcDbSymbolTableRecord
100
AcDbRegAppTableRecord
  2
AcadAnnotative
 70
     0
  0
APPID
  5
2CFF
330
9
100
AcDbSymbolTableRecord
100
AcDbRegAppTableRecord
  2
GEVID1183531517
 70
     0
  0
APPID
  5
2D00
330
9
100
AcDbSymbolTableRecord
100
AcDbRegAppTableRecord
  2
GEVID1183531518
 70
     0
  0
APPID
  5
2D1F
330
9
100
AcDbSymbolTableRecord
100
AcDbRegAppTableRecord
  2
GEVID1194480099
 70
     0
  0
APPID
  5
2D23
330
9
100
AcDbSymbolTableRecord
100
AcDbRegAppTableRecord
  2
GEVID1194480100
 70
     0
  0
APPID
  5
3DC6
330
9
100
AcDbSymbolTableRecord
100
AcDbRegAppTableRecord
  2
GEVID1194480101
 70
     0
  0
APPID
  5
4E55
330
9
100
AcDbSymbolTableRecord
100
AcDbRegAppTableRecord
  2
AcadAnnoPO
 70
     0
  0
APPID
  5
502A
330
9
100
AcDbSymbolTableRecord
100
AcDbRegAppTableRecord
  2
GEVID1195605042
 70
     0
  0
APPID
  5
502B
330
9
100
AcDbSymbolTableRecord
100
AcDbRegAppTableRecord
  2
GEVID1195605043
 70
     0
  0
APPID
  5
502C
330
9
100
AcDbSymbolTableRecord
100
AcDbRegAppTableRecord
  2
GEVID1195605044
 70
     0
  0
APPID
  5
8FB5
330
9
100
AcDbSymbolTableRecord
100
AcDbRegAppTableRecord
  2
ACAD_NAV_VCDISPLAY
 70
     0
  0
APPID
  5
9065
330
9
100
AcDbSymbolTableRecord
100
AcDbRegAppTableRecord
  2
ACAUTHENVIRON
 70
     0
  0
APPID
  5
9069
330
9
100
AcDbSymbolTableRecord
100
AcDbRegAppTableRecord
  2
AcDbDynamicBlockTrueName
 70
     0
  0
APPID
  5
906A
330
9
100
AcDbSymbolTableRecord
100
AcDbRegAppTableRecord
  2
AcDbDynamicBlockGUID
 70
     0
  0
APPID
  5
9688
330
9
100
AcDbSymbolTableRecord
100
AcDbRegAppTableRecord
  2
GEVID1223428646
 70
     0
  0
APPID
  5
9689
330
9
100
AcDbSymbolTableRecord
100
AcDbRegAppTableRecord
  2
GEVID1223428647
 70
     0
  0
APPID
  5
968A
330
9
100
AcDbSymbolTableRecord
100
AcDbRegAppTableRecord
  2
GEVID1228357859
 70
     0
  0
APPID
  5
968B
330
9
100
AcDbSymbolTableRecord
100
AcDbRegAppTableRecord
  2
GENIUS_GEFSHP_13
 70
     0
  0
APPID
  5
968C
330
9
100
AcDbSymbolTableRecord
100
AcDbRegAppTableRecord
  2
GENIUS_GEFSH_13
 70
     0
  0
APPID
  5
968D
330
9
100
AcDbSymbolTableRecord
100
AcDbRegAppTableRecord
  2
GENIUS_AMGTXT_16
 70
     0
  0
APPID
  5
968E
330
9
100
AcDbSymbolTableRecord
100
AcDbRegAppTableRecord
  2
ACAD_DSTYLE_DIMJOGGED_JOGANGLE_SYMBOL
 70
     0
  0
APPID
  5
968F
330
9
100
AcDbSymbolTableRecord
100
AcDbRegAppTableRecord
  2
GEVID1206088229
 70
     0
  0
APPID
  5
9690
330
9
100
AcDbSymbolTableRecord
100
AcDbRegAppTableRecord
  2
GEVID1206088231
 70
     0
  0
APPID
  5
9691
330
9
100
AcDbSymbolTableRecord
100
AcDbRegAppTableRecord
  2
GEVID1206088232
 70
     0
  0
APPID
  5
9692
330
9
100
AcDbSymbolTableRecord
100
AcDbRegAppTableRecord
  2
GEVID1206088233
 70
     0
  0
APPID
  5
9693
330
9
100
AcDbSymbolTableRecord
100
AcDbRegAppTableRecord
  2
GEVID1206088234
 70
     0
  0
APPID
  5
9694
330
9
100
AcDbSymbolTableRecord
100
AcDbRegAppTableRecord
  2
MACHINERY
 70
     0
  0
APPID
  5
9695
330
9
100
AcDbSymbolTableRecord
100
AcDbRegAppTableRecord
  2
USERREMARKS
 70
     0
  0
APPID
  5
9696
330
9
100
AcDbSymbolTableRecord
100
AcDbRegAppTableRecord
  2
SYURUI
 70
     0
  0
APPID
  5
9697
330
9
100
AcDbSymbolTableRecord
100
AcDbRegAppTableRecord
  2
FORMERDRAWING
 70
     0
  0
APPID
  5
9698
330
9
100
AcDbSymbolTableRecord
100
AcDbRegAppTableRecord
  2
NUMBERING
 70
     0
  0
APPID
  5
9699
330
9
100
AcDbSymbolTableRecord
100
AcDbRegAppTableRecord
  2
GEVID1324008112
 70
     0
  0
APPID
  5
969A
330
9
100
AcDbSymbolTableRecord
100
AcDbRegAppTableRecord
  2
GEVCON
 70
     0
  0
APPID
  5
969B
330
9
100
AcDbSymbolTableRecord
100
AcDbRegAppTableRecord
  2
GENIUS_GENOBJ-F-SCPASSM_13
 70
     0
  0
APPID
  5
969C
330
9
100
AcDbSymbolTableRecord
100
AcDbRegAppTableRecord
  2
GEVID1324008113
 70
     0
  0
APPID
  5
969D
330
9
100
AcDbSymbolTableRecord
100
AcDbRegAppTableRecord
  2
GEVID1324008114
 70
     0
  0
APPID
  5
969E
330
9
100
AcDbSymbolTableRecord
100
AcDbRegAppTableRecord
  2
GEVID1324008115
 70
     0
  0
APPID
  5
969F
330
9
100
AcDbSymbolTableRecord
100
AcDbRegAppTableRecord
  2
GEVID1324008116
 70
     0
  0
APPID
  5
96A0
330
9
100
AcDbSymbolTableRecord
100
AcDbRegAppTableRecord
  2
GEVID1324008117
 70
     0
  0
APPID
  5
96A1
330
9
100
AcDbSymbolTableRecord
100
AcDbRegAppTableRecord
  2
GEVID1324008118
 70
     0
  0
APPID
  5
96A2
330
9
100
AcDbSymbolTableRecord
100
AcDbRegAppTableRecord
  2
GEVMK
 70
     0
  0
APPID
  5
96A3
330
9
100
AcDbSymbolTableRecord
100
AcDbRegAppTableRecord
  2
GEVID1324008119
 70
     0
  0
APPID
  5
96A4
330
9
100
AcDbSymbolTableRecord
100
AcDbRegAppTableRecord
  2
ACDBBLOCKREPETAG
 70
     0
  0
APPID
  5
96A5
330
9
100
AcDbSymbolTableRecord
100
AcDbRegAppTableRecord
  2
GEVID1341370643
 70
     0
  0
APPID
  5
96A6
330
9
100
AcDbSymbolTableRecord
100
AcDbRegAppTableRecord
  2
GEVID1341370644
 70
     0
  0
APPID
  5
9BA5
330
9
100
AcDbSymbolTableRecord
100
AcDbRegAppTableRecord
  2
ACAD_DSTYLE_DIMARC_LENGTH_SYMBOL
 70
     0
  0
ENDTAB
  0
TABLE
  2
DIMSTYLE
  5
A
330
0
100
AcDbSymbolTable
 70
     8
100
AcDbDimStyleTable
 71
     1
340
639
  0
DIMSTYLE
105
639
330
A
100
AcDbSymbolTableRecord
100
AcDbDimStyleTableRecord
  2
Standard
 70
     0
340
26
  0
DIMSTYLE
105
CA
102
{ACAD_REACTORS
330
9CA3
102
}
330
A
100
AcDbSymbolTableRecord
100
AcDbDimStyleTableRecord
  2
AM_ISO
 70
     0
  4
"
 41
2.5
 42
1.0
 43
10.0
 44
1.0
 47
0.1
 48
0.1
 73
     0
 74
     0
 77
     1
 78
     8
 79
     2
140
3.5
141
0.0
143
0.0393701
146
0.71
147
1.5
172
     1
176
   256
177
   256
178
     2
271
     2
272
     3
274
     4
283
     0
284
     8
340
26
371
    -1
372
    -1
1001
ACAD_DSTYLE_DIMARC_LENGTH_SYMBOL
1070
   379
1070
     1
  0
DIMSTYLE
105
CC
330
A
100
AcDbSymbolTableRecord
100
AcDbDimStyleTableRecord
  2
AM_ISO$4
 70
     0
  4
"
 41
2.5
 42
1.0
 43
10.0
 44
1.0
 47
0.1
 48
0.1
 73
     0
 77
     1
 78
     8
 79
     2
140
3.5
141
0.0
143
0.0393701
146
0.71
147
1.5
176
   256
177
   256
178
     2
271
     2
272
     3
274
     4
283
     0
284
     8
288
     1
289
     0
340
26
371
    -1
372
    -1
1001
ACAD_DSTYLE_DIMARC_LENGTH_SYMBOL
1070
   379
1070
     1
  0
DIMSTYLE
105
CD
330
A
100
AcDbSymbolTableRecord
100
AcDbDimStyleTableRecord
  2
AM_ISO$6
 70
     0
  4
"
 41
2.5
 42
1.0
 43
10.0
 44
1.0
 47
0.1
 48
0.1
 73
     0
 74
     0
 78
     8
 79
     2
140
3.5
141
0.0
143
0.0393701
146
0.71
147
1.5
172
     1
176
   256
177
   256
178
     2
271
     2
272
     3
274
     4
283
     0
284
     8
340
26
371
    -1
372
    -1
1001
ACAD_DSTYLE_DIMARC_LENGTH_SYMBOL
1070
   379
1070
     1
  0
DIMSTYLE
105
CE
330
A
100
AcDbSymbolTableRecord
100
AcDbDimStyleTableRecord
  2
AM_ISO$7
 70
     0
  4
"
 41
2.5
 42
1.0
 43
10.0
 44
1.0
 47
0.1
 48
0.1
 73
     0
 74
     0
 77
     1
 78
     8
 79
     2
140
5.0
141
0.0
143
0.0393701
146
0.71
147
1.5
172
     1
176
   256
177
   256
178
     2
271
     2
272
     3
274
     4
283
     0
284
     8
340
26
371
    -1
372
    -1
1001
ACAD_DSTYLE_DIMARC_LENGTH_SYMBOL
1070
   379
1070
     1
  0
DIMSTYLE
105
CF
330
A
100
AcDbSymbolTableRecord
100
AcDbDimStyleTableRecord
  2
AM_ISO$SF
 70
     0
  4
"
 41
2.5
 42
1.0
 43
10.0
 44
1.0
 47
0.1
 48
0.1
 73
     0
 74
     0
 75
     1
 76
     1
 77
     1
 78
     8
 79
     2
140
3.5
141
0.0
143
0.0393701
146
0.71
147
1.5
172
     1
176
   256
177
   256
178
     2
271
     2
272
     3
274
     4
283
     0
284
     8
340
26
371
    -1
372
    -1
1001
ACAD_DSTYLE_DIMARC_LENGTH_SYMBOL
1070
   379
1070
     1
  0
DIMSTYLE
105
D4
330
A
100
AcDbSymbolTableRecord
100
AcDbDimStyleTableRecord
  2
AM_ISO$SH
 70
     0
  4
"
 41
2.5
 42
1.0
 43
10.0
 44
1.0
 47
0.1
 48
0.1
 73
     0
 74
     0
 75
     1
 76
     1
 77
     1
 78
     8
 79
     2
140
3.5
141
0.0
143
0.0393701
144
2.0
146
0.71
147
1.5
172
     1
173
     1
176
   256
177
   256
178
     2
271
     2
272
     3
274
     4
283
     0
284
     8
340
26
343
D0
371
    -1
372
    -1
1001
ACAD_DSTYLE_DIMARC_LENGTH_SYMBOL
1070
   379
1070
     1
  0
DIMSTYLE
105
9C0E
330
A
100
AcDbSymbolTableRecord
100
AcDbDimStyleTableRecord
  2
AM_ISO$3
 70
     0
  4
"
 41
2.5
 42
1.0
 43
10.0
 44
1.0
 47
0.1
 48
0.1
 73
     0
 77
     1
 78
     8
 79
     2
140
3.5
141
0.0
143
0.0393701
146
0.71
147
1.5
176
   256
177
   256
178
     2
271
     2
272
     3
274
     4
283
     0
284
     8
288
     1
289
     0
340
26
371
    -1
372
    -1
1001
ACAD_DSTYLE_DIMBREAK
1070
   391
1040
3.75
1001
ACAD_DSTYLE_DIMJAG
1070
   388
1040
1.5
1001
ACAD_DSTYLE_DIMARC_LENGTH_SYMBOL
1070
   379
1070
     1
  0
ENDTAB
  0
TABLE
  2
BLOCK_RECORD
  5
1
330
0
100
AcDbSymbolTable
 70
     3
  0
BLOCK_RECORD
  5
37
102
{ACAD_XDICTIONARY
360
946
102
}
330
1
100
AcDbSymbolTableRecord
100
AcDbBlockTableRecord
  2
*Model_Space
340
3A
  0
BLOCK_RECORD
  5
9B62
330
1
100
AcDbSymbolTableRecord
100
AcDbBlockTableRecord
  2
*Paper_Space
340
9B63
  0
BLOCK_RECORD
  5
D0
330
1
100
AcDbSymbolTableRecord
100
AcDbBlockTableRecord
  2
GENAXEH
340
0
  0
BLOCK_RECORD
  5
9B0B
102
{ACAD_XDICTIONARY
360
9B5D
102
}
330
1
100
AcDbSymbolTableRecord
100
AcDbBlockTableRecord
  2
A$C741E39E2
340
0
102
{BLKREFS
331
9B61
102
}
1001
ACAD
1000
DesignCenter Data
1002
{
1070
     1
1070
     4
1002
}
  0
ENDTAB
  0
ENDSEC
  0
SECTION
  2
BLOCKS
  0
BLOCK
  5
38
330
37
100
AcDbEntity
  8
0
100
AcDbBlockBegin
  2
*Model_Space
 70
     0
 10
0.0
 20
0.0
 30
0.0
  3
*Model_Space
  1

  0
ENDBLK
  5
39
330
37
100
AcDbEntity
  8
0
100
AcDbBlockEnd
  0
BLOCK
  5
9B64
330
9B62
100
AcDbEntity
 67
     1
  8
0
100
AcDbBlockBegin
  2
*Paper_Space
 70
     0
 10
0.0
 20
0.0
 30
0.0
  3
*Paper_Space
  1

  0
ENDBLK
  5
9B65
330
9B62
100
AcDbEntity
 67
     1
  8
0
100
AcDbBlockEnd
  0
BLOCK
  5
D2
330
D0
100
AcDbEntity
  8
0
100
AcDbBlockBegin
  2
GENAXEH
 70
     0
 10
0.0
 20
0.0
 30
0.0
  3
GENAXEH
  1

  0
LINE
  5
D1
330
D0
100
AcDbEntity
  8
0
100
AcDbLine
 10
-1.0
 20
0.0
 30
0.0
 11
1.0
 21
0.0
 31
0.0
  0
ENDBLK
  5
D3
330
D0
100
AcDbEntity
  8
0
100
AcDbBlockEnd
  0
BLOCK
  5
9B5F
330
9B0B
100
AcDbEntity
  8
0
100
AcDbBlockBegin
  2
A$C741E39E2
 70
     0
 10
0.0
 20
0.0
 30
0.0
  3
A$C741E39E2
  1

  0
LINE
  5
9B0C
330
9B0B
100
AcDbEntity
  8
図面枠
100
AcDbLine
 10
-24.19457366241869
 20
180.8070497523241
 30
0.0
 11
174.0054263375813
 21
180.8070497523241
 31
0.0
1001
GENIUS_GENREC_14
1002
{
1000
PYDIR
1011
-24.19457366241871
1021
-104.2784688265113
1031
0.0
1002
}
1002
{
1000
PXDIR
1011
174.0054263375813
1021
180.8070497523241
1031
0.0
1002
}
1002
{
1000
PORI
1011
-24.19457366241869
1021
180.8070497523241
1031
0.0
1002
}
1002
{
1000
PINS
1011
-24.19457366241869
1021
180.8070497523241
1031
0.0
1002
}
1002
{
1000
PINS2
1011
174.0054263375813
1021
-104.2784688265113
1031
0.0
1002
}
1002
{
1000
C
1070
     1
1002
}
1001
GENIUS_GENOBJ-N-REC_13
1002
{
1000
OWNER
1000
GEN
1002
}
1001
GENIUS_GENODEF_13
1002
{
1000
HIER
1070
     0
1002
}
1002
{
1000
MANEDIT
1070
     0
1002
}
1002
{
1000
NOSEL
1070
     0
1002
}
1002
{
1000
BEHIND
1070
     0
1002
}
1002
{
1000
OTHER
1070
     0
1002
}
1002
{
1000
REACTOR
1002
}
  0
LINE
  5
9B0D
330
9B0B
100
AcDbEntity
  8
図面枠
100
AcDbLine
 10
174.0054263375813
 20
180.8070497523241
 30
0.0
 11
174.0054263375813
 21
-104.2784688265113
 31
0.0
1001
GENIUS_GENREC_14
1002
{
1000
PYDIR
1011
-24.19457366241871
1021
-104.2784688265113
1031
0.0
1002
}
1002
{
1000
PXDIR
1011
174.0054263375813
1021
180.8070497523241
1031
0.0
1002
}
1002
{
1000
PORI
1011
-24.19457366241869
1021
180.8070497523241
1031
0.0
1002
}
1002
{
1000
PINS
1011
-24.19457366241869
1021
180.8070497523241
1031
0.0
1002
}
1002
{
1000
PINS2
1011
174.0054263375813
1021
-104.2784688265113
1031
0.0
1002
}
1002
{
1000
C
1070
     1
1002
}
1001
GENIUS_GENOBJ-N-REC_13
1002
{
1000
OWNER
1000
GEN
1002
}
1001
GENIUS_GENODEF_13
1002
{
1000
HIER
1070
     0
1002
}
1002
{
1000
MANEDIT
1070
     0
1002
}
1002
{
1000
NOSEL
1070
     0
1002
}
1002
{
1000
BEHIND
1070
     0
1002
}
1002
{
1000
OTHER
1070
     0
1002
}
1002
{
1000
REACTOR
1002
}
  0
LINE
  5
9B0E
330
9B0B
100
AcDbEntity
  8
図面枠
100
AcDbLine
 10
174.0054263375813
 20
-104.2784688265113
 30
0.0
 11
-24.19457366241872
 21
-104.2784688265112
 31
0.0
1001
GENIUS_GENREC_14
1002
{
1000
PYDIR
1011
-24.19457366241871
1021
-104.2784688265113
1031
0.0
1002
}
1002
{
1000
PXDIR
1011
174.0054263375813
1021
180.8070497523241
1031
0.0
1002
}
1002
{
1000
PORI
1011
-24.19457366241869
1021
180.8070497523241
1031
0.0
1002
}
1002
{
1000
PINS
1011
-24.19457366241869
1021
180.8070497523241
1031
0.0
1002
}
1002
{
1000
PINS2
1011
174.0054263375813
1021
-104.2784688265113
1031
0.0
1002
}
1002
{
1000
C
1070
     1
1002
}
1001
GENIUS_GENOBJ-N-REC_13
1002
{
1000
OWNER
1000
GEN
1002
}
1001
GENIUS_GENODEF_13
1002
{
1000
HIER
1070
     0
1002
}
1002
{
1000
MANEDIT
1070
     0
1002
}
1002
{
1000
NOSEL
1070
     0
1002
}
1002
{
1000
BEHIND
1070
     0
1002
}
1002
{
1000
OTHER
1070
     0
1002
}
1002
{
1000
REACTOR
1002
}
  0
LINE
  5
9B0F
330
9B0B
100
AcDbEntity
  8
図面枠
100
AcDbLine
 10
-24.19457366241872
 20
-104.2784688265112
 30
0.0
 11
-24.19457366241869
 21
180.8070497523241
 31
0.0
1001
GENIUS_GENREC_14
1002
{
1000
PYDIR
1011
-24.19457366241871
1021
-104.2784688265113
1031
0.0
1002
}
1002
{
1000
PXDIR
1011
174.0054263375813
1021
180.8070497523241
1031
0.0
1002
}
1002
{
1000
PORI
1011
-24.19457366241869
1021
180.8070497523241
1031
0.0
1002
}
1002
{
1000
PINS
1011
-24.19457366241869
1021
180.8070497523241
1031
0.0
1002
}
1002
{
1000
PINS2
1011
174.0054263375813
1021
-104.2784688265113
1031
0.0
1002
}
1002
{
1000
C
1070
     1
1002
}
1001
GENIUS_GENOBJ-N-REC_13
1002
{
1000
OWNER
1000
GEN
1002
}
1001
GENIUS_GENODEF_13
1002
{
1000
HIER
1070
     0
1002
}
1002
{
1000
MANEDIT
1070
     0
1002
}
1002
{
1000
NOSEL
1070
     0
1002
}
1002
{
1000
BEHIND
1070
     0
1002
}
1002
{
1000
OTHER
1070
     0
1002
}
1002
{
1000
REACTOR
1002
}
  0
TEXT
  5
9B10
330
9B0B
100
AcDbEntity
  8
図面枠
100
AcDbText
 10
-21.39384151132443
 20
-100.4784688265113
 30
0.0
 40
3.0
  1
%%U※改良の為、予告なく仕様・デザインを変更することがあります。ご了承ください。
 41
0.6
100
AcDbText
  0
TEXT
  5
9B11
330
9B0B
100
AcDbEntity
  8
文字
100
AcDbText
 10
75.41685490900984
 20
-60.77846882651147
 30
0.0
 40
3.0
  1
コールド12
 41
0.9
  7
承認
100
AcDbText
  0
LINE
  5
9B12
330
9B0B
100
AcDbEntity
  8
図面枠
100
AcDbLine
 10
69.00542633758131
 20
-54.2784688265113
 30
0.0
 11
174.0054263375813
 21
-54.2784688265112
 31
0.0
  0
TEXT
  5
9B13
330
9B0B
100
AcDbEntity
  8
図面枠
100
AcDbText
 10
77.8854263375813
 20
-70.77846882651164
 30
0.0
 40
3.0
  1
外形寸法
 41
0.9
  7
承認
100
AcDbText
  0
LINE
  5
9B14
330
9B0B
100
AcDbEntity
  8
図面枠
100
AcDbLine
 10
69.00542633758132
 20
-79.27846882651164
 30
0.0
 11
174.0054263375813
 21
-79.27846882651137
 31
0.0
  0
LINE
  5
9B15
330
9B0B
100
AcDbEntity
  8
図面枠
100
AcDbLine
 10
99.00542633758137
 20
-54.27846882651128
 30
0.0
 11
99.00542633758128
 21
-104.2784688265113
 31
0.0
  0
LINE
  5
9B16
330
9B0B
100
AcDbEntity
  8
図面枠
100
AcDbLine
 10
69.00542633758137
 20
-74.27846882651164
 30
0.0
 11
174.0054263375814
 21
-74.27846882651137
 31
0.0
  0
LINE
  5
9B17
330
9B0B
100
AcDbEntity
  8
図面枠
100
AcDbLine
 10
174.0054263375813
 20
-64.27846882651166
 30
0.0
 11
69.00542633758131
 21
-64.27846882651166
 31
0.0
  0
TEXT
  5
9B18
330
9B0B
100
AcDbEntity
  8
図面枠
100
AcDbText
 10
81.12542633758133
 20
-78.27846882651146
 30
0.0
 40
3.0
  1
重量
 41
0.9
  7
承認
100
AcDbText
  0
TEXT
  5
9B19
330
9B0B
100
AcDbEntity
  8
図面枠
100
AcDbText
 10
130.6554263375813
 20
-77.77846882651139
 30
0.0
 40
3.0
  1
約11.5kg
 41
0.9
  7
承認
100
AcDbText
  0
TEXT
  5
9B1A
330
9B0B
100
AcDbEntity
  8
図面枠
100
AcDbText
 10
107.4539977661528
 20
-70.77846882651154
 30
0.0
 40
3.0
  1
幅240mm\U+00D7奥行320mm\U+00D7高さ85mm
 41
0.8
  7
承認
100
AcDbText
  0
LINE
  5
9B1B
330
9B0B
100
AcDbEntity
  8
図面枠
100
AcDbLine
 10
69.00542633758131
 20
-54.2784688265113
 30
0.0
 11
69.00542633758131
 21
-104.2784688265115
 31
0.0
  0
TEXT
  5
9B1C
330
9B0B
100
AcDbEntity
  8
図面枠
100
AcDbText
 10
81.12542633758131
 20
-93.27846882651114
 30
0.0
 40
3.0
  1
備考
 41
0.9
  7
0.8横
100
AcDbText
  0
TEXT
  5
9B1D
330
9B0B
100
AcDbEntity
  8
図面枠
100
AcDbText
 10
99.00542633758131
 20
-93.27846882651128
 30
0.0
 40
3.0
  1
  ・コイル：内径\U+22055\U+00D712m
 41
0.9
  7
承認
100
AcDbText
  0
LINE
  5
9B1E
330
9B0B
100
AcDbEntity
  8
AM_5
 62
     4
370
     9
100
AcDbLine
 10
0.0
 20
132.8779079918012
 30
0.0
 11
0.0
 21
144.3779079918012
 31
0.0
  0
LINE
  5
9B1F
330
9B0B
100
AcDbEntity
  8
AM_5
 62
     4
370
     9
100
AcDbLine
 10
48.00000010139582
 20
132.8779079918012
 30
0.0
 11
48.00000010139582
 21
144.3779079918012
 31
0.0
  0
LINE
  5
9B20
330
9B0B
100
AcDbEntity
  8
AM_5
 62
     4
370
     9
100
AcDbLine
 10
1.5
 20
143.3779079918012
 30
0.0
 11
46.50000010139581
 21
143.3779079918012
 31
0.0
  0
LINE
  5
9B21
330
9B0B
100
AcDbEntity
  8
0
  6
ByBlock
 62
     0
370
    -2
100
AcDbLine
 10
1.5
 20
143.1279079918011
 30
0.0
 11
0.0
 21
143.3779079918012
 31
0.0
  0
LINE
  5
9B22
330
9B0B
100
AcDbEntity
  8
0
  6
ByBlock
 62
     0
370
    -2
100
AcDbLine
 10
1.5
 20
143.6279079918012
 30
0.0
 11
0.0
 21
143.3779079918012
 31
0.0
  0
LINE
  5
9B23
330
9B0B
100
AcDbEntity
  8
0
  6
ByBlock
 62
     0
370
    -2
100
AcDbLine
 10
0.0
 20
143.3779079918012
 30
0.0
 11
1.5
 21
143.3779079918012
 31
0.0
  0
LINE
  5
9B24
330
9B0B
100
AcDbEntity
  8
0
  6
ByBlock
 62
     0
370
    -2
100
AcDbLine
 10
46.50000010139581
 20
143.6279079918012
 30
0.0
 11
48.00000010139582
 21
143.3779079918012
 31
0.0
  0
LINE
  5
9B25
330
9B0B
100
AcDbEntity
  8
0
  6
ByBlock
 62
     0
370
    -2
100
AcDbLine
 10
46.50000010139581
 20
143.1279079918011
 30
0.0
 11
48.00000010139582
 21
143.3779079918012
 31
0.0
  0
LINE
  5
9B26
330
9B0B
100
AcDbEntity
  8
0
  6
ByBlock
 62
     0
370
    -2
100
AcDbLine
 10
48.00000010139582
 20
143.3779079918012
 30
0.0
 11
46.50000010139581
 21
143.3779079918012
 31
0.0
  0
TEXT
  5
9B27
330
9B0B
100
AcDbEntity
  8
AM_5
100
AcDbText
 10
19.50000005069791
 20
144.3779079918012
 30
0.0
 40
3.5
  1
240
100
AcDbText
  0
LINE
  5
9B28
330
9B0B
100
AcDbEntity
  8
AM_5
 62
     4
370
     9
100
AcDbLine
 10
48.90000010012836
 20
67.97790785787423
 30
0.0
 11
60.40000010012835
 21
67.97790785787423
 31
0.0
  0
LINE
  5
9B29
330
9B0B
100
AcDbEntity
  8
AM_5
 62
     4
370
     9
100
AcDbLine
 10
48.90000010012836
 20
131.9779079930686
 30
0.0
 11
60.40000010012839
 21
131.9779079930686
 31
0.0
  0
LINE
  5
9B2A
330
9B0B
100
AcDbEntity
  8
AM_5
 62
     4
370
     9
100
AcDbLine
 10
59.40000010012837
 20
69.47790785787424
 30
0.0
 11
59.40000010012839
 21
130.4779079930685
 31
0.0
  0
LINE
  5
9B2B
330
9B0B
100
AcDbEntity
  8
0
  6
ByBlock
 62
     0
370
    -2
100
AcDbLine
 10
59.65000010012835
 20
69.47790785787424
 30
0.0
 11
59.40000010012837
 21
67.97790785787423
 31
0.0
  0
LINE
  5
9B2C
330
9B0B
100
AcDbEntity
  8
0
  6
ByBlock
 62
     0
370
    -2
100
AcDbLine
 10
59.15000010012835
 20
69.47790785787424
 30
0.0
 11
59.40000010012837
 21
67.97790785787423
 31
0.0
  0
LINE
  5
9B2D
330
9B0B
100
AcDbEntity
  8
0
  6
ByBlock
 62
     0
370
    -2
100
AcDbLine
 10
59.40000010012837
 20
67.97790785787423
 30
0.0
 11
59.40000010012837
 21
69.47790785787424
 31
0.0
  0
LINE
  5
9B2E
330
9B0B
100
AcDbEntity
  8
0
  6
ByBlock
 62
     0
370
    -2
100
AcDbLine
 10
59.15000010012839
 20
130.4779079930685
 30
0.0
 11
59.40000010012839
 21
131.9779079930686
 31
0.0
  0
LINE
  5
9B2F
330
9B0B
100
AcDbEntity
  8
0
  6
ByBlock
 62
     0
370
    -2
100
AcDbLine
 10
59.6500001001284
 20
130.4779079930685
 30
0.0
 11
59.40000010012839
 21
131.9779079930686
 31
0.0
  0
LINE
  5
9B30
330
9B0B
100
AcDbEntity
  8
0
  6
ByBlock
 62
     0
370
    -2
100
AcDbLine
 10
59.40000010012839
 20
131.9779079930686
 30
0.0
 11
59.40000010012839
 21
130.4779079930685
 31
0.0
  0
TEXT
  5
9B31
330
9B0B
100
AcDbEntity
  8
AM_5
100
AcDbText
 10
58.40000010012833
 20
95.47790792547145
 30
0.0
 40
3.5
  1
320
 50
90.0
100
AcDbText
  0
LINE
  5
9B32
330
9B0B
100
AcDbEntity
  8
AM_5
 62
     4
370
     9
100
AcDbLine
 10
47.60000009738223
 20
-14.00000002957378
 30
0.0
 11
60.40000010012858
 21
-14.00000002957378
 31
0.0
  0
LINE
  5
9B33
330
9B0B
100
AcDbEntity
  8
AM_5
 62
     4
370
     9
100
AcDbLine
 10
47.8000000978047
 20
3.000000006337231
 30
0.0
 11
60.40000010012858
 21
3.000000006337231
 31
0.0
  0
LINE
  5
9B34
330
9B0B
100
AcDbEntity
  8
AM_5
 62
     4
370
     9
100
AcDbLine
 10
59.40000010012858
 20
-12.50000002957378
 30
0.0
 11
59.40000010012858
 21
1.500000006337231
 31
0.0
  0
LINE
  5
9B35
330
9B0B
100
AcDbEntity
  8
0
  6
ByBlock
 62
     0
370
    -2
100
AcDbLine
 10
59.65000010012857
 20
-12.50000002957378
 30
0.0
 11
59.40000010012858
 21
-14.00000002957378
 31
0.0
  0
LINE
  5
9B36
330
9B0B
100
AcDbEntity
  8
0
  6
ByBlock
 62
     0
370
    -2
100
AcDbLine
 10
59.15000010012858
 20
-12.50000002957378
 30
0.0
 11
59.40000010012858
 21
-14.00000002957378
 31
0.0
  0
LINE
  5
9B37
330
9B0B
100
AcDbEntity
  8
0
  6
ByBlock
 62
     0
370
    -2
100
AcDbLine
 10
59.40000010012858
 20
-14.00000002957378
 30
0.0
 11
59.40000010012858
 21
-12.50000002957378
 31
0.0
  0
LINE
  5
9B38
330
9B0B
100
AcDbEntity
  8
0
  6
ByBlock
 62
     0
370
    -2
100
AcDbLine
 10
59.15000010012858
 20
1.500000006337231
 30
0.0
 11
59.40000010012858
 21
3.000000006337231
 31
0.0
  0
LINE
  5
9B39
330
9B0B
100
AcDbEntity
  8
0
  6
ByBlock
 62
     0
370
    -2
100
AcDbLine
 10
59.65000010012857
 20
1.500000006337231
 30
0.0
 11
59.40000010012858
 21
3.000000006337231
 31
0.0
  0
LINE
  5
9B3A
330
9B0B
100
AcDbEntity
  8
0
  6
ByBlock
 62
     0
370
    -2
100
AcDbLine
 10
59.40000010012858
 20
3.000000006337231
 30
0.0
 11
59.40000010012858
 21
1.500000006337231
 31
0.0
  0
TEXT
  5
9B3B
330
9B0B
100
AcDbEntity
  8
AM_5
100
AcDbText
 10
58.40000010012854
 20
-8.333333344951583
 30
0.0
 40
3.5
  1
85
 50
90.0
100
AcDbText
  0
LINE
  5
9B3C
330
9B0B
100
AcDbEntity
  8
AM_5
 62
     4
370
     9
100
AcDbLine
 10
86.43128335368592
 20
-13.00000002746137
 30
0.0
 11
71.63128334670917
 21
-13.00000002746135
 31
0.0
  0
LINE
  5
9B3D
330
9B0B
100
AcDbEntity
  8
AM_5
 62
     4
370
     9
100
AcDbLine
 10
83.13128334670919
 20
0.0
 30
0.0
 11
71.63128334670919
 21
0.0000000000000142
 31
0.0
  0
LINE
  5
9B3E
330
9B0B
100
AcDbEntity
  8
AM_5
 62
     4
370
     9
100
AcDbLine
 10
72.63128334670916
 20
-11.50000002746137
 30
0.0
 11
72.63128334670916
 21
-1.5
 31
0.0
  0
LINE
  5
9B3F
330
9B0B
100
AcDbEntity
  8
0
  6
ByBlock
 62
     0
370
    -2
100
AcDbLine
 10
72.88128334670917
 20
-11.50000002746137
 30
0.0
 11
72.63128334670916
 21
-13.00000002746137
 31
0.0
  0
LINE
  5
9B40
330
9B0B
100
AcDbEntity
  8
0
  6
ByBlock
 62
     0
370
    -2
100
AcDbLine
 10
72.38128334670917
 20
-11.50000002746137
 30
0.0
 11
72.63128334670916
 21
-13.00000002746137
 31
0.0
  0
LINE
  5
9B41
330
9B0B
100
AcDbEntity
  8
0
  6
ByBlock
 62
     0
370
    -2
100
AcDbLine
 10
72.63128334670916
 20
-13.00000002746137
 30
0.0
 11
72.63128334670916
 21
-11.50000002746137
 31
0.0
  0
LINE
  5
9B42
330
9B0B
100
AcDbEntity
  8
0
  6
ByBlock
 62
     0
370
    -2
100
AcDbLine
 10
72.38128334670919
 20
-1.5
 30
0.0
 11
72.63128334670916
 21
0.0
 31
0.0
  0
LINE
  5
9B43
330
9B0B
100
AcDbEntity
  8
0
  6
ByBlock
 62
     0
370
    -2
100
AcDbLine
 10
72.88128334670919
 20
-1.5
 30
0.0
 11
72.63128334670916
 21
0.0
 31
0.0
  0
LINE
  5
9B44
330
9B0B
100
AcDbEntity
  8
0
  6
ByBlock
 62
     0
370
    -2
100
AcDbLine
 10
72.63128334670916
 20
0.0
 30
0.0
 11
72.63128334670916
 21
-1.5
 31
0.0
  0
TEXT
  5
9B45
330
9B0B
100
AcDbEntity
  8
AM_5
100
AcDbText
 10
71.63128334670915
 20
-9.333333347063984
 30
0.0
 40
3.5
  1
65
 50
90.0
100
AcDbText
  0
LINE
  5
9B46
330
9B0B
100
AcDbEntity
  8
AM_5
 62
     4
370
     9
100
AcDbLine
 10
145.6312834724035
 20
-14.00000002957378
 30
0.0
 11
161.0312834806419
 21
-14.00000002957378
 31
0.0
  0
LINE
  5
9B47
330
9B0B
100
AcDbEntity
  8
AM_5
 62
     4
370
     9
100
AcDbLine
 10
149.5312834806419
 20
0.0
 30
0.0
 11
161.0312834806419
 21
0.0
 31
0.0
  0
LINE
  5
9B48
330
9B0B
100
AcDbEntity
  8
AM_5
 62
     4
370
     9
100
AcDbLine
 10
160.0312834806419
 20
-12.50000002957378
 30
0.0
 11
160.0312834806419
 21
-1.5
 31
0.0
  0
LINE
  5
9B49
330
9B0B
100
AcDbEntity
  8
0
  6
ByBlock
 62
     0
370
    -2
100
AcDbLine
 10
160.2812834806419
 20
-12.50000002957378
 30
0.0
 11
160.0312834806419
 21
-14.00000002957378
 31
0.0
  0
LINE
  5
9B4A
330
9B0B
100
AcDbEntity
  8
0
  6
ByBlock
 62
     0
370
    -2
100
AcDbLine
 10
159.7812834806419
 20
-12.50000002957378
 30
0.0
 11
160.0312834806419
 21
-14.00000002957378
 31
0.0
  0
LINE
  5
9B4B
330
9B0B
100
AcDbEntity
  8
0
  6
ByBlock
 62
     0
370
    -2
100
AcDbLine
 10
160.0312834806419
 20
-14.00000002957378
 30
0.0
 11
160.0312834806419
 21
-12.50000002957378
 31
0.0
  0
LINE
  5
9B4C
330
9B0B
100
AcDbEntity
  8
0
  6
ByBlock
 62
     0
370
    -2
100
AcDbLine
 10
159.7812834806419
 20
-1.5
 30
0.0
 11
160.0312834806419
 21
0.0
 31
0.0
  0
LINE
  5
9B4D
330
9B0B
100
AcDbEntity
  8
0
  6
ByBlock
 62
     0
370
    -2
100
AcDbLine
 10
160.2812834806419
 20
-1.5
 30
0.0
 11
160.0312834806419
 21
0.0
 31
0.0
  0
LINE
  5
9B4E
330
9B0B
100
AcDbEntity
  8
0
  6
ByBlock
 62
     0
370
    -2
100
AcDbLine
 10
160.0312834806419
 20
0.0
 30
0.0
 11
160.0312834806419
 21
-1.5
 31
0.0
  0
TEXT
  5
9B4F
330
9B0B
100
AcDbEntity
  8
AM_5
100
AcDbText
 10
159.0312834806419
 20
-9.833333348120193
 30
0.0
 40
3.5
  1
70
 50
90.0
100
AcDbText
  0
TEXT
  5
9B50
330
9B0B
100
AcDbEntity
  8
図面枠
100
AcDbText
 10
101.3090783647569
 20
-60.56418311222564
 30
0.0
 40
3.0
  1
A4  尺度 1/ 5
 41
0.6
  7
0.9横
100
AcDbText
  0
LINE
  5
9B51
330
9B0B
100
AcDbEntity
  8
図面枠
100
AcDbLine
 10
141.3098732490753
 20
-64.27846882651166
 30
0.0
 11
141.3098732490753
 21
-54.27846882651166
 31
0.0
  0
LINE
  5
9B52
330
9B0B
100
AcDbEntity
  8
図面枠
100
AcDbLine
 10
120.3098732490753
 20
-64.27846882651166
 30
0.0
 11
120.3098732490753
 21
-54.27846882651166
 31
0.0
  0
TEXT
  5
9B53
330
9B0B
100
AcDbEntity
  8
図面枠
100
AcDbText
 10
122.4955875347895
 20
-60.56418311222596
 30
0.0
 40
3.0
  1
2014/01/20
 41
0.6
  7
0.9横
100
AcDbText
  0
HATCH
  5
9B54
330
9B0B
100
AcDbEntity
  8
0
 62
   172
100
AcDbHatch
 10
0.0
 20
0.0
 30
0.0
210
0.0
220
0.0
230
1.0
  2
SOLID
 70
     1
 71
     0
 91
        1
 92
        1
 93
        4
 72
     1
 10
146.9173644888777
 20
-59.34189702985428
 11
148.4605493656831
 21
-61.81150907289985
 72
     1
 10
148.4605493656831
 20
-61.81150907289974
 11
151.4749191192936
 21
-56.98750907289967
 72
     1
 10
151.4749191192936
 20
-56.9875090728999
 11
148.3885493656831
 21
-56.9875090728999
 72
     1
 10
148.3885493656831
 20
-56.9875090728999
 11
146.9173644888777
 21
-59.3418970298544
 97
        0
 75
     0
 76
     1
 98
        1
 10
127.9758084766503
 20
-78.14500065444859
1001
ACAD
1010
0.0
1020
0.0
1030
0.0
1001
GENIUS_GENOBJ-N-HTC_13
1002
{
1000
OWNER
1000
GEN
1002
}
1001
GENIUS_GENODEF_13
1002
{
1000
HIER
1070
     0
1002
}
1002
{
1000
MANEDIT
1070
     0
1002
}
1002
{
1000
NOSEL
1070
     0
1002
}
1002
{
1000
BEHIND
1070
     0
1002
}
1002
{
1000
OTHER
1070
     0
1002
}
1002
{
1000
REACTOR
1002
}
1001
GENIUS_GENHATCH_13
1002
{
1000
DATA
1040
45.0
1042
1.900000000000004
1000
_U
1070
     0
1011
149.6174356921909
1021
-57.86812762183771
1031
0.0
1002
}
1002
{
1000
UCS
1010
0.0
1020
0.0
1030
0.0
1010
1.0
1020
0.0
1030
0.0
1010
0.0
1020
1.0
1030
0.0
1002
}
  0
TEXT
  5
9B55
330
9B0B
100
AcDbEntity
  8
0
 62
   172
100
AcDbText
 10
151.6232634677428
 20
-59.32581041890853
 30
0.0
 40
1.511999999999999
  1
株式
100
AcDbText
  0
TEXT
  5
9B56
330
9B0B
100
AcDbEntity
  8
0
 62
   172
100
AcDbText
 10
151.5965361950155
 20
-61.3379922370903
 30
0.0
 40
1.511999999999999
  1
会社
100
AcDbText
  0
HATCH
  5
9B57
330
9B0B
100
AcDbEntity
  8
0
 62
   172
100
AcDbHatch
 10
0.0
 20
0.0
 30
0.0
210
0.0
220
0.0
230
1.0
  2
SOLID
 70
     1
 71
     0
 91
        3
 92
        1
 93
       10
 72
     2
 10
168.8957493656831
 20
-58.21870907289973
 40
0.4319999999999919
 50
359.9999999999994
 51
450.0000000000008
 73
     0
 72
     1
 10
168.8957493656831
 20
-58.65070907289998
 11
168.6365493656831
 21
-58.65070907289998
 72
     1
 10
168.6365493656831
 20
-58.65070907289998
 11
168.6365493656831
 21
-60.2275090729
 72
     1
 10
168.6365493656831
 20
-60.22750907289979
 11
169.1981493656831
 21
-60.22750907289979
 72
     1
 10
169.1981493656831
 20
-60.22750907289979
 11
169.1981493656831
 21
-61.52350907289983
 72
     1
 10
169.1981493656831
 20
-61.52350907289994
 11
171.7685493656831
 21
-61.52350907289994
 72
     2
 10
171.7038739678925
 20
-60.1988336751093
 40
1.326253300312942
 50
272.7951656096049
 51
357.2048343903955
 73
     1
 72
     1
 10
173.0285493656831
 20
-60.26350907289985
 11
173.0285493656831
 21
-57.67150907289985
 72
     1
 10
173.0285493656831
 20
-57.67150907289972
 11
169.3277493656831
 21
-57.67150907289972
 72
     1
 10
169.3277493656831
 20
-57.67150907289972
 11
169.3277493656831
 21
-58.21870907289971
 97
        0
 92
       16
 93
        5
 72
     2
 10
171.1205493656831
 20
-59.50750907289986
 40
0.3960000000000001
 50
0.0000000000006107
 51
90.0
 73
     0
 72
     1
 10
171.1205493656831
 20
-59.90350907289982
 11
169.9829493656831
 21
-59.90350907289982
 72
     2
 10
169.4672993704423
 20
-58.85634707689753
 40
1.167237406641532
 50
296.2168428093594
 51
343.7226386468612
 73
     1
 72
     1
 10
170.5877493656831
 20
-59.1835090728999
 11
171.5165493656831
 21
-59.1835090728999
 72
     1
 10
171.5165493656831
 20
-59.1835090728999
 11
171.5165493656831
 21
-59.50750907289998
 97
        0
 92
       16
 93
       14
 72
     2
 10
171.6965493656831
 20
-60.19150907289973
 40
0.9719999999999997
 50
360.0
 51
450.0
 73
     0
 72
     1
 10
171.6965493656831
 20
-61.16350907289994
 11
169.5581493656831
 21
-61.16350907289994
 72
     1
 10
169.558149365683
 20
-61.16350907289994
 11
169.558149365683
 21
-60.26350907289995
 72
     1
 10
169.558149365683
 20
-60.26350907289985
 11
171.2645493656831
 21
-60.26350907289985
 72
     2
 10
171.2645493656831
 20
-59.65150907289975
 40
0.6120000000000021
 50
270.0
 51
359.9999999999998
 73
     1
 72
     1
 10
171.8765493656831
 20
-59.65150907289975
 11
171.8765493656831
 21
-58.82350907289978
 72
     1
 10
171.8765493656831
 20
-58.82350907289991
 11
170.3645493656831
 21
-58.82350907289991
 72
     2
 10
169.136309282081
 20
-58.53546097257741
 40
1.26156466780984
 50
13.19854039234393
 51
87.19031742312592
 73
     0
 72
     1
 10
169.1981493656831
 20
-59.79550907289986
 11
168.9965493656831
 21
-59.79550907289986
 72
     1
 10
168.9965493656831
 20
-59.79550907289986
 11
168.9965493656831
 21
-59.01070907289986
 72
     2
 10
168.9965493656831
 20
-58.31950907289987
 40
0.6912000000000017
 50
270.0000000000007
 51
359.9999999999998
 73
     1
 72
     1
 10
169.6877493656831
 20
-58.31950907289987
 11
169.6877493656831
 21
-58.03150907289985
 72
     1
 10
169.6877493656831
 20
-58.03150907289985
 11
172.668549365683
 21
-58.03150907289985
 72
     1
 10
172.668549365683
 20
-58.03150907289985
 11
172.668549365683
 21
-60.19150907289994
 97
        0
 75
     0
 76
     1
 98
        1
 10
128.1358084766503
 20
-70.94500065444866
1001
ACAD
1010
0.0
1020
0.0
1030
0.0
1001
GENIUS_GENOBJ-N-HTC_13
1002
{
1000
OWNER
1000
GEN
1002
}
1001
GENIUS_GENODEF_13
1002
{
1000
HIER
1070
     0
1002
}
1002
{
1000
MANEDIT
1070
     0
1002
}
1002
{
1000
NOSEL
1070
     0
1002
}
1002
{
1000
BEHIND
1070
     0
1002
}
1002
{
1000
OTHER
1070
     0
1002
}
1002
{
1000
REACTOR
1002
}
1001
GENIUS_GENHATCH_13
1002
{
1000
DATA
1040
45.0
1042
1.900000000000004
1000
_U
1070
     0
1011
171.8814224036109
1021
-57.92468006369187
1031
0.0
1002
}
1002
{
1000
UCS
1010
0.0
1020
0.0
1030
0.0
1010
1.0
1020
0.0
1030
0.0
1010
0.0
1020
1.0
1030
0.0
1002
}
  0
HATCH
  5
9B58
330
9B0B
100
AcDbEntity
  8
0
 62
   172
100
AcDbHatch
 10
0.0
 20
0.0
 30
0.0
210
0.0
220
0.0
230
1.0
  2
SOLID
 70
     1
 71
     0
 91
        2
 92
        1
 93
        8
 72
     1
 10
166.0445493656831
 20
-57.67150907289972
 11
164.3885493656831
 21
-57.67150907289972
 72
     1
 10
164.3885493656831
 20
-57.67150907289972
 11
164.3885493656831
 21
-61.52350907289982
 72
     1
 10
164.3885493656831
 20
-61.52350907289994
 11
166.0445493656831
 21
-61.52350907289994
 72
     1
 10
166.0445493656831
 20
-61.52350907289994
 11
166.0445493656831
 21
-60.2275090728999
 72
     1
 10
166.0445493656831
 20
-60.22750907289979
 11
168.2405493656831
 21
-60.22750907289979
 72
     1
 10
168.2405493656831
 20
-60.22750907289979
 11
168.2405493656831
 21
-58.60750907289979
 72
     1
 10
168.2405493656831
 20
-58.6075090728999
 11
166.0445493656831
 21
-58.6075090728999
 72
     1
 10
166.0445493656831
 20
-58.6075090728999
 11
166.0445493656831
 21
-57.67150907289996
 97
        0
 92
       16
 93
        8
 72
     1
 10
167.8445493656831
 20
-59.83150907289983
 11
165.6485493656831
 21
-59.83150907289983
 72
     1
 10
165.6485493656831
 20
-59.83150907289983
 11
165.6485493656831
 21
-61.12750907289989
 72
     1
 10
165.6485493656831
 20
-61.12750907289989
 11
164.7845493656831
 21
-61.12750907289989
 72
     1
 10
164.7845493656831
 20
-61.12750907289989
 11
164.7845493656831
 21
-58.06750907289982
 72
     1
 10
164.7845493656831
 20
-58.06750907289982
 11
165.648549365683
 21
-58.06750907289982
 72
     1
 10
165.6485493656831
 20
-58.06750907289982
 11
165.6485493656831
 21
-59.00350907289974
 72
     1
 10
165.6485493656831
 20
-59.00350907289986
 11
167.8445493656831
 21
-59.00350907289986
 72
     1
 10
167.8445493656831
 20
-59.00350907289986
 11
167.8445493656831
 21
-59.83150907289983
 97
        0
 75
     0
 76
     1
 98
        1
 10
128.1358084766503
 20
-70.94500065444866
1001
ACAD
1010
0.0
1020
0.0
1030
0.0
1001
GENIUS_GENOBJ-N-HTC_13
1002
{
1000
OWNER
1000
GEN
1002
}
1001
GENIUS_GENODEF_13
1002
{
1000
HIER
1070
     0
1002
}
1002
{
1000
MANEDIT
1070
     0
1002
}
1002
{
1000
NOSEL
1070
     0
1002
}
1002
{
1000
BEHIND
1070
     0
1002
}
1002
{
1000
OTHER
1070
     0
1002
}
1002
{
1000
REACTOR
1002
}
1001
GENIUS_GENHATCH_13
1002
{
1000
DATA
1040
45.0
1042
1.900000000000004
1000
_U
1070
     0
1011
167.7757821025821
1021
-58.8488240179356
1031
0.0
1002
}
1002
{
1000
UCS
1010
0.0
1020
0.0
1030
0.0
1010
1.0
1020
0.0
1030
0.0
1010
0.0
1020
1.0
1030
0.0
1002
}
  0
HATCH
  5
9B59
330
9B0B
100
AcDbEntity
  8
0
 62
   172
100
AcDbHatch
 10
0.0
 20
0.0
 30
0.0
210
0.0
220
0.0
230
1.0
  2
SOLID
 70
     1
 71
     0
 91
        4
 92
        1
 93
        5
 72
     1
 10
160.536549365683
 20
-61.52350907289994
 11
162.9125493656831
 21
-61.52350907289994
 72
     2
 10
162.9125493656831
 20
-60.3715090728998
 40
1.152
 50
270.0
 51
360.0
 73
     1
 72
     1
 10
164.0645493656831
 20
-60.3715090728998
 11
164.0645493656831
 21
-58.75150907289978
 72
     1
 10
164.0645493656831
 20
-58.75150907289977
 11
160.5365493656831
 21
-58.75150907289977
 72
     1
 10
160.536549365683
 20
-58.75150907289977
 11
160.536549365683
 21
-61.52350907289982
 97
        0
 92
       16
 93
        4
 72
     1
 10
161.5445493656831
 20
-59.86750907289978
 11
160.9685493656831
 21
-59.86750907289978
 72
     1
 10
160.9685493656831
 20
-59.86750907289978
 11
160.9685493656831
 21
-59.14750907289975
 72
     1
 10
160.9685493656831
 20
-59.14750907289985
 11
161.5445493656831
 21
-59.14750907289985
 72
     1
 10
161.5445493656831
 20
-59.14750907289985
 11
161.5445493656831
 21
-59.86750907289986
 97
        0
 92
       16
 93
        4
 72
     1
 10
162.5525493656831
 20
-59.86750907289978
 11
161.9405493656831
 21
-59.86750907289978
 72
     1
 10
161.9405493656831
 20
-59.86750907289978
 11
161.9405493656831
 21
-59.14750907289975
 72
     1
 10
161.9405493656831
 20
-59.14750907289985
 11
162.5525493656831
 21
-59.14750907289985
 72
     1
 10
162.5525493656831
 20
-59.14750907289985
 11
162.5525493656831
 21
-59.86750907289986
 97
        0
 92
       16
 93
        8
 72
     2
 10
162.7325493656831
 20
-60.19150907289973
 40
0.9
 50
360.0
 51
450.0
 73
     0
 72
     1
 10
162.7325493656831
 20
-61.09150907289983
 11
160.9685493656831
 21
-61.09150907289983
 72
     1
 10
160.9685493656831
 20
-61.09150907289983
 11
160.9685493656831
 21
-60.40750907289986
 72
     1
 10
160.9685493656831
 20
-60.40750907289986
 11
162.5165493656831
 21
-60.40750907289986
 72
     2
 10
162.5165493656831
 20
-59.97550907289983
 40
0.4320000000000002
 50
270.0
 51
360.0
 73
     1
 72
     1
 10
162.948549365683
 20
-59.97550907289983
 11
162.948549365683
 21
-59.14750907289985
 72
     1
 10
162.948549365683
 20
-59.14750907289985
 11
163.6325493656831
 21
-59.14750907289985
 72
     1
 10
163.6325493656831
 20
-59.14750907289985
 11
163.6325493656831
 21
-60.19150907289994
 97
        0
 75
     0
 76
     1
 98
        1
 10
128.1358084766503
 20
-70.94500065444866
1001
ACAD
1010
0.0
1020
0.0
1030
0.0
1001
GENIUS_GENOBJ-N-HTC_13
1002
{
1000
OWNER
1000
GEN
1002
}
1001
GENIUS_GENODEF_13
1002
{
1000
HIER
1070
     0
1002
}
1002
{
1000
MANEDIT
1070
     0
1002
}
1002
{
1000
NOSEL
1070
     0
1002
}
1002
{
1000
BEHIND
1070
     0
1002
}
1002
{
1000
OTHER
1070
     0
1002
}
1002
{
1000
REACTOR
1002
}
1001
GENIUS_GENHATCH_13
1002
{
1000
DATA
1040
45.0
1042
1.900000000000004
1000
_U
1070
     0
1011
163.0124868760376
1021
-59.00973042174165
1031
0.0
1002
}
1002
{
1000
UCS
1010
0.0
1020
0.0
1030
0.0
1010
1.0
1020
0.0
1030
0.0
1010
0.0
1020
1.0
1030
0.0
1002
}
  0
HATCH
  5
9B5A
330
9B0B
100
AcDbEntity
  8
0
 62
   172
100
AcDbHatch
 10
0.0
 20
0.0
 30
0.0
210
0.0
220
0.0
230
1.0
  2
SOLID
 70
     1
 71
     0
 91
        2
 92
        1
 93
        4
 72
     1
 10
156.144549365683
 20
-59.25550907289981
 11
159.744549365683
 21
-59.25550907289981
 72
     1
 10
159.7445493656831
 20
-59.25550907289981
 11
159.7445493656831
 21
-57.67150907289973
 72
     1
 10
159.7445493656831
 20
-57.67150907289972
 11
156.1445493656831
 21
-57.67150907289972
 72
     1
 10
156.144549365683
 20
-57.67150907289972
 11
156.144549365683
 21
-59.2555090728998
 97
        0
 92
       16
 93
        4
 72
     1
 10
159.3125493656831
 20
-58.82350907289991
 11
156.576549365683
 21
-58.82350907289991
 72
     1
 10
156.5765493656831
 20
-58.82350907289991
 11
156.5765493656831
 21
-58.10350907289986
 72
     1
 10
156.5765493656831
 20
-58.10350907289985
 11
159.3125493656831
 21
-58.10350907289985
 72
     1
 10
159.3125493656831
 20
-58.10350907289985
 11
159.3125493656831
 21
-58.8235090728999
 97
        0
 75
     0
 76
     1
 98
        1
 10
128.1358084766503
 20
-70.94500065444866
1001
ACAD
1010
0.0
1020
0.0
1030
0.0
1001
GENIUS_GENOBJ-N-HTC_13
1002
{
1000
OWNER
1000
GEN
1002
}
1001
GENIUS_GENODEF_13
1002
{
1000
HIER
1070
     0
1002
}
1002
{
1000
MANEDIT
1070
     0
1002
}
1002
{
1000
NOSEL
1070
     0
1002
}
1002
{
1000
BEHIND
1070
     0
1002
}
1002
{
1000
OTHER
1070
     0
1002
}
1002
{
1000
REACTOR
1002
}
1001
GENIUS_GENHATCH_13
1002
{
1000
DATA
1040
45.0
1042
1.900000000000004
1000
_U
1070
     0
1011
159.4493338065574
1021
-57.92540165888735
1031
0.0
1002
}
1002
{
1000
UCS
1010
0.0
1020
0.0
1030
0.0
1010
1.0
1020
0.0
1030
0.0
1010
0.0
1020
1.0
1030
0.0
1002
}
  0
HATCH
  5
9B5B
330
9B0B
100
AcDbEntity
  8
0
 62
   172
100
AcDbHatch
 10
0.0
 20
0.0
 30
0.0
210
0.0
220
0.0
230
1.0
  2
SOLID
 70
     1
 71
     0
 91
        2
 92
        1
 93
        4
 72
     1
 10
155.7125493656831
 20
-61.52350907289994
 11
160.1765493656831
 21
-61.52350907289994
 72
     1
 10
160.1765493656831
 20
-61.52350907289994
 11
160.1765493656831
 21
-59.83150907289994
 72
     1
 10
160.1765493656831
 20
-59.83150907289983
 11
155.7125493656831
 21
-59.83150907289983
 72
     1
 10
155.7125493656831
 20
-59.83150907289983
 11
155.7125493656831
 21
-61.52350907289983
 97
        0
 92
       16
 93
        4
 72
     1
 10
159.7445493656831
 20
-61.09150907289983
 11
156.1445493656831
 21
-61.09150907289983
 72
     1
 10
156.144549365683
 20
-61.09150907289983
 11
156.144549365683
 21
-60.26350907289986
 72
     1
 10
156.144549365683
 20
-60.26350907289985
 11
159.744549365683
 21
-60.26350907289985
 72
     1
 10
159.7445493656831
 20
-60.26350907289985
 11
159.7445493656831
 21
-61.09150907289982
 97
        0
 75
     0
 76
     1
 98
        1
 10
128.1358084766503
 20
-70.94500065444866
1001
ACAD
1010
0.0
1020
0.0
1030
0.0
1001
GENIUS_GENOBJ-N-HTC_13
1002
{
1000
OWNER
1000
GEN
1002
}
1001
GENIUS_GENODEF_13
1002
{
1000
HIER
1070
     0
1002
}
1002
{
1000
MANEDIT
1070
     0
1002
}
1002
{
1000
NOSEL
1070
     0
1002
}
1002
{
1000
BEHIND
1070
     0
1002
}
1002
{
1000
OTHER
1070
     0
1002
}
1002
{
1000
REACTOR
1002
}
1001
GENIUS_GENHATCH_13
1002
{
1000
DATA
1040
45.0
1042
1.900000000000004
1000
_U
1070
     0
1011
159.8315404572931
1021
-59.92155238486633
1031
0.0
1002
}
1002
{
1000
UCS
1010
0.0
1020
0.0
1030
0.0
1010
1.0
1020
0.0
1030
0.0
1010
0.0
1020
1.0
1030
0.0
1002
}
  0
HATCH
  5
9B5C
330
9B0B
100
AcDbEntity
  8
0
 62
   172
100
AcDbHatch
 10
0.0
 20
0.0
 30
0.0
210
0.0
220
0.0
230
1.0
  2
SOLID
 70
     1
 71
     0
 91
        1
 92
        1
 93
        3
 72
     1
 10
142.3325493656831
 20
-61.81150907289974
 11
148.2725493656831
 21
-61.81150907289974
 72
     1
 10
148.2725493656831
 20
-61.81150907289974
 11
145.2845493656831
 21
-57.029709500125
 72
     1
 10
145.2845493656831
 20
-57.0297095001251
 11
142.3325493656831
 21
-61.81150907289985
 97
        0
 75
     0
 76
     1
 98
        1
 10
127.8598084766503
 20
-70.94500065444866
1001
ACAD
1010
0.0
1020
0.0
1030
0.0
1001
GENIUS_GENOBJ-N-HTC_13
1002
{
1000
OWNER
1000
GEN
1002
}
1001
GENIUS_GENODEF_13
1002
{
1000
HIER
1070
     0
1002
}
1002
{
1000
MANEDIT
1070
     0
1002
}
1002
{
1000
NOSEL
1070
     0
1002
}
1002
{
1000
BEHIND
1070
     0
1002
}
1002
{
1000
OTHER
1070
     0
1002
}
1002
{
1000
REACTOR
1002
}
1001
GENIUS_GENHATCH_13
1002
{
1000
DATA
1040
45.0
1042
1.900000000000004
1000
_U
1070
     0
1011
146.3575458200912
1021
-59.76128275654206
1031
0.0
1002
}
1002
{
1000
UCS
1010
0.0
1020
0.0
1030
0.0
1010
1.0
1020
0.0
1030
0.0
1010
0.0
1020
1.0
1030
0.0
1002
}
  0
ENDBLK
  5
9B60
330
9B0B
100
AcDbEntity
  8
0
100
AcDbBlockEnd
  0
ENDSEC
  0
SECTION
  2
ENTITIES
  0
LINE
  5
84F4
330
37
100
AcDbEntity
  8
弱線
100
AcDbLine
 10
94.04051661257359
 20
734.787090811587
 30
0.0
 11
97.79051661257359
 21
738.787090811587
 31
0.0
  0
LINE
  5
84F5
330
37
100
AcDbEntity
  8
弱線
100
AcDbLine
 10
97.79051661257359
 20
738.787090811587
 30
0.0
 11
99.79051661257358
 21
738.787090811587
 31
0.0
  0
LINE
  5
84F6
330
37
100
AcDbEntity
  8
弱線
100
AcDbLine
 10
262.7905166125736
 20
738.787090811587
 30
0.0
 11
262.7905166125736
 21
738.787090811587
 31
0.0
  0
LINE
  5
84F7
330
37
100
AcDbEntity
  8
弱線
100
AcDbLine
 10
262.7905166125736
 20
738.787090811587
 30
0.0
 11
264.7905166125736
 21
738.787090811587
 31
0.0
  0
LINE
  5
84F8
330
37
100
AcDbEntity
  8
弱線
100
AcDbLine
 10
264.7905166125736
 20
738.787090811587
 30
0.0
 11
268.5405166125736
 21
734.787090811587
 31
0.0
  0
LINE
  5
84F9
330
37
100
AcDbEntity
  8
弱線
100
AcDbLine
 10
196.7905166125736
 20
764.7870908115874
 30
0.0
 11
196.7905166125736
 21
452.7870908115872
 31
0.0
  0
ARC
  5
84FA
330
37
100
AcDbEntity
  8
弱線
100
AcDbCircle
 10
197.7905166125736
 20
452.7870908115872
 30
0.0
 40
1.0
100
AcDbArc
 50
180.0
 51
0.0
  0
LINE
  5
84FB
330
37
100
AcDbEntity
  8
弱線
100
AcDbLine
 10
198.7905166125736
 20
452.7870908115872
 30
0.0
 11
198.7905166125736
 21
764.7870908115874
 31
0.0
  0
ARC
  5
84FC
330
37
100
AcDbEntity
  8
弱線
100
AcDbCircle
 10
197.7905166125736
 20
764.7870908115874
 30
0.0
 40
1.0
100
AcDbArc
 50
0.0
 51
180.0
  0
LINE
  5
84FD
330
37
100
AcDbEntity
  8
弱線
100
AcDbLine
 10
202.5405166125736
 20
451.7870908115872
 30
0.0
 11
202.5405166125736
 21
765.7870908115872
 31
0.0
  0
ARC
  5
84FE
330
37
100
AcDbEntity
  8
弱線
100
AcDbCircle
 10
197.7905166125736
 20
763.5266741449206
 30
0.0
 40
5.26041666666665
100
AcDbArc
 50
25.44871137084437
 51
154.5512886291556
  0
LINE
  5
84FF
330
37
100
AcDbEntity
  8
弱線
100
AcDbLine
 10
193.0405166125736
 20
765.7870908115872
 30
0.0
 11
193.0405166125736
 21
451.7870908115872
 31
0.0
  0
ARC
  5
8500
330
37
100
AcDbEntity
  8
弱線
100
AcDbCircle
 10
197.7905166125736
 20
454.0475074782539
 30
0.0
 40
5.26041666666665
100
AcDbArc
 50
205.4487113708443
 51
334.5512886291556
  0
LINE
  5
8501
330
37
100
AcDbEntity
  8
弱線
100
AcDbLine
 10
207.7905166125736
 20
764.7870908115874
 30
0.0
 11
207.7905166125736
 21
452.7870908115872
 31
0.0
  0
ARC
  5
8502
330
37
100
AcDbEntity
  8
弱線
100
AcDbCircle
 10
208.7905166125736
 20
452.7870908115872
 30
0.0
 40
1.0
100
AcDbArc
 50
180.0
 51
0.0
  0
LINE
  5
8503
330
37
100
AcDbEntity
  8
弱線
100
AcDbLine
 10
209.7905166125736
 20
452.7870908115872
 30
0.0
 11
209.7905166125736
 21
764.7870908115874
 31
0.0
  0
ARC
  5
8504
330
37
100
AcDbEntity
  8
弱線
100
AcDbCircle
 10
208.7905166125736
 20
764.7870908115874
 30
0.0
 40
1.0
100
AcDbArc
 50
0.0
 51
180.0
  0
LINE
  5
8505
330
37
100
AcDbEntity
  8
弱線
100
AcDbLine
 10
213.5405166125736
 20
451.7870908115872
 30
0.0
 11
213.5405166125736
 21
765.7870908115872
 31
0.0
  0
ARC
  5
8506
330
37
100
AcDbEntity
  8
弱線
100
AcDbCircle
 10
208.7905166125736
 20
763.5266741449206
 30
0.0
 40
5.26041666666665
100
AcDbArc
 50
25.44871137084437
 51
154.5512886291556
  0
LINE
  5
8507
330
37
100
AcDbEntity
  8
弱線
100
AcDbLine
 10
204.0405166125736
 20
765.7870908115872
 30
0.0
 11
204.0405166125736
 21
451.7870908115872
 31
0.0
  0
ARC
  5
8508
330
37
100
AcDbEntity
  8
弱線
100
AcDbCircle
 10
208.7905166125736
 20
454.0475074782539
 30
0.0
 40
5.26041666666665
100
AcDbArc
 50
205.4487113708443
 51
334.5512886291556
  0
LINE
  5
8509
330
37
100
AcDbEntity
  8
弱線
100
AcDbLine
 10
281.0405166125736
 20
734.787090811587
 30
0.0
 11
284.7905166125737
 21
738.787090811587
 31
0.0
  0
LINE
  5
850A
330
37
100
AcDbEntity
  8
弱線
100
AcDbLine
 10
284.7905166125737
 20
738.787090811587
 30
0.0
 11
286.7905166125737
 21
738.787090811587
 31
0.0
  0
LINE
  5
850B
330
37
100
AcDbEntity
  8
弱線
100
AcDbLine
 10
286.7905166125737
 20
738.787090811587
 30
0.0
 11
290.5405166125736
 21
734.787090811587
 31
0.0
  0
LINE
  5
850C
330
37
100
AcDbEntity
  8
弱線
100
AcDbLine
 10
270.0405166125736
 20
734.787090811587
 30
0.0
 11
273.7905166125736
 21
738.787090811587
 31
0.0
  0
LINE
  5
850D
330
37
100
AcDbEntity
  8
弱線
100
AcDbLine
 10
273.7905166125736
 20
738.787090811587
 30
0.0
 11
275.7905166125736
 21
738.787090811587
 31
0.0
  0
LINE
  5
850E
330
37
100
AcDbEntity
  8
弱線
100
AcDbLine
 10
275.7905166125736
 20
738.787090811587
 30
0.0
 11
279.5405166125736
 21
734.787090811587
 31
0.0
  0
LINE
  5
850F
330
37
100
AcDbEntity
  8
弱線
100
AcDbLine
 10
295.7905166125737
 20
738.787090811587
 30
0.0
 11
295.7905166125737
 21
452.7870908115872
 31
0.0
  0
ARC
  5
8510
330
37
100
AcDbEntity
  8
弱線
100
AcDbCircle
 10
296.7905166125736
 20
452.7870908115872
 30
0.0
 40
1.0
100
AcDbArc
 50
180.0
 51
0.0
  0
LINE
  5
8511
330
37
100
AcDbEntity
  8
弱線
100
AcDbLine
 10
297.7905166125736
 20
452.7870908115872
 30
0.0
 11
297.7905166125736
 21
738.787090811587
 31
0.0
  0
LINE
  5
8512
330
37
100
AcDbEntity
  8
弱線
100
AcDbLine
 10
281.0405166125736
 20
734.787090811587
 30
0.0
 11
281.0405166125736
 21
451.7870908115872
 31
0.0
  0
ARC
  5
8513
330
37
100
AcDbEntity
  8
弱線
100
AcDbCircle
 10
285.7905166125736
 20
454.0475074782539
 30
0.0
 40
5.26041666666665
100
AcDbArc
 50
205.4487113708443
 51
334.5512886291556
  0
LINE
  5
8514
330
37
100
AcDbEntity
  8
弱線
100
AcDbLine
 10
290.5405166125736
 20
451.7870908115872
 30
0.0
 11
290.5405166125736
 21
734.787090811587
 31
0.0
  0
LINE
  5
8515
330
37
100
AcDbEntity
  8
弱線
100
AcDbLine
 10
284.7905166125737
 20
738.787090811587
 30
0.0
 11
284.7905166125737
 21
452.7870908115872
 31
0.0
  0
ARC
  5
8516
330
37
100
AcDbEntity
  8
弱線
100
AcDbCircle
 10
285.7905166125736
 20
452.7870908115872
 30
0.0
 40
1.0
100
AcDbArc
 50
180.0
 51
0.0
  0
LINE
  5
8517
330
37
100
AcDbEntity
  8
弱線
100
AcDbLine
 10
286.7905166125737
 20
452.7870908115872
 30
0.0
 11
286.7905166125737
 21
738.787090811587
 31
0.0
  0
LINE
  5
8518
330
37
100
AcDbEntity
  8
弱線
100
AcDbLine
 10
270.0405166125736
 20
734.787090811587
 30
0.0
 11
270.0405166125736
 21
451.7870908115872
 31
0.0
  0
ARC
  5
8519
330
37
100
AcDbEntity
  8
弱線
100
AcDbCircle
 10
274.7905166125736
 20
454.0475074782539
 30
0.0
 40
5.26041666666665
100
AcDbArc
 50
205.4487113708443
 51
334.5512886291556
  0
LINE
  5
851A
330
37
100
AcDbEntity
  8
弱線
100
AcDbLine
 10
279.5405166125736
 20
451.7870908115872
 30
0.0
 11
279.5405166125736
 21
734.787090811587
 31
0.0
  0
LINE
  5
851B
330
37
100
AcDbEntity
  8
弱線
100
AcDbLine
 10
273.7905166125736
 20
738.787090811587
 30
0.0
 11
273.7905166125736
 21
452.7870908115872
 31
0.0
  0
ARC
  5
851C
330
37
100
AcDbEntity
  8
弱線
100
AcDbCircle
 10
274.7905166125736
 20
452.7870908115872
 30
0.0
 40
1.0
100
AcDbArc
 50
180.0
 51
0.0
  0
LINE
  5
851D
330
37
100
AcDbEntity
  8
弱線
100
AcDbLine
 10
275.7905166125736
 20
452.7870908115872
 30
0.0
 11
275.7905166125736
 21
738.787090811587
 31
0.0
  0
LINE
  5
851E
330
37
100
AcDbEntity
  8
弱線
100
AcDbLine
 10
292.0405166125736
 20
734.787090811587
 30
0.0
 11
292.0405166125736
 21
451.7870908115872
 31
0.0
  0
ARC
  5
851F
330
37
100
AcDbEntity
  8
弱線
100
AcDbCircle
 10
296.7905166125735
 20
454.0475074782538
 30
0.0
 40
5.260416666666574
100
AcDbArc
 50
205.4487113708441
 51
327.7760149107958
  0
LINE
  5
8520
330
37
100
AcDbEntity
  8
弱線
100
AcDbLine
 10
292.0405166125736
 20
734.787090811587
 30
0.0
 11
295.7905166125737
 21
738.787090811587
 31
0.0
  0
LINE
  5
8521
330
37
100
AcDbEntity
  8
弱線
100
AcDbLine
 10
295.7905166125737
 20
738.787090811587
 30
0.0
 11
297.7905166125736
 21
738.787090811587
 31
0.0
  0
LINE
  5
8522
330
37
100
AcDbEntity
  8
弱線
100
AcDbLine
 10
297.7905166125736
 20
738.787090811587
 30
0.0
 11
301.2905166125737
 21
735.0537574782539
 31
0.0
  0
LINE
  5
8523
330
37
100
AcDbEntity
  8
弱線
100
AcDbLine
 10
240.7905166125736
 20
748.7870908115872
 30
0.0
 11
240.7905166125736
 21
452.7870908115872
 31
0.0
  0
ARC
  5
8524
330
37
100
AcDbEntity
  8
弱線
100
AcDbCircle
 10
241.7905166125736
 20
452.7870908115872
 30
0.0
 40
1.0
100
AcDbArc
 50
180.0
 51
0.0
  0
LINE
  5
8525
330
37
100
AcDbEntity
  8
弱線
100
AcDbLine
 10
242.7905166125736
 20
452.7870908115872
 30
0.0
 11
242.7905166125736
 21
748.7870908115874
 31
0.0
  0
LINE
  5
8526
330
37
100
AcDbEntity
  8
弱線
100
AcDbLine
 10
237.0405166125736
 20
744.7870908115872
 30
0.0
 11
237.0405166125736
 21
451.7870908115872
 31
0.0
  0
ARC
  5
8527
330
37
100
AcDbEntity
  8
弱線
100
AcDbCircle
 10
241.7905166125736
 20
454.0475074782539
 30
0.0
 40
5.26041666666665
100
AcDbArc
 50
205.4487113708443
 51
334.5512886291556
  0
LINE
  5
8528
330
37
100
AcDbEntity
  8
弱線
100
AcDbLine
 10
246.5405166125736
 20
451.7870908115872
 30
0.0
 11
246.5405166125736
 21
744.7870908115872
 31
0.0
  0
LINE
  5
8529
330
37
100
AcDbEntity
  8
弱線
100
AcDbLine
 10
237.0405166125736
 20
744.7870908115872
 30
0.0
 11
240.7905166125736
 21
748.7870908115872
 31
0.0
  0
LINE
  5
852A
330
37
100
AcDbEntity
  8
弱線
100
AcDbLine
 10
240.7905166125736
 20
748.7870908115872
 30
0.0
 11
242.7905166125736
 21
748.7870908115872
 31
0.0
  0
LINE
  5
852B
330
37
100
AcDbEntity
  8
弱線
100
AcDbLine
 10
242.7905166125736
 20
748.7870908115872
 30
0.0
 11
246.5405166125736
 21
744.7870908115872
 31
0.0
  0
LINE
  5
852C
330
37
100
AcDbEntity
  8
弱線
100
AcDbLine
 10
226.0405166125736
 20
744.7870908115872
 30
0.0
 11
229.7905166125736
 21
748.7870908115872
 31
0.0
  0
LINE
  5
852D
330
37
100
AcDbEntity
  8
弱線
100
AcDbLine
 10
229.7905166125736
 20
748.7870908115872
 30
0.0
 11
231.7905166125736
 21
748.7870908115872
 31
0.0
  0
LINE
  5
852E
330
37
100
AcDbEntity
  8
弱線
100
AcDbLine
 10
231.7905166125736
 20
748.7870908115872
 30
0.0
 11
235.5405166125736
 21
744.7870908115872
 31
0.0
  0
LINE
  5
852F
330
37
100
AcDbEntity
  8
弱線
100
AcDbLine
 10
226.0405166125736
 20
744.7870908115872
 30
0.0
 11
226.0405166125736
 21
451.7870908115872
 31
0.0
  0
ARC
  5
8530
330
37
100
AcDbEntity
  8
弱線
100
AcDbCircle
 10
230.7905166125736
 20
454.0475074782539
 30
0.0
 40
5.26041666666665
100
AcDbArc
 50
205.4487113708443
 51
334.5512886291556
  0
LINE
  5
8531
330
37
100
AcDbEntity
  8
弱線
100
AcDbLine
 10
235.5405166125736
 20
451.7870908115872
 30
0.0
 11
235.5405166125736
 21
744.7870908115872
 31
0.0
  0
LINE
  5
8532
330
37
100
AcDbEntity
  8
弱線
100
AcDbLine
 10
229.7905166125736
 20
748.7870908115872
 30
0.0
 11
229.7905166125736
 21
452.7870908115872
 31
0.0
  0
ARC
  5
8533
330
37
100
AcDbEntity
  8
弱線
100
AcDbCircle
 10
230.7905166125736
 20
452.7870908115872
 30
0.0
 40
1.0
100
AcDbArc
 50
180.0
 51
0.0
  0
LINE
  5
8534
330
37
100
AcDbEntity
  8
弱線
100
AcDbLine
 10
231.7905166125736
 20
452.7870908115872
 30
0.0
 11
231.7905166125736
 21
748.7870908115874
 31
0.0
  0
LINE
  5
8535
330
37
100
AcDbEntity
  8
弱線
100
AcDbLine
 10
251.7905166125736
 20
748.7870908115872
 30
0.0
 11
251.7905166125736
 21
452.7870908115872
 31
0.0
  0
ARC
  5
8536
330
37
100
AcDbEntity
  8
弱線
100
AcDbCircle
 10
252.7905166125736
 20
452.7870908115872
 30
0.0
 40
1.0
100
AcDbArc
 50
180.0
 51
0.0
  0
LINE
  5
8537
330
37
100
AcDbEntity
  8
弱線
100
AcDbLine
 10
253.7905166125736
 20
452.7870908115872
 30
0.0
 11
253.7905166125736
 21
748.7870908115874
 31
0.0
  0
LINE
  5
8538
330
37
100
AcDbEntity
  8
弱線
100
AcDbLine
 10
248.0405166125736
 20
744.7870908115872
 30
0.0
 11
248.0405166125736
 21
451.7870908115872
 31
0.0
  0
ARC
  5
8539
330
37
100
AcDbEntity
  8
弱線
100
AcDbCircle
 10
252.7905166125736
 20
454.0475074782539
 30
0.0
 40
5.26041666666665
100
AcDbArc
 50
205.4487113708443
 51
334.5512886291556
  0
LINE
  5
853A
330
37
100
AcDbEntity
  8
弱線
100
AcDbLine
 10
257.5405166125736
 20
451.7870908115872
 30
0.0
 11
257.5405166125736
 21
744.7870908115872
 31
0.0
  0
LINE
  5
853B
330
37
100
AcDbEntity
  8
弱線
100
AcDbLine
 10
248.0405166125736
 20
744.7870908115872
 30
0.0
 11
251.7905166125736
 21
748.7870908115872
 31
0.0
  0
LINE
  5
853C
330
37
100
AcDbEntity
  8
弱線
100
AcDbLine
 10
251.7905166125736
 20
748.7870908115872
 30
0.0
 11
253.7905166125736
 21
748.7870908115872
 31
0.0
  0
LINE
  5
853D
330
37
100
AcDbEntity
  8
弱線
100
AcDbLine
 10
253.7905166125736
 20
748.7870908115872
 30
0.0
 11
257.5405166125736
 21
744.7870908115872
 31
0.0
  0
LINE
  5
853E
330
37
100
AcDbEntity
  8
弱線
100
AcDbLine
 10
259.0405166125736
 20
744.7870908115872
 30
0.0
 11
262.7905166125736
 21
748.7870908115872
 31
0.0
  0
LINE
  5
853F
330
37
100
AcDbEntity
  8
弱線
100
AcDbLine
 10
259.0405166125736
 20
744.7870908115872
 30
0.0
 11
259.0405166125736
 21
451.7870908115872
 31
0.0
  0
ARC
  5
8540
330
37
100
AcDbEntity
  8
弱線
100
AcDbCircle
 10
263.7905166125736
 20
454.0475074782539
 30
0.0
 40
5.26041666666665
100
AcDbArc
 50
205.4487113708443
 51
334.5512886291556
  0
LINE
  5
8541
330
37
100
AcDbEntity
  8
弱線
100
AcDbLine
 10
268.5405166125736
 20
451.7870908115872
 30
0.0
 11
268.5405166125736
 21
734.787090811587
 31
0.0
  0
LINE
  5
8542
330
37
100
AcDbEntity
  8
弱線
100
AcDbLine
 10
262.7905166125736
 20
748.7870908115872
 30
0.0
 11
262.7905166125736
 21
452.7870908115872
 31
0.0
  0
ARC
  5
8543
330
37
100
AcDbEntity
  8
弱線
100
AcDbCircle
 10
263.7905166125736
 20
452.7870908115872
 30
0.0
 40
1.0
100
AcDbArc
 50
180.0
 51
0.0
  0
LINE
  5
8544
330
37
100
AcDbEntity
  8
弱線
100
AcDbLine
 10
264.7905166125736
 20
452.7870908115872
 30
0.0
 11
264.7905166125736
 21
738.787090811587
 31
0.0
  0
LINE
  5
8545
330
37
100
AcDbEntity
  8
弱線
100
AcDbLine
 10
218.7905166125736
 20
748.7870908115872
 30
0.0
 11
218.7905166125736
 21
452.7870908115872
 31
0.0
  0
ARC
  5
8546
330
37
100
AcDbEntity
  8
弱線
100
AcDbCircle
 10
219.7905166125736
 20
452.7870908115872
 30
0.0
 40
1.0
100
AcDbArc
 50
180.0
 51
0.0
  0
LINE
  5
8547
330
37
100
AcDbEntity
  8
弱線
100
AcDbLine
 10
220.7905166125736
 20
452.7870908115872
 30
0.0
 11
220.7905166125736
 21
748.7870908115874
 31
0.0
  0
ARC
  5
8548
330
37
100
AcDbEntity
  8
弱線
100
AcDbCircle
 10
219.7905166125736
 20
763.5266741449206
 30
0.0
 40
5.260416666666667
100
AcDbArc
 50
106.5677262348505
 51
154.5512886291556
  0
LINE
  5
8549
330
37
100
AcDbEntity
  8
弱線
100
AcDbLine
 10
215.0405166125736
 20
765.7870908115872
 30
0.0
 11
215.0405166125736
 21
451.7870908115872
 31
0.0
  0
ARC
  5
854A
330
37
100
AcDbEntity
  8
弱線
100
AcDbCircle
 10
219.7905166125736
 20
454.0475074782539
 30
0.0
 40
5.26041666666665
100
AcDbArc
 50
205.4487113708443
 51
334.5512886291556
  0
LINE
  5
854B
330
37
100
AcDbEntity
  8
弱線
100
AcDbLine
 10
224.5405166125736
 20
451.7870908115872
 30
0.0
 11
224.5405166125736
 21
744.7870908115872
 31
0.0
  0
LINE
  5
854C
330
37
100
AcDbEntity
  8
弱線
100
AcDbLine
 10
218.7905166125736
 20
748.7870908115872
 30
0.0
 11
220.7905166125736
 21
748.7870908115872
 31
0.0
  0
LINE
  5
854D
330
37
100
AcDbEntity
  8
弱線
100
AcDbLine
 10
220.7905166125736
 20
748.7870908115872
 30
0.0
 11
224.5405166125736
 21
744.7870908115872
 31
0.0
  0
LINE
  5
854E
330
37
100
AcDbEntity
  8
弱線
100
AcDbLine
 10
185.7905166125736
 20
748.7870908115872
 30
0.0
 11
185.7905166125736
 21
452.7870908115872
 31
0.0
  0
ARC
  5
854F
330
37
100
AcDbEntity
  8
弱線
100
AcDbCircle
 10
186.7905166125735
 20
452.7870908115872
 30
0.0
 40
1.0
100
AcDbArc
 50
180.0
 51
0.0
  0
LINE
  5
8550
330
37
100
AcDbEntity
  8
弱線
100
AcDbLine
 10
187.7905166125735
 20
452.7870908115872
 30
0.0
 11
187.7905166125735
 21
764.7870908115874
 31
0.0
  0
ARC
  5
8551
330
37
100
AcDbEntity
  8
弱線
100
AcDbCircle
 10
186.7905166125735
 20
764.7870908115874
 30
0.0
 40
1.0
100
AcDbArc
 50
0.0
 51
59.99999999999944
  0
LINE
  5
8552
330
37
100
AcDbEntity
  8
弱線
100
AcDbLine
 10
182.0405166125736
 20
744.7870908115872
 30
0.0
 11
182.0405166125736
 21
451.7870908115872
 31
0.0
  0
ARC
  5
8553
330
37
100
AcDbEntity
  8
弱線
100
AcDbCircle
 10
186.7905166125735
 20
454.0475074782539
 30
0.0
 40
5.26041666666665
100
AcDbArc
 50
205.4487113708443
 51
334.5512886291556
  0
LINE
  5
8554
330
37
100
AcDbEntity
  8
弱線
100
AcDbLine
 10
191.5405166125736
 20
451.7870908115872
 30
0.0
 11
191.5405166125736
 21
765.7870908115872
 31
0.0
  0
ARC
  5
8555
330
37
100
AcDbEntity
  8
弱線
100
AcDbCircle
 10
186.7905166125735
 20
763.5266741449207
 30
0.0
 40
5.260416666666601
100
AcDbArc
 50
25.44871137084325
 51
84.54583086943236
  0
LINE
  5
8556
330
37
100
AcDbEntity
  8
弱線
100
AcDbLine
 10
182.0405166125736
 20
744.7870908115872
 30
0.0
 11
185.7905166125736
 21
748.7870908115872
 31
0.0
  0
LINE
  5
8557
330
37
100
AcDbEntity
  8
弱線
100
AcDbLine
 10
185.7905166125736
 20
748.7870908115872
 30
0.0
 11
187.2905166125736
 21
748.7870908115872
 31
0.0
  0
LINE
  5
8558
330
37
100
AcDbEntity
  8
弱線
100
AcDbLine
 10
61.29051661257356
 20
735.0537574782539
 30
0.0
 11
64.79051661257357
 21
738.787090811587
 31
0.0
  0
LINE
  5
8559
330
37
100
AcDbEntity
  8
弱線
100
AcDbLine
 10
64.79051661257357
 20
738.787090811587
 30
0.0
 11
66.79051661257357
 21
738.787090811587
 31
0.0
  0
LINE
  5
855A
330
37
100
AcDbEntity
  8
弱線
100
AcDbLine
 10
66.79051661257357
 20
738.787090811587
 30
0.0
 11
70.54051661257357
 21
734.787090811587
 31
0.0
  0
ARC
  5
855B
330
37
100
AcDbEntity
  8
弱線
100
AcDbCircle
 10
65.79051661257359
 20
454.0475074782539
 30
0.0
 40
5.260416666666642
100
AcDbArc
 50
212.223985089211
 51
334.5512886291556
  0
LINE
  5
855C
330
37
100
AcDbEntity
  8
弱線
100
AcDbLine
 10
70.54051661257357
 20
451.7870908115872
 30
0.0
 11
70.54051661257357
 21
734.787090811587
 31
0.0
  0
LINE
  5
855D
330
37
100
AcDbEntity
  8
弱線
100
AcDbLine
 10
64.79051661257357
 20
738.787090811587
 30
0.0
 11
64.79051661257357
 21
452.7870908115872
 31
0.0
  0
ARC
  5
855E
330
37
100
AcDbEntity
  8
弱線
100
AcDbCircle
 10
65.79051661257357
 20
452.7870908115872
 30
0.0
 40
1.0
100
AcDbArc
 50
180.0
 51
0.0
  0
LINE
  5
855F
330
37
100
AcDbEntity
  8
弱線
100
AcDbLine
 10
66.79051661257357
 20
452.7870908115872
 30
0.0
 11
66.79051661257357
 21
738.787090811587
 31
0.0
  0
LINE
  5
8560
330
37
100
AcDbEntity
  8
弱線
100
AcDbLine
 10
75.79051661257357
 20
738.787090811587
 30
0.0
 11
75.79051661257357
 21
452.7870908115872
 31
0.0
  0
ARC
  5
8561
330
37
100
AcDbEntity
  8
弱線
100
AcDbCircle
 10
76.79051661257357
 20
452.7870908115872
 30
0.0
 40
1.0
100
AcDbArc
 50
180.0
 51
0.0
  0
LINE
  5
8562
330
37
100
AcDbEntity
  8
弱線
100
AcDbLine
 10
77.79051661257359
 20
452.7870908115872
 30
0.0
 11
77.79051661257359
 21
738.787090811587
 31
0.0
  0
LINE
  5
8563
330
37
100
AcDbEntity
  8
弱線
100
AcDbLine
 10
86.79051661257359
 20
738.787090811587
 30
0.0
 11
86.79051661257359
 21
452.7870908115872
 31
0.0
  0
ARC
  5
8564
330
37
100
AcDbEntity
  8
弱線
100
AcDbCircle
 10
87.79051661257359
 20
452.7870908115872
 30
0.0
 40
1.0
100
AcDbArc
 50
180.0
 51
0.0
  0
LINE
  5
8565
330
37
100
AcDbEntity
  8
弱線
100
AcDbLine
 10
88.79051661257358
 20
452.7870908115872
 30
0.0
 11
88.79051661257358
 21
738.787090811587
 31
0.0
  0
LINE
  5
8566
330
37
100
AcDbEntity
  8
弱線
100
AcDbLine
 10
83.04051661257359
 20
734.787090811587
 30
0.0
 11
83.04051661257359
 21
451.7870908115872
 31
0.0
  0
ARC
  5
8567
330
37
100
AcDbEntity
  8
弱線
100
AcDbCircle
 10
87.79051661257359
 20
454.0475074782539
 30
0.0
 40
5.26041666666665
100
AcDbArc
 50
205.4487113708443
 51
334.5512886291556
  0
LINE
  5
8568
330
37
100
AcDbEntity
  8
弱線
100
AcDbLine
 10
92.54051661257358
 20
451.7870908115872
 30
0.0
 11
92.54051661257358
 21
734.787090811587
 31
0.0
  0
LINE
  5
8569
330
37
100
AcDbEntity
  8
弱線
100
AcDbLine
 10
83.04051661257359
 20
734.787090811587
 30
0.0
 11
86.79051661257359
 21
738.787090811587
 31
0.0
  0
LINE
  5
856A
330
37
100
AcDbEntity
  8
弱線
100
AcDbLine
 10
86.79051661257359
 20
738.787090811587
 30
0.0
 11
88.79051661257358
 21
738.787090811587
 31
0.0
  0
LINE
  5
856B
330
37
100
AcDbEntity
  8
弱線
100
AcDbLine
 10
88.79051661257358
 20
738.787090811587
 30
0.0
 11
92.54051661257358
 21
734.787090811587
 31
0.0
  0
LINE
  5
856C
330
37
100
AcDbEntity
  8
弱線
100
AcDbLine
 10
72.04051661257357
 20
734.787090811587
 30
0.0
 11
75.79051661257357
 21
738.787090811587
 31
0.0
  0
LINE
  5
856D
330
37
100
AcDbEntity
  8
弱線
100
AcDbLine
 10
75.79051661257357
 20
738.787090811587
 30
0.0
 11
77.79051661257359
 21
738.787090811587
 31
0.0
  0
LINE
  5
856E
330
37
100
AcDbEntity
  8
弱線
100
AcDbLine
 10
77.79051661257359
 20
738.787090811587
 30
0.0
 11
81.5405166125736
 21
734.787090811587
 31
0.0
  0
LINE
  5
856F
330
37
100
AcDbEntity
  8
弱線
100
AcDbLine
 10
72.04051661257357
 20
734.787090811587
 30
0.0
 11
72.04051661257357
 21
451.7870908115872
 31
0.0
  0
ARC
  5
8570
330
37
100
AcDbEntity
  8
弱線
100
AcDbCircle
 10
76.79051661257357
 20
454.0475074782539
 30
0.0
 40
5.26041666666665
100
AcDbArc
 50
205.4487113708443
 51
334.5512886291556
  0
LINE
  5
8571
330
37
100
AcDbEntity
  8
弱線
100
AcDbLine
 10
81.5405166125736
 20
451.7870908115872
 30
0.0
 11
81.5405166125736
 21
734.787090811587
 31
0.0
  0
LINE
  5
8572
330
37
100
AcDbEntity
  8
弱線
100
AcDbLine
 10
130.7905166125736
 20
748.7870908115872
 30
0.0
 11
130.7905166125736
 21
452.7870908115872
 31
0.0
  0
ARC
  5
8573
330
37
100
AcDbEntity
  8
弱線
100
AcDbCircle
 10
131.7905166125736
 20
452.7870908115872
 30
0.0
 40
1.0
100
AcDbArc
 50
180.0
 51
0.0
  0
LINE
  5
8574
330
37
100
AcDbEntity
  8
弱線
100
AcDbLine
 10
132.7905166125736
 20
452.7870908115872
 30
0.0
 11
132.7905166125736
 21
748.7870908115874
 31
0.0
  0
LINE
  5
8575
330
37
100
AcDbEntity
  8
弱線
100
AcDbLine
 10
127.0405166125736
 20
744.7870908115872
 30
0.0
 11
127.0405166125736
 21
451.7870908115872
 31
0.0
  0
ARC
  5
8576
330
37
100
AcDbEntity
  8
弱線
100
AcDbCircle
 10
131.7905166125736
 20
454.0475074782539
 30
0.0
 40
5.26041666666665
100
AcDbArc
 50
205.4487113708443
 51
334.5512886291556
  0
LINE
  5
8577
330
37
100
AcDbEntity
  8
弱線
100
AcDbLine
 10
136.5405166125736
 20
451.7870908115872
 30
0.0
 11
136.5405166125736
 21
744.7870908115872
 31
0.0
  0
LINE
  5
8578
330
37
100
AcDbEntity
  8
弱線
100
AcDbLine
 10
127.0405166125736
 20
744.7870908115872
 30
0.0
 11
130.7905166125736
 21
748.7870908115872
 31
0.0
  0
LINE
  5
8579
330
37
100
AcDbEntity
  8
弱線
100
AcDbLine
 10
130.7905166125736
 20
748.7870908115872
 30
0.0
 11
132.7905166125736
 21
748.7870908115872
 31
0.0
  0
LINE
  5
857A
330
37
100
AcDbEntity
  8
弱線
100
AcDbLine
 10
132.7905166125736
 20
748.7870908115872
 30
0.0
 11
136.5405166125736
 21
744.7870908115872
 31
0.0
  0
LINE
  5
857B
330
37
100
AcDbEntity
  8
弱線
100
AcDbLine
 10
116.0405166125736
 20
744.7870908115872
 30
0.0
 11
119.7905166125736
 21
748.7870908115872
 31
0.0
  0
LINE
  5
857C
330
37
100
AcDbEntity
  8
弱線
100
AcDbLine
 10
119.7905166125736
 20
748.7870908115872
 30
0.0
 11
121.7905166125736
 21
748.7870908115872
 31
0.0
  0
LINE
  5
857D
330
37
100
AcDbEntity
  8
弱線
100
AcDbLine
 10
121.7905166125736
 20
748.7870908115872
 30
0.0
 11
125.5405166125736
 21
744.7870908115872
 31
0.0
  0
LINE
  5
857E
330
37
100
AcDbEntity
  8
弱線
100
AcDbLine
 10
116.0405166125736
 20
744.7870908115872
 30
0.0
 11
116.0405166125736
 21
451.7870908115872
 31
0.0
  0
ARC
  5
857F
330
37
100
AcDbEntity
  8
弱線
100
AcDbCircle
 10
120.7905166125736
 20
454.0475074782539
 30
0.0
 40
5.26041666666665
100
AcDbArc
 50
205.4487113708443
 51
334.5512886291556
  0
LINE
  5
8580
330
37
100
AcDbEntity
  8
弱線
100
AcDbLine
 10
125.5405166125736
 20
451.7870908115872
 30
0.0
 11
125.5405166125736
 21
744.7870908115872
 31
0.0
  0
LINE
  5
8581
330
37
100
AcDbEntity
  8
弱線
100
AcDbLine
 10
119.7905166125736
 20
748.7870908115872
 30
0.0
 11
119.7905166125736
 21
452.7870908115872
 31
0.0
  0
ARC
  5
8582
330
37
100
AcDbEntity
  8
弱線
100
AcDbCircle
 10
120.7905166125736
 20
452.7870908115872
 30
0.0
 40
1.0
100
AcDbArc
 50
180.0
 51
0.0
  0
LINE
  5
8583
330
37
100
AcDbEntity
  8
弱線
100
AcDbLine
 10
121.7905166125736
 20
452.7870908115872
 30
0.0
 11
121.7905166125736
 21
748.7870908115874
 31
0.0
  0
LINE
  5
8584
330
37
100
AcDbEntity
  8
弱線
100
AcDbLine
 10
97.79051661257359
 20
738.787090811587
 30
0.0
 11
97.79051661257359
 21
452.7870908115872
 31
0.0
  0
ARC
  5
8585
330
37
100
AcDbEntity
  8
弱線
100
AcDbCircle
 10
98.79051661257358
 20
452.7870908115872
 30
0.0
 40
1.0
100
AcDbArc
 50
180.0
 51
0.0
  0
LINE
  5
8586
330
37
100
AcDbEntity
  8
弱線
100
AcDbLine
 10
99.79051661257358
 20
452.7870908115872
 30
0.0
 11
99.79051661257358
 21
738.787090811587
 31
0.0
  0
LINE
  5
8587
330
37
100
AcDbEntity
  8
弱線
100
AcDbLine
 10
94.04051661257359
 20
734.787090811587
 30
0.0
 11
94.04051661257359
 21
451.7870908115872
 31
0.0
  0
ARC
  5
8588
330
37
100
AcDbEntity
  8
弱線
100
AcDbCircle
 10
98.79051661257358
 20
454.0475074782539
 30
0.0
 40
5.26041666666665
100
AcDbArc
 50
205.4487113708443
 51
334.5512886291556
  0
LINE
  5
8589
330
37
100
AcDbEntity
  8
弱線
100
AcDbLine
 10
103.5405166125735
 20
451.7870908115872
 30
0.0
 11
103.5405166125735
 21
744.7870908115872
 31
0.0
  0
LINE
  5
858A
330
37
100
AcDbEntity
  8
弱線
100
AcDbLine
 10
99.79051661257358
 20
748.7870908115872
 30
0.0
 11
103.5405166125735
 21
744.7870908115872
 31
0.0
  0
LINE
  5
858B
330
37
100
AcDbEntity
  8
弱線
100
AcDbLine
 10
105.0405166125736
 20
744.7870908115872
 30
0.0
 11
108.7905166125736
 21
748.7870908115872
 31
0.0
  0
LINE
  5
858C
330
37
100
AcDbEntity
  8
弱線
100
AcDbLine
 10
108.7905166125736
 20
748.7870908115872
 30
0.0
 11
110.7905166125735
 21
748.7870908115872
 31
0.0
  0
LINE
  5
858D
330
37
100
AcDbEntity
  8
弱線
100
AcDbLine
 10
110.7905166125735
 20
748.7870908115872
 30
0.0
 11
114.5405166125736
 21
744.7870908115872
 31
0.0
  0
LINE
  5
858E
330
37
100
AcDbEntity
  8
弱線
100
AcDbLine
 10
105.0405166125736
 20
744.7870908115872
 30
0.0
 11
105.0405166125736
 21
451.7870908115872
 31
0.0
  0
ARC
  5
858F
330
37
100
AcDbEntity
  8
弱線
100
AcDbCircle
 10
109.7905166125736
 20
454.0475074782539
 30
0.0
 40
5.26041666666665
100
AcDbArc
 50
205.4487113708443
 51
334.5512886291556
  0
LINE
  5
8590
330
37
100
AcDbEntity
  8
弱線
100
AcDbLine
 10
114.5405166125736
 20
451.7870908115872
 30
0.0
 11
114.5405166125736
 21
744.7870908115872
 31
0.0
  0
LINE
  5
8591
330
37
100
AcDbEntity
  8
弱線
100
AcDbLine
 10
108.7905166125736
 20
748.7870908115872
 30
0.0
 11
108.7905166125736
 21
452.7870908115872
 31
0.0
  0
ARC
  5
8592
330
37
100
AcDbEntity
  8
弱線
100
AcDbCircle
 10
109.7905166125736
 20
452.7870908115872
 30
0.0
 40
1.0
100
AcDbArc
 50
180.0
 51
0.0
  0
LINE
  5
8593
330
37
100
AcDbEntity
  8
弱線
100
AcDbLine
 10
110.7905166125735
 20
452.7870908115872
 30
0.0
 11
110.7905166125735
 21
748.7870908115874
 31
0.0
  0
LINE
  5
8594
330
37
100
AcDbEntity
  8
弱線
100
AcDbLine
 10
152.7905166125736
 20
748.7870908115872
 30
0.0
 11
152.7905166125736
 21
452.7870908115872
 31
0.0
  0
ARC
  5
8595
330
37
100
AcDbEntity
  8
弱線
100
AcDbCircle
 10
153.7905166125736
 20
452.7870908115872
 30
0.0
 40
1.0
100
AcDbArc
 50
180.0
 51
0.0
  0
LINE
  5
8596
330
37
100
AcDbEntity
  8
弱線
100
AcDbLine
 10
154.7905166125736
 20
452.7870908115872
 30
0.0
 11
154.7905166125736
 21
748.7870908115874
 31
0.0
  0
LINE
  5
8597
330
37
100
AcDbEntity
  8
弱線
100
AcDbLine
 10
149.0405166125736
 20
744.7870908115872
 30
0.0
 11
149.0405166125736
 21
451.7870908115872
 31
0.0
  0
ARC
  5
8598
330
37
100
AcDbEntity
  8
弱線
100
AcDbCircle
 10
153.7905166125736
 20
454.0475074782539
 30
0.0
 40
5.26041666666665
100
AcDbArc
 50
205.4487113708443
 51
334.5512886291556
  0
LINE
  5
8599
330
37
100
AcDbEntity
  8
弱線
100
AcDbLine
 10
158.5405166125736
 20
451.7870908115872
 30
0.0
 11
158.5405166125736
 21
744.7870908115872
 31
0.0
  0
LINE
  5
859A
330
37
100
AcDbEntity
  8
弱線
100
AcDbLine
 10
149.0405166125736
 20
744.7870908115872
 30
0.0
 11
152.7905166125736
 21
748.7870908115872
 31
0.0
  0
LINE
  5
859B
330
37
100
AcDbEntity
  8
弱線
100
AcDbLine
 10
152.7905166125736
 20
748.7870908115872
 30
0.0
 11
154.7905166125736
 21
748.7870908115872
 31
0.0
  0
LINE
  5
859C
330
37
100
AcDbEntity
  8
弱線
100
AcDbLine
 10
154.7905166125736
 20
748.7870908115872
 30
0.0
 11
158.5405166125736
 21
744.7870908115872
 31
0.0
  0
LINE
  5
859D
330
37
100
AcDbEntity
  8
弱線
100
AcDbLine
 10
138.0405166125736
 20
744.7870908115872
 30
0.0
 11
141.7905166125736
 21
748.7870908115872
 31
0.0
  0
LINE
  5
859E
330
37
100
AcDbEntity
  8
弱線
100
AcDbLine
 10
141.7905166125736
 20
748.7870908115872
 30
0.0
 11
143.7905166125736
 21
748.7870908115872
 31
0.0
  0
LINE
  5
859F
330
37
100
AcDbEntity
  8
弱線
100
AcDbLine
 10
143.7905166125736
 20
748.7870908115872
 30
0.0
 11
147.5405166125736
 21
744.7870908115872
 31
0.0
  0
LINE
  5
85A0
330
37
100
AcDbEntity
  8
弱線
100
AcDbLine
 10
138.0405166125736
 20
744.7870908115872
 30
0.0
 11
138.0405166125736
 21
451.7870908115872
 31
0.0
  0
ARC
  5
85A1
330
37
100
AcDbEntity
  8
弱線
100
AcDbCircle
 10
142.7905166125736
 20
454.0475074782539
 30
0.0
 40
5.26041666666665
100
AcDbArc
 50
205.4487113708443
 51
334.5512886291556
  0
LINE
  5
85A2
330
37
100
AcDbEntity
  8
弱線
100
AcDbLine
 10
147.5405166125736
 20
451.7870908115872
 30
0.0
 11
147.5405166125736
 21
744.7870908115872
 31
0.0
  0
LINE
  5
85A3
330
37
100
AcDbEntity
  8
弱線
100
AcDbLine
 10
141.7905166125736
 20
748.7870908115872
 30
0.0
 11
141.7905166125736
 21
452.7870908115872
 31
0.0
  0
ARC
  5
85A4
330
37
100
AcDbEntity
  8
弱線
100
AcDbCircle
 10
142.7905166125736
 20
452.7870908115872
 30
0.0
 40
1.0
100
AcDbArc
 50
180.0
 51
0.0
  0
LINE
  5
85A5
330
37
100
AcDbEntity
  8
弱線
100
AcDbLine
 10
143.7905166125736
 20
452.7870908115872
 30
0.0
 11
143.7905166125736
 21
748.7870908115874
 31
0.0
  0
LINE
  5
85A6
330
37
100
AcDbEntity
  8
弱線
100
AcDbLine
 10
163.7905166125736
 20
748.7870908115872
 30
0.0
 11
163.7905166125736
 21
452.7870908115872
 31
0.0
  0
ARC
  5
85A7
330
37
100
AcDbEntity
  8
弱線
100
AcDbCircle
 10
164.7905166125736
 20
452.7870908115872
 30
0.0
 40
1.0
100
AcDbArc
 50
180.0
 51
0.0
  0
LINE
  5
85A8
330
37
100
AcDbEntity
  8
弱線
100
AcDbLine
 10
165.7905166125735
 20
452.7870908115872
 30
0.0
 11
165.7905166125735
 21
748.7870908115874
 31
0.0
  0
LINE
  5
85A9
330
37
100
AcDbEntity
  8
弱線
100
AcDbLine
 10
160.0405166125736
 20
744.7870908115872
 30
0.0
 11
160.0405166125736
 21
451.7870908115872
 31
0.0
  0
ARC
  5
85AA
330
37
100
AcDbEntity
  8
弱線
100
AcDbCircle
 10
164.7905166125736
 20
454.0475074782539
 30
0.0
 40
5.26041666666665
100
AcDbArc
 50
205.4487113708443
 51
334.5512886291556
  0
LINE
  5
85AB
330
37
100
AcDbEntity
  8
弱線
100
AcDbLine
 10
169.5405166125736
 20
451.7870908115872
 30
0.0
 11
169.5405166125736
 21
744.7870908115872
 31
0.0
  0
LINE
  5
85AC
330
37
100
AcDbEntity
  8
弱線
100
AcDbLine
 10
160.0405166125736
 20
744.7870908115872
 30
0.0
 11
163.7905166125736
 21
748.7870908115872
 31
0.0
  0
LINE
  5
85AD
330
37
100
AcDbEntity
  8
弱線
100
AcDbLine
 10
163.7905166125736
 20
748.7870908115872
 30
0.0
 11
165.7905166125735
 21
748.7870908115872
 31
0.0
  0
LINE
  5
85AE
330
37
100
AcDbEntity
  8
弱線
100
AcDbLine
 10
165.7905166125735
 20
748.7870908115872
 30
0.0
 11
169.5405166125736
 21
744.7870908115872
 31
0.0
  0
LINE
  5
85BE
330
37
100
AcDbEntity
  8
弱線
100
AcDbLine
 10
171.0405166125736
 20
744.7870908115872
 30
0.0
 11
174.7905166125736
 21
748.7870908115872
 31
0.0
  0
LINE
  5
85BF
330
37
100
AcDbEntity
  8
弱線
100
AcDbLine
 10
174.7905166125736
 20
748.7870908115872
 30
0.0
 11
176.7905166125736
 21
748.7870908115872
 31
0.0
  0
LINE
  5
85C0
330
37
100
AcDbEntity
  8
弱線
100
AcDbLine
 10
176.7905166125736
 20
748.7870908115872
 30
0.0
 11
180.5405166125735
 21
744.7870908115872
 31
0.0
  0
LINE
  5
85C1
330
37
100
AcDbEntity
  8
弱線
100
AcDbLine
 10
171.0405166125736
 20
744.7870908115872
 30
0.0
 11
171.0405166125736
 21
451.7870908115872
 31
0.0
  0
ARC
  5
85C2
330
37
100
AcDbEntity
  8
弱線
100
AcDbCircle
 10
175.7905166125736
 20
454.0475074782539
 30
0.0
 40
5.26041666666665
100
AcDbArc
 50
205.4487113708443
 51
334.5512886291556
  0
LINE
  5
85C3
330
37
100
AcDbEntity
  8
弱線
100
AcDbLine
 10
180.5405166125735
 20
451.7870908115872
 30
0.0
 11
180.5405166125735
 21
744.7870908115872
 31
0.0
  0
LINE
  5
85C4
330
37
100
AcDbEntity
  8
弱線
100
AcDbLine
 10
174.7905166125736
 20
748.7870908115872
 30
0.0
 11
174.7905166125736
 21
452.7870908115872
 31
0.0
  0
ARC
  5
85C5
330
37
100
AcDbEntity
  8
弱線
100
AcDbCircle
 10
175.7905166125736
 20
452.7870908115872
 30
0.0
 40
1.0
100
AcDbArc
 50
180.0
 51
0.0
  0
LINE
  5
85C6
330
37
100
AcDbEntity
  8
弱線
100
AcDbLine
 10
176.7905166125736
 20
452.7870908115872
 30
0.0
 11
176.7905166125736
 21
748.7870908115874
 31
0.0
  0
CIRCLE
  5
9159
330
37
100
AcDbEntity
  8
弱線
100
AcDbCircle
 10
76.29051661257356
 20
753.7870908115872
 30
0.0
 40
5.75
  0
CIRCLE
  5
915A
330
37
100
AcDbEntity
  8
弱線
100
AcDbCircle
 10
286.2905166125736
 20
753.7870908115872
 30
0.0
 40
5.75
  0
CIRCLE
  5
915B
330
37
100
AcDbEntity
  8
0
100
AcDbCircle
 10
286.2905166125736
 20
753.7870908115872
 30
0.0
 40
6.5
  0
CIRCLE
  5
915C
330
37
100
AcDbEntity
  8
0
100
AcDbCircle
 10
76.29051661257356
 20
753.7870908115872
 30
0.0
 40
6.5
  0
LWPOLYLINE
  5
915D
330
37
100
AcDbEntity
  8
0
100
AcDbPolyline
 90
        8
 70
     1
 43
0.0
 10
64.29051661257357
 20
448.7870908115872
 10
298.2905166125736
 20
448.7870908115872
 42
0.4142135623730951
 10
301.2905166125737
 20
451.7870908115872
 10
301.2905166125737
 20
765.7870908115872
 42
0.4142135623730951
 10
298.2905166125736
 20
768.787090811587
 10
64.29051661257357
 20
768.787090811587
 42
0.4142135623730951
 10
61.29051661257356
 20
765.7870908115872
 10
61.29051661257356
 20
451.7870908115872
 42
0.4142135623730951
1001
GENIUS_GENREC_14
1002
{
1000
PYDIR
1011
61.29051661257356
1021
768.787090811587
1031
0.0
1002
}
1002
{
1000
PXDIR
1011
301.2905166125737
1021
448.7870908115872
1031
0.0
1002
}
1002
{
1000
PORI
1011
61.29051661257356
1021
448.7870908115872
1031
0.0
1002
}
1002
{
1000
PINS
1011
181.2905166125736
1021
608.7870908115871
1031
0.0
1002
}
1002
{
1000
HVAL
1000
320
1002
}
1002
{
1000
H
1070
     2
1002
}
1002
{
1000
WVAL
1000
240
1002
}
1002
{
1000
W
1070
     2
1002
}
1002
{
1000
C
1070
     4
1002
}
1001
GENIUS_GENOBJ-N-REC_13
1002
{
1000
OWNER
1000
GEN
1002
}
1001
GENIUS_GENODEF_13
1002
{
1000
HIER
1070
     0
1002
}
1002
{
1000
MANEDIT
1070
     0
1002
}
1002
{
1000
NOSEL
1070
     0
1002
}
1002
{
1000
BEHIND
1070
     0
1002
}
1002
{
1000
OTHER
1070
     0
1002
}
1002
{
1000
REACTOR
1002
}
  0
LWPOLYLINE
  5
915E
330
37
100
AcDbEntity
  8
0
100
AcDbPolyline
 90
        5
 70
     0
 43
0.0
 10
218.2905166125736
 20
768.787090811587
 10
218.2905166125736
 20
748.7870908115872
 10
262.7905166125736
 20
748.7870908115872
 10
262.7905166125736
 20
738.787090811587
 10
301.2905166125737
 20
738.787090811587
  0
LWPOLYLINE
  5
915F
330
37
100
AcDbEntity
  8
0
100
AcDbPolyline
 90
        5
 70
     0
 43
0.0
 10
187.2905166125736
 20
768.787090811587
 10
187.2905166125736
 20
748.7870908115872
 10
99.79051661257358
 20
748.7870908115872
 10
99.79051661257358
 20
738.787090811587
 10
61.29051661257356
 20
738.787090811587
  0
LINE
  5
9160
330
37
100
AcDbEntity
  8
0
100
AcDbLine
 10
235.8245250881623
 20
766.5852418886043
 30
0.0
 11
226.8645250881741
 21
751.0660666528001
 31
0.0
  0
LINE
  5
9161
330
37
100
AcDbEntity
  8
0
100
AcDbLine
 10
226.8645250881741
 20
751.0660666528001
 30
0.0
 11
244.784525088176
 21
751.0660666527907
 31
0.0
  0
LINE
  5
9162
330
37
100
AcDbEntity
  8
0
100
AcDbLine
 10
244.784525088176
 20
751.0660666527907
 30
0.0
 11
235.8245250881623
 21
766.5852418886043
 31
0.0
  0
LINE
  5
9163
330
37
100
AcDbEntity
  8
0
100
AcDbLine
 10
254.4360189159738
 20
766.5852418886043
 30
0.0
 11
245.4760189159856
 21
751.0660666527817
 31
0.0
  0
LINE
  5
9164
330
37
100
AcDbEntity
  8
0
100
AcDbLine
 10
245.4760189159856
 20
751.0660666527817
 30
0.0
 11
240.8572167624686
 21
759.0660666527907
 31
0.0
  0
LINE
  5
9165
330
37
100
AcDbEntity
  8
0
100
AcDbLine
 10
240.8572167624686
 20
759.0660666527907
 30
0.0
 11
245.1984146089544
 21
766.5852418886043
 31
0.0
  0
LINE
  5
9166
330
37
100
AcDbEntity
  8
0
100
AcDbLine
 10
245.1984146089544
 20
766.5852418886043
 30
0.0
 11
254.4360189159738
 21
766.5852418886043
 31
0.0
  0
CIRCLE
  5
9167
330
37
100
AcDbEntity
  8
0
100
AcDbCircle
 10
286.2905166125736
 20
753.7870908115872
 30
0.0
 40
2.5
  0
CIRCLE
  5
9168
330
37
100
AcDbEntity
  8
0
100
AcDbCircle
 10
76.29051661257356
 20
753.7870908115872
 30
0.0
 40
2.5
  0
LINE
  5
9169
330
37
100
AcDbEntity
  8
0
100
AcDbLine
 10
187.2905166125736
 20
108.8975522402032
 30
0.0
 11
61.29051661257356
 21
108.8975522402032
 31
0.0
1001
GENIUS_GENREC_14
1002
{
1000
PYDIR
1011
61.29051661257356
1021
108.8975522402032
1031
0.0
1002
}
1002
{
1000
PXDIR
1011
301.2905166125737
1021
48.89755224020321
1031
0.0
1002
}
1002
{
1000
PORI
1011
61.29051661257356
1021
48.89755224020321
1031
0.0
1002
}
1002
{
1000
PINS
1011
181.2905166125736
1021
48.89755224020319
1031
0.0
1002
}
1002
{
1000
HVAL
1000
60
1002
}
1002
{
1000
H
1070
     2
1002
}
1002
{
1000
WVAL
1000
240
1002
}
1002
{
1000
W
1070
     2
1002
}
1002
{
1000
C
1070
     2
1002
}
1001
GENIUS_GENODEF_13
1002
{
1000
HIER
1070
     0
1002
}
1002
{
1000
MANEDIT
1070
     0
1002
}
1002
{
1000
NOSEL
1070
     0
1002
}
1002
{
1000
BEHIND
1070
     0
1002
}
1002
{
1000
OTHER
1070
     0
1002
}
1002
{
1000
REACTOR
1002
}
1001
GENIUS_GENOBJ-N-REC_13
1002
{
1000
OWNER
1000
GEN
1002
}
  0
LINE
  5
916A
330
37
100
AcDbEntity
  8
0
100
AcDbLine
 10
61.29051661257356
 20
108.8975522402032
 30
0.0
 11
61.29051661257356
 21
51.89755224020323
 31
0.0
1001
GENIUS_GENREC_14
1002
{
1000
PYDIR
1011
61.29051661257356
1021
108.8975522402032
1031
0.0
1002
}
1002
{
1000
PXDIR
1011
301.2905166125737
1021
48.89755224020321
1031
0.0
1002
}
1002
{
1000
PORI
1011
61.29051661257356
1021
48.89755224020321
1031
0.0
1002
}
1002
{
1000
PINS
1011
181.2905166125736
1021
48.89755224020319
1031
0.0
1002
}
1002
{
1000
HVAL
1000
60
1002
}
1002
{
1000
H
1070
     2
1002
}
1002
{
1000
WVAL
1000
240
1002
}
1002
{
1000
W
1070
     2
1002
}
1002
{
1000
C
1070
     2
1002
}
1001
GENIUS_GENODEF_13
1002
{
1000
HIER
1070
     0
1002
}
1002
{
1000
MANEDIT
1070
     0
1002
}
1002
{
1000
NOSEL
1070
     0
1002
}
1002
{
1000
BEHIND
1070
     0
1002
}
1002
{
1000
OTHER
1070
     0
1002
}
1002
{
1000
REACTOR
1002
}
1001
GENIUS_GENOBJ-N-REC_13
1002
{
1000
OWNER
1000
GEN
1002
}
  0
LINE
  5
916B
330
37
100
AcDbEntity
  8
0
100
AcDbLine
 10
61.29051661257356
 20
51.89755224020323
 30
0.0
 11
64.29051661257357
 21
48.89755224020323
 31
0.0
1001
GENIUS_GENREC_14
1002
{
1000
PYDIR
1011
61.29051661257356
1021
108.8975522402032
1031
0.0
1002
}
1002
{
1000
PXDIR
1011
301.2905166125737
1021
48.89755224020321
1031
0.0
1002
}
1002
{
1000
PORI
1011
61.29051661257356
1021
48.89755224020321
1031
0.0
1002
}
1002
{
1000
PINS
1011
181.2905166125736
1021
48.89755224020319
1031
0.0
1002
}
1002
{
1000
HVAL
1000
60
1002
}
1002
{
1000
H
1070
     2
1002
}
1002
{
1000
WVAL
1000
240
1002
}
1002
{
1000
W
1070
     2
1002
}
1002
{
1000
C
1070
     2
1002
}
1001
GENIUS_GENODEF_13
1002
{
1000
HIER
1070
     0
1002
}
1002
{
1000
MANEDIT
1070
     0
1002
}
1002
{
1000
NOSEL
1070
     0
1002
}
1002
{
1000
BEHIND
1070
     0
1002
}
1002
{
1000
OTHER
1070
     0
1002
}
1002
{
1000
REACTOR
1002
}
1001
GENIUS_GENOBJ-N-REC_13
1002
{
1000
OWNER
1000
GEN
1002
}
  0
LINE
  5
916C
330
37
100
AcDbEntity
  8
0
100
AcDbLine
 10
64.29051661257357
 20
48.89755224020323
 30
0.0
 11
298.2905166125736
 21
48.89755224020321
 31
0.0
1001
GENIUS_GENREC_14
1002
{
1000
PYDIR
1011
61.29051661257356
1021
108.8975522402032
1031
0.0
1002
}
1002
{
1000
PXDIR
1011
301.2905166125737
1021
48.89755224020321
1031
0.0
1002
}
1002
{
1000
PORI
1011
61.29051661257356
1021
48.89755224020321
1031
0.0
1002
}
1002
{
1000
PINS
1011
181.2905166125736
1021
48.89755224020319
1031
0.0
1002
}
1002
{
1000
HVAL
1000
60
1002
}
1002
{
1000
H
1070
     2
1002
}
1002
{
1000
WVAL
1000
240
1002
}
1002
{
1000
W
1070
     2
1002
}
1002
{
1000
C
1070
     2
1002
}
1001
GENIUS_GENODEF_13
1002
{
1000
HIER
1070
     0
1002
}
1002
{
1000
MANEDIT
1070
     0
1002
}
1002
{
1000
NOSEL
1070
     0
1002
}
1002
{
1000
BEHIND
1070
     0
1002
}
1002
{
1000
OTHER
1070
     0
1002
}
1002
{
1000
REACTOR
1002
}
1001
GENIUS_GENOBJ-N-REC_13
1002
{
1000
OWNER
1000
GEN
1002
}
  0
LINE
  5
916D
330
37
100
AcDbEntity
  8
0
100
AcDbLine
 10
298.2905166125736
 20
48.89755224020321
 30
0.0
 11
301.2905166125737
 21
51.89755224020321
 31
0.0
1001
GENIUS_GENREC_14
1002
{
1000
PYDIR
1011
61.29051661257356
1021
108.8975522402032
1031
0.0
1002
}
1002
{
1000
PXDIR
1011
301.2905166125737
1021
48.89755224020321
1031
0.0
1002
}
1002
{
1000
PORI
1011
61.29051661257356
1021
48.89755224020321
1031
0.0
1002
}
1002
{
1000
PINS
1011
181.2905166125736
1021
48.89755224020319
1031
0.0
1002
}
1002
{
1000
HVAL
1000
60
1002
}
1002
{
1000
H
1070
     2
1002
}
1002
{
1000
WVAL
1000
240
1002
}
1002
{
1000
W
1070
     2
1002
}
1002
{
1000
C
1070
     2
1002
}
1001
GENIUS_GENODEF_13
1002
{
1000
HIER
1070
     0
1002
}
1002
{
1000
MANEDIT
1070
     0
1002
}
1002
{
1000
NOSEL
1070
     0
1002
}
1002
{
1000
BEHIND
1070
     0
1002
}
1002
{
1000
OTHER
1070
     0
1002
}
1002
{
1000
REACTOR
1002
}
1001
GENIUS_GENOBJ-N-REC_13
1002
{
1000
OWNER
1000
GEN
1002
}
  0
LINE
  5
916E
330
37
100
AcDbEntity
  8
0
100
AcDbLine
 10
301.2905166125737
 20
51.89755224020321
 30
0.0
 11
301.2905166125737
 21
108.8975522402032
 31
0.0
1001
GENIUS_GENREC_14
1002
{
1000
PYDIR
1011
61.29051661257356
1021
108.8975522402032
1031
0.0
1002
}
1002
{
1000
PXDIR
1011
301.2905166125737
1021
48.89755224020321
1031
0.0
1002
}
1002
{
1000
PORI
1011
61.29051661257356
1021
48.89755224020321
1031
0.0
1002
}
1002
{
1000
PINS
1011
181.2905166125736
1021
48.89755224020319
1031
0.0
1002
}
1002
{
1000
HVAL
1000
60
1002
}
1002
{
1000
H
1070
     2
1002
}
1002
{
1000
WVAL
1000
240
1002
}
1002
{
1000
W
1070
     2
1002
}
1002
{
1000
C
1070
     2
1002
}
1001
GENIUS_GENODEF_13
1002
{
1000
HIER
1070
     0
1002
}
1002
{
1000
MANEDIT
1070
     0
1002
}
1002
{
1000
NOSEL
1070
     0
1002
}
1002
{
1000
BEHIND
1070
     0
1002
}
1002
{
1000
OTHER
1070
     0
1002
}
1002
{
1000
REACTOR
1002
}
1001
GENIUS_GENOBJ-N-REC_13
1002
{
1000
OWNER
1000
GEN
1002
}
  0
LINE
  5
916F
330
37
100
AcDbEntity
  8
0
100
AcDbLine
 10
301.2905166125737
 20
108.8975522402032
 30
0.0
 11
218.2905166125736
 21
108.8975522402032
 31
0.0
1001
GENIUS_GENREC_14
1002
{
1000
PYDIR
1011
61.29051661257356
1021
108.8975522402032
1031
0.0
1002
}
1002
{
1000
PXDIR
1011
301.2905166125737
1021
48.89755224020321
1031
0.0
1002
}
1002
{
1000
PORI
1011
61.29051661257356
1021
48.89755224020321
1031
0.0
1002
}
1002
{
1000
PINS
1011
181.2905166125736
1021
48.89755224020319
1031
0.0
1002
}
1002
{
1000
HVAL
1000
60
1002
}
1002
{
1000
H
1070
     2
1002
}
1002
{
1000
WVAL
1000
240
1002
}
1002
{
1000
W
1070
     2
1002
}
1002
{
1000
C
1070
     2
1002
}
1001
GENIUS_GENODEF_13
1002
{
1000
HIER
1070
     0
1002
}
1002
{
1000
MANEDIT
1070
     0
1002
}
1002
{
1000
NOSEL
1070
     0
1002
}
1002
{
1000
BEHIND
1070
     0
1002
}
1002
{
1000
OTHER
1070
     0
1002
}
1002
{
1000
REACTOR
1002
}
1001
GENIUS_GENOBJ-N-REC_13
1002
{
1000
OWNER
1000
GEN
1002
}
  0
LINE
  5
9170
330
37
100
AcDbEntity
  8
0
100
AcDbLine
 10
218.2905166125736
 20
108.8975522402032
 30
0.0
 11
218.2905166125736
 21
107.6308855735619
 31
0.0
1001
GENIUS_GENREC_14
1002
{
1000
PYDIR
1011
61.29051661257356
1021
108.8975522402032
1031
0.0
1002
}
1002
{
1000
PXDIR
1011
301.2905166125737
1021
48.89755224020321
1031
0.0
1002
}
1002
{
1000
PORI
1011
61.29051661257356
1021
48.89755224020321
1031
0.0
1002
}
1002
{
1000
PINS
1011
181.2905166125736
1021
48.89755224020319
1031
0.0
1002
}
1002
{
1000
HVAL
1000
60
1002
}
1002
{
1000
H
1070
     2
1002
}
1002
{
1000
WVAL
1000
240
1002
}
1002
{
1000
W
1070
     2
1002
}
1002
{
1000
C
1070
     2
1002
}
1001
GENIUS_GENODEF_13
1002
{
1000
HIER
1070
     0
1002
}
1002
{
1000
MANEDIT
1070
     0
1002
}
1002
{
1000
NOSEL
1070
     0
1002
}
1002
{
1000
BEHIND
1070
     0
1002
}
1002
{
1000
OTHER
1070
     0
1002
}
1002
{
1000
REACTOR
1002
}
1001
GENIUS_GENOBJ-N-REC_13
1002
{
1000
OWNER
1000
GEN
1002
}
  0
LINE
  5
9171
330
37
100
AcDbEntity
  8
0
100
AcDbLine
 10
270.7905166125736
 20
43.89755224020321
 30
0.0
 11
291.7905166125736
 21
43.89755224020321
 31
0.0
1001
GENIUS_GENREC_14
1002
{
1000
PYDIR
1011
270.7905166125736
1021
48.89755224020321
1031
0.0
1002
}
1002
{
1000
PXDIR
1011
291.7905166125736
1021
43.89755224020321
1031
0.0
1002
}
1002
{
1000
PORI
1011
270.7905166125736
1021
43.89755224020321
1031
0.0
1002
}
1002
{
1000
PINS
1011
281.2905166125736
1021
43.89755224020321
1031
0.0
1002
}
1002
{
1000
HVAL
1000
5
1002
}
1002
{
1000
H
1070
     2
1002
}
1002
{
1000
WVAL
1000
21
1002
}
1002
{
1000
W
1070
     2
1002
}
1002
{
1000
C
1070
     2
1002
}
1001
GENIUS_GENODEF_13
1002
{
1000
HIER
1070
     0
1002
}
1002
{
1000
MANEDIT
1070
     0
1002
}
1002
{
1000
NOSEL
1070
     0
1002
}
1002
{
1000
BEHIND
1070
     0
1002
}
1002
{
1000
OTHER
1070
     0
1002
}
1002
{
1000
REACTOR
1002
}
1001
GENIUS_GENOBJ-N-REC_13
1002
{
1000
OWNER
1000
GEN
1002
}
  0
LINE
  5
9172
330
37
100
AcDbEntity
  8
0
100
AcDbLine
 10
291.7905166125736
 20
43.89755224020321
 30
0.0
 11
291.7905166125736
 21
48.89755224020321
 31
0.0
1001
GENIUS_GENREC_14
1002
{
1000
PYDIR
1011
270.7905166125736
1021
48.89755224020321
1031
0.0
1002
}
1002
{
1000
PXDIR
1011
291.7905166125736
1021
43.89755224020321
1031
0.0
1002
}
1002
{
1000
PORI
1011
270.7905166125736
1021
43.89755224020321
1031
0.0
1002
}
1002
{
1000
PINS
1011
281.2905166125736
1021
43.89755224020321
1031
0.0
1002
}
1002
{
1000
HVAL
1000
5
1002
}
1002
{
1000
H
1070
     2
1002
}
1002
{
1000
WVAL
1000
21
1002
}
1002
{
1000
W
1070
     2
1002
}
1002
{
1000
C
1070
     2
1002
}
1001
GENIUS_GENODEF_13
1002
{
1000
HIER
1070
     0
1002
}
1002
{
1000
MANEDIT
1070
     0
1002
}
1002
{
1000
NOSEL
1070
     0
1002
}
1002
{
1000
BEHIND
1070
     0
1002
}
1002
{
1000
OTHER
1070
     0
1002
}
1002
{
1000
REACTOR
1002
}
1001
GENIUS_GENOBJ-N-REC_13
1002
{
1000
OWNER
1000
GEN
1002
}
  0
LINE
  5
9173
330
37
100
AcDbEntity
  8
0
100
AcDbLine
 10
291.7905166125736
 20
48.89755224020321
 30
0.0
 11
270.7905166125736
 21
48.89755224020321
 31
0.0
1001
GENIUS_GENREC_14
1002
{
1000
PYDIR
1011
270.7905166125736
1021
48.89755224020321
1031
0.0
1002
}
1002
{
1000
PXDIR
1011
291.7905166125736
1021
43.89755224020321
1031
0.0
1002
}
1002
{
1000
PORI
1011
270.7905166125736
1021
43.89755224020321
1031
0.0
1002
}
1002
{
1000
PINS
1011
281.2905166125736
1021
43.89755224020321
1031
0.0
1002
}
1002
{
1000
HVAL
1000
5
1002
}
1002
{
1000
H
1070
     2
1002
}
1002
{
1000
WVAL
1000
21
1002
}
1002
{
1000
W
1070
     2
1002
}
1002
{
1000
C
1070
     2
1002
}
1001
GENIUS_GENODEF_13
1002
{
1000
HIER
1070
     0
1002
}
1002
{
1000
MANEDIT
1070
     0
1002
}
1002
{
1000
NOSEL
1070
     0
1002
}
1002
{
1000
BEHIND
1070
     0
1002
}
1002
{
1000
OTHER
1070
     0
1002
}
1002
{
1000
REACTOR
1002
}
1001
GENIUS_GENOBJ-N-REC_13
1002
{
1000
OWNER
1000
GEN
1002
}
  0
LINE
  5
9174
330
37
100
AcDbEntity
  8
0
100
AcDbLine
 10
270.7905166125736
 20
48.89755224020321
 30
0.0
 11
270.7905166125736
 21
43.89755224020321
 31
0.0
1001
GENIUS_GENREC_14
1002
{
1000
PYDIR
1011
270.7905166125736
1021
48.89755224020321
1031
0.0
1002
}
1002
{
1000
PXDIR
1011
291.7905166125736
1021
43.89755224020321
1031
0.0
1002
}
1002
{
1000
PORI
1011
270.7905166125736
1021
43.89755224020321
1031
0.0
1002
}
1002
{
1000
PINS
1011
281.2905166125736
1021
43.89755224020321
1031
0.0
1002
}
1002
{
1000
HVAL
1000
5
1002
}
1002
{
1000
H
1070
     2
1002
}
1002
{
1000
WVAL
1000
21
1002
}
1002
{
1000
W
1070
     2
1002
}
1002
{
1000
C
1070
     2
1002
}
1001
GENIUS_GENODEF_13
1002
{
1000
HIER
1070
     0
1002
}
1002
{
1000
MANEDIT
1070
     0
1002
}
1002
{
1000
NOSEL
1070
     0
1002
}
1002
{
1000
BEHIND
1070
     0
1002
}
1002
{
1000
OTHER
1070
     0
1002
}
1002
{
1000
REACTOR
1002
}
1001
GENIUS_GENOBJ-N-REC_13
1002
{
1000
OWNER
1000
GEN
1002
}
  0
LINE
  5
9175
330
37
100
AcDbEntity
  8
0
100
AcDbLine
 10
270.7905166125736
 20
38.89755224020321
 30
0.0
 11
291.7905166125736
 21
38.89755224020321
 31
0.0
1001
GENIUS_GENREC_14
1002
{
1000
PYDIR
1011
270.7905166125736
1021
48.89755224020321
1031
0.0
1002
}
1002
{
1000
PXDIR
1011
291.7905166125736
1021
38.89755224020321
1031
0.0
1002
}
1002
{
1000
PORI
1011
270.7905166125736
1021
38.89755224020321
1031
0.0
1002
}
1002
{
1000
PINS
1011
281.2905166125736
1021
38.89755224020321
1031
0.0
1002
}
1002
{
1000
HVAL
1000
10
1002
}
1002
{
1000
H
1070
     2
1002
}
1002
{
1000
WVAL
1000
21
1002
}
1002
{
1000
W
1070
     2
1002
}
1002
{
1000
C
1070
     2
1002
}
1001
GENIUS_GENOBJ-N-REC_13
1002
{
1000
OWNER
1000
GEN
1002
}
1001
GENIUS_GENODEF_13
1002
{
1000
HIER
1070
     0
1002
}
1002
{
1000
MANEDIT
1070
     0
1002
}
1002
{
1000
NOSEL
1070
     0
1002
}
1002
{
1000
BEHIND
1070
     0
1002
}
1002
{
1000
OTHER
1070
     0
1002
}
1002
{
1000
REACTOR
1002
}
  0
LINE
  5
9176
330
37
100
AcDbEntity
  8
0
100
AcDbLine
 10
291.7905166125736
 20
38.89755224020321
 30
0.0
 11
291.7905166125736
 21
48.89755224020321
 31
0.0
1001
GENIUS_GENREC_14
1002
{
1000
PYDIR
1011
270.7905166125736
1021
48.89755224020321
1031
0.0
1002
}
1002
{
1000
PXDIR
1011
291.7905166125736
1021
38.89755224020321
1031
0.0
1002
}
1002
{
1000
PORI
1011
270.7905166125736
1021
38.89755224020321
1031
0.0
1002
}
1002
{
1000
PINS
1011
281.2905166125736
1021
38.89755224020321
1031
0.0
1002
}
1002
{
1000
HVAL
1000
10
1002
}
1002
{
1000
H
1070
     2
1002
}
1002
{
1000
WVAL
1000
21
1002
}
1002
{
1000
W
1070
     2
1002
}
1002
{
1000
C
1070
     2
1002
}
1001
GENIUS_GENOBJ-N-REC_13
1002
{
1000
OWNER
1000
GEN
1002
}
1001
GENIUS_GENODEF_13
1002
{
1000
HIER
1070
     0
1002
}
1002
{
1000
MANEDIT
1070
     0
1002
}
1002
{
1000
NOSEL
1070
     0
1002
}
1002
{
1000
BEHIND
1070
     0
1002
}
1002
{
1000
OTHER
1070
     0
1002
}
1002
{
1000
REACTOR
1002
}
  0
LINE
  5
9177
330
37
100
AcDbEntity
  8
0
100
AcDbLine
 10
291.7905166125736
 20
48.89755224020321
 30
0.0
 11
270.7905166125736
 21
48.89755224020321
 31
0.0
1001
GENIUS_GENREC_14
1002
{
1000
PYDIR
1011
270.7905166125736
1021
48.89755224020321
1031
0.0
1002
}
1002
{
1000
PXDIR
1011
291.7905166125736
1021
38.89755224020321
1031
0.0
1002
}
1002
{
1000
PORI
1011
270.7905166125736
1021
38.89755224020321
1031
0.0
1002
}
1002
{
1000
PINS
1011
281.2905166125736
1021
38.89755224020321
1031
0.0
1002
}
1002
{
1000
HVAL
1000
10
1002
}
1002
{
1000
H
1070
     2
1002
}
1002
{
1000
WVAL
1000
21
1002
}
1002
{
1000
W
1070
     2
1002
}
1002
{
1000
C
1070
     2
1002
}
1001
GENIUS_GENOBJ-N-REC_13
1002
{
1000
OWNER
1000
GEN
1002
}
1001
GENIUS_GENODEF_13
1002
{
1000
HIER
1070
     0
1002
}
1002
{
1000
MANEDIT
1070
     0
1002
}
1002
{
1000
NOSEL
1070
     0
1002
}
1002
{
1000
BEHIND
1070
     0
1002
}
1002
{
1000
OTHER
1070
     0
1002
}
1002
{
1000
REACTOR
1002
}
  0
LINE
  5
9178
330
37
100
AcDbEntity
  8
0
100
AcDbLine
 10
270.7905166125736
 20
48.89755224020321
 30
0.0
 11
270.7905166125736
 21
38.89755224020321
 31
0.0
1001
GENIUS_GENREC_14
1002
{
1000
PYDIR
1011
270.7905166125736
1021
48.89755224020321
1031
0.0
1002
}
1002
{
1000
PXDIR
1011
291.7905166125736
1021
38.89755224020321
1031
0.0
1002
}
1002
{
1000
PORI
1011
270.7905166125736
1021
38.89755224020321
1031
0.0
1002
}
1002
{
1000
PINS
1011
281.2905166125736
1021
38.89755224020321
1031
0.0
1002
}
1002
{
1000
HVAL
1000
10
1002
}
1002
{
1000
H
1070
     2
1002
}
1002
{
1000
WVAL
1000
21
1002
}
1002
{
1000
W
1070
     2
1002
}
1002
{
1000
C
1070
     2
1002
}
1001
GENIUS_GENOBJ-N-REC_13
1002
{
1000
OWNER
1000
GEN
1002
}
1001
GENIUS_GENODEF_13
1002
{
1000
HIER
1070
     0
1002
}
1002
{
1000
MANEDIT
1070
     0
1002
}
1002
{
1000
NOSEL
1070
     0
1002
}
1002
{
1000
BEHIND
1070
     0
1002
}
1002
{
1000
OTHER
1070
     0
1002
}
1002
{
1000
REACTOR
1002
}
  0
LINE
  5
9179
330
37
100
AcDbEntity
  8
0
100
AcDbLine
 10
91.79051661257359
 20
38.89755224020321
 30
0.0
 11
70.79051661257357
 21
38.89755224020321
 31
0.0
1001
GENIUS_GENREC_14
1002
{
1000
PYDIR
1011
91.79051661257359
1021
48.89755224020321
1031
0.0
1002
}
1002
{
1000
PXDIR
1011
70.79051661257357
1021
38.89755224020321
1031
0.0
1002
}
1002
{
1000
PORI
1011
91.79051661257359
1021
38.89755224020321
1031
0.0
1002
}
1002
{
1000
PINS
1011
81.29051661257356
1021
38.89755224020321
1031
0.0
1002
}
1002
{
1000
HVAL
1000
10
1002
}
1002
{
1000
H
1070
     2
1002
}
1002
{
1000
WVAL
1000
21
1002
}
1002
{
1000
W
1070
     2
1002
}
1002
{
1000
C
1070
     2
1002
}
1001
GENIUS_GENOBJ-N-REC_13
1002
{
1000
OWNER
1000
GEN
1002
}
1001
GENIUS_GENODEF_13
1002
{
1000
HIER
1070
     0
1002
}
1002
{
1000
MANEDIT
1070
     0
1002
}
1002
{
1000
NOSEL
1070
     0
1002
}
1002
{
1000
BEHIND
1070
     0
1002
}
1002
{
1000
OTHER
1070
     0
1002
}
1002
{
1000
REACTOR
1002
}
  0
LINE
  5
917A
330
37
100
AcDbEntity
  8
0
100
AcDbLine
 10
70.79051661257357
 20
38.89755224020321
 30
0.0
 11
70.79051661257357
 21
48.89755224020321
 31
0.0
1001
GENIUS_GENREC_14
1002
{
1000
PYDIR
1011
91.79051661257359
1021
48.89755224020321
1031
0.0
1002
}
1002
{
1000
PXDIR
1011
70.79051661257357
1021
38.89755224020321
1031
0.0
1002
}
1002
{
1000
PORI
1011
91.79051661257359
1021
38.89755224020321
1031
0.0
1002
}
1002
{
1000
PINS
1011
81.29051661257356
1021
38.89755224020321
1031
0.0
1002
}
1002
{
1000
HVAL
1000
10
1002
}
1002
{
1000
H
1070
     2
1002
}
1002
{
1000
WVAL
1000
21
1002
}
1002
{
1000
W
1070
     2
1002
}
1002
{
1000
C
1070
     2
1002
}
1001
GENIUS_GENOBJ-N-REC_13
1002
{
1000
OWNER
1000
GEN
1002
}
1001
GENIUS_GENODEF_13
1002
{
1000
HIER
1070
     0
1002
}
1002
{
1000
MANEDIT
1070
     0
1002
}
1002
{
1000
NOSEL
1070
     0
1002
}
1002
{
1000
BEHIND
1070
     0
1002
}
1002
{
1000
OTHER
1070
     0
1002
}
1002
{
1000
REACTOR
1002
}
  0
LINE
  5
917B
330
37
100
AcDbEntity
  8
0
100
AcDbLine
 10
70.79051661257357
 20
48.89755224020321
 30
0.0
 11
91.79051661257359
 21
48.89755224020321
 31
0.0
1001
GENIUS_GENREC_14
1002
{
1000
PYDIR
1011
91.79051661257359
1021
48.89755224020321
1031
0.0
1002
}
1002
{
1000
PXDIR
1011
70.79051661257357
1021
38.89755224020321
1031
0.0
1002
}
1002
{
1000
PORI
1011
91.79051661257359
1021
38.89755224020321
1031
0.0
1002
}
1002
{
1000
PINS
1011
81.29051661257356
1021
38.89755224020321
1031
0.0
1002
}
1002
{
1000
HVAL
1000
10
1002
}
1002
{
1000
H
1070
     2
1002
}
1002
{
1000
WVAL
1000
21
1002
}
1002
{
1000
W
1070
     2
1002
}
1002
{
1000
C
1070
     2
1002
}
1001
GENIUS_GENOBJ-N-REC_13
1002
{
1000
OWNER
1000
GEN
1002
}
1001
GENIUS_GENODEF_13
1002
{
1000
HIER
1070
     0
1002
}
1002
{
1000
MANEDIT
1070
     0
1002
}
1002
{
1000
NOSEL
1070
     0
1002
}
1002
{
1000
BEHIND
1070
     0
1002
}
1002
{
1000
OTHER
1070
     0
1002
}
1002
{
1000
REACTOR
1002
}
  0
LINE
  5
917C
330
37
100
AcDbEntity
  8
0
100
AcDbLine
 10
91.79051661257359
 20
48.89755224020321
 30
0.0
 11
91.79051661257359
 21
38.89755224020321
 31
0.0
1001
GENIUS_GENREC_14
1002
{
1000
PYDIR
1011
91.79051661257359
1021
48.89755224020321
1031
0.0
1002
}
1002
{
1000
PXDIR
1011
70.79051661257357
1021
38.89755224020321
1031
0.0
1002
}
1002
{
1000
PORI
1011
91.79051661257359
1021
38.89755224020321
1031
0.0
1002
}
1002
{
1000
PINS
1011
81.29051661257356
1021
38.89755224020321
1031
0.0
1002
}
1002
{
1000
HVAL
1000
10
1002
}
1002
{
1000
H
1070
     2
1002
}
1002
{
1000
WVAL
1000
21
1002
}
1002
{
1000
W
1070
     2
1002
}
1002
{
1000
C
1070
     2
1002
}
1001
GENIUS_GENOBJ-N-REC_13
1002
{
1000
OWNER
1000
GEN
1002
}
1001
GENIUS_GENODEF_13
1002
{
1000
HIER
1070
     0
1002
}
1002
{
1000
MANEDIT
1070
     0
1002
}
1002
{
1000
NOSEL
1070
     0
1002
}
1002
{
1000
BEHIND
1070
     0
1002
}
1002
{
1000
OTHER
1070
     0
1002
}
1002
{
1000
REACTOR
1002
}
  0
LINE
  5
917D
330
37
100
AcDbEntity
  8
0
100
AcDbLine
 10
91.79051661257359
 20
43.89755224020321
 30
0.0
 11
70.79051661257357
 21
43.89755224020321
 31
0.0
1001
GENIUS_GENREC_14
1002
{
1000
PYDIR
1011
91.79051661257359
1021
48.89755224020321
1031
0.0
1002
}
1002
{
1000
PXDIR
1011
70.79051661257357
1021
43.89755224020321
1031
0.0
1002
}
1002
{
1000
PORI
1011
91.79051661257359
1021
43.89755224020321
1031
0.0
1002
}
1002
{
1000
PINS
1011
81.29051661257356
1021
43.89755224020321
1031
0.0
1002
}
1002
{
1000
HVAL
1000
5
1002
}
1002
{
1000
H
1070
     2
1002
}
1002
{
1000
WVAL
1000
21
1002
}
1002
{
1000
W
1070
     2
1002
}
1002
{
1000
C
1070
     2
1002
}
1001
GENIUS_GENODEF_13
1002
{
1000
HIER
1070
     0
1002
}
1002
{
1000
MANEDIT
1070
     0
1002
}
1002
{
1000
NOSEL
1070
     0
1002
}
1002
{
1000
BEHIND
1070
     0
1002
}
1002
{
1000
OTHER
1070
     0
1002
}
1002
{
1000
REACTOR
1002
}
1001
GENIUS_GENOBJ-N-REC_13
1002
{
1000
OWNER
1000
GEN
1002
}
  0
LINE
  5
917E
330
37
100
AcDbEntity
  8
0
100
AcDbLine
 10
70.79051661257357
 20
43.89755224020321
 30
0.0
 11
70.79051661257357
 21
48.89755224020321
 31
0.0
1001
GENIUS_GENREC_14
1002
{
1000
PYDIR
1011
91.79051661257359
1021
48.89755224020321
1031
0.0
1002
}
1002
{
1000
PXDIR
1011
70.79051661257357
1021
43.89755224020321
1031
0.0
1002
}
1002
{
1000
PORI
1011
91.79051661257359
1021
43.89755224020321
1031
0.0
1002
}
1002
{
1000
PINS
1011
81.29051661257356
1021
43.89755224020321
1031
0.0
1002
}
1002
{
1000
HVAL
1000
5
1002
}
1002
{
1000
H
1070
     2
1002
}
1002
{
1000
WVAL
1000
21
1002
}
1002
{
1000
W
1070
     2
1002
}
1002
{
1000
C
1070
     2
1002
}
1001
GENIUS_GENODEF_13
1002
{
1000
HIER
1070
     0
1002
}
1002
{
1000
MANEDIT
1070
     0
1002
}
1002
{
1000
NOSEL
1070
     0
1002
}
1002
{
1000
BEHIND
1070
     0
1002
}
1002
{
1000
OTHER
1070
     0
1002
}
1002
{
1000
REACTOR
1002
}
1001
GENIUS_GENOBJ-N-REC_13
1002
{
1000
OWNER
1000
GEN
1002
}
  0
LINE
  5
917F
330
37
100
AcDbEntity
  8
0
100
AcDbLine
 10
70.79051661257357
 20
48.89755224020321
 30
0.0
 11
91.79051661257359
 21
48.89755224020321
 31
0.0
1001
GENIUS_GENREC_14
1002
{
1000
PYDIR
1011
91.79051661257359
1021
48.89755224020321
1031
0.0
1002
}
1002
{
1000
PXDIR
1011
70.79051661257357
1021
43.89755224020321
1031
0.0
1002
}
1002
{
1000
PORI
1011
91.79051661257359
1021
43.89755224020321
1031
0.0
1002
}
1002
{
1000
PINS
1011
81.29051661257356
1021
43.89755224020321
1031
0.0
1002
}
1002
{
1000
HVAL
1000
5
1002
}
1002
{
1000
H
1070
     2
1002
}
1002
{
1000
WVAL
1000
21
1002
}
1002
{
1000
W
1070
     2
1002
}
1002
{
1000
C
1070
     2
1002
}
1001
GENIUS_GENODEF_13
1002
{
1000
HIER
1070
     0
1002
}
1002
{
1000
MANEDIT
1070
     0
1002
}
1002
{
1000
NOSEL
1070
     0
1002
}
1002
{
1000
BEHIND
1070
     0
1002
}
1002
{
1000
OTHER
1070
     0
1002
}
1002
{
1000
REACTOR
1002
}
1001
GENIUS_GENOBJ-N-REC_13
1002
{
1000
OWNER
1000
GEN
1002
}
  0
LINE
  5
9180
330
37
100
AcDbEntity
  8
0
100
AcDbLine
 10
91.79051661257359
 20
48.89755224020321
 30
0.0
 11
91.79051661257359
 21
43.89755224020321
 31
0.0
1001
GENIUS_GENREC_14
1002
{
1000
PYDIR
1011
91.79051661257359
1021
48.89755224020321
1031
0.0
1002
}
1002
{
1000
PXDIR
1011
70.79051661257357
1021
43.89755224020321
1031
0.0
1002
}
1002
{
1000
PORI
1011
91.79051661257359
1021
43.89755224020321
1031
0.0
1002
}
1002
{
1000
PINS
1011
81.29051661257356
1021
43.89755224020321
1031
0.0
1002
}
1002
{
1000
HVAL
1000
5
1002
}
1002
{
1000
H
1070
     2
1002
}
1002
{
1000
WVAL
1000
21
1002
}
1002
{
1000
W
1070
     2
1002
}
1002
{
1000
C
1070
     2
1002
}
1001
GENIUS_GENODEF_13
1002
{
1000
HIER
1070
     0
1002
}
1002
{
1000
MANEDIT
1070
     0
1002
}
1002
{
1000
NOSEL
1070
     0
1002
}
1002
{
1000
BEHIND
1070
     0
1002
}
1002
{
1000
OTHER
1070
     0
1002
}
1002
{
1000
REACTOR
1002
}
1001
GENIUS_GENOBJ-N-REC_13
1002
{
1000
OWNER
1000
GEN
1002
}
  0
LINE
  5
9181
330
37
100
AcDbEntity
  8
0
100
AcDbLine
 10
301.2905166125737
 20
100.0308855735364
 30
0.0
 11
297.7905166125736
 21
108.8975522402032
 31
0.0
  0
LINE
  5
9182
330
37
100
AcDbEntity
  8
0
100
AcDbLine
 10
297.7905166125736
 20
108.8975522402032
 30
0.0
 11
295.7905166125737
 21
108.8975522402323
 31
0.0
  0
LINE
  5
9183
330
37
100
AcDbEntity
  8
0
100
AcDbLine
 10
295.7905166125737
 20
108.8975522402323
 30
0.0
 11
292.0405166125736
 21
99.39755224020323
 31
0.0
  0
LINE
  5
9184
330
37
100
AcDbEntity
  8
0
100
AcDbLine
 10
292.0405166125736
 20
99.39755224020323
 30
0.0
 11
290.5405166125736
 21
99.39755224020323
 31
0.0
  0
LINE
  5
9185
330
37
100
AcDbEntity
  8
0
100
AcDbLine
 10
290.5405166125736
 20
99.39755224020323
 30
0.0
 11
286.7905166125737
 21
108.8975522402032
 31
0.0
  0
LINE
  5
9186
330
37
100
AcDbEntity
  8
0
100
AcDbLine
 10
286.7905166125737
 20
108.8975522402032
 30
0.0
 11
284.7905166125737
 21
108.8975522402323
 31
0.0
  0
LINE
  5
9187
330
37
100
AcDbEntity
  8
0
100
AcDbLine
 10
284.7905166125737
 20
108.8975522402323
 30
0.0
 11
281.0405166125736
 21
99.39755224020323
 31
0.0
  0
LINE
  5
9188
330
37
100
AcDbEntity
  8
0
100
AcDbLine
 10
281.0405166125736
 20
99.39755224020323
 30
0.0
 11
279.5405166125736
 21
99.39755224020323
 31
0.0
  0
LINE
  5
9189
330
37
100
AcDbEntity
  8
0
100
AcDbLine
 10
279.5405166125736
 20
99.39755224020323
 30
0.0
 11
275.7905166125736
 21
108.8975522402032
 31
0.0
  0
LINE
  5
918A
330
37
100
AcDbEntity
  8
0
100
AcDbLine
 10
275.7905166125736
 20
108.8975522402032
 30
0.0
 11
273.7905166125736
 21
108.8975522402323
 31
0.0
  0
LINE
  5
918B
330
37
100
AcDbEntity
  8
0
100
AcDbLine
 10
273.7905166125736
 20
108.8975522402323
 30
0.0
 11
270.0405166125736
 21
99.39755224020323
 31
0.0
  0
LINE
  5
918C
330
37
100
AcDbEntity
  8
0
100
AcDbLine
 10
270.0405166125736
 20
99.39755224020323
 30
0.0
 11
268.5405166125736
 21
99.39755224020323
 31
0.0
  0
LINE
  5
918D
330
37
100
AcDbEntity
  8
0
100
AcDbLine
 10
268.5405166125736
 20
99.39755224020323
 30
0.0
 11
264.7905166125736
 21
108.8975522402032
 31
0.0
  0
LINE
  5
918E
330
37
100
AcDbEntity
  8
0
100
AcDbLine
 10
264.7905166125736
 20
108.8975522402032
 30
0.0
 11
262.7905166125736
 21
108.8975522402323
 31
0.0
  0
LINE
  5
918F
330
37
100
AcDbEntity
  8
0
100
AcDbLine
 10
262.7905166125736
 20
108.8975522402323
 30
0.0
 11
259.0405166125736
 21
99.39755224020323
 31
0.0
  0
LINE
  5
9190
330
37
100
AcDbEntity
  8
0
100
AcDbLine
 10
259.0405166125736
 20
99.39755224020323
 30
0.0
 11
257.5405166125736
 21
99.39755224020323
 31
0.0
  0
LINE
  5
9191
330
37
100
AcDbEntity
  8
0
100
AcDbLine
 10
257.5405166125736
 20
99.39755224020323
 30
0.0
 11
253.7905166125736
 21
108.8975522402032
 31
0.0
  0
LINE
  5
9192
330
37
100
AcDbEntity
  8
0
100
AcDbLine
 10
253.7905166125736
 20
108.8975522402032
 30
0.0
 11
251.7905166125736
 21
108.8975522402323
 31
0.0
  0
LINE
  5
9193
330
37
100
AcDbEntity
  8
0
100
AcDbLine
 10
251.7905166125736
 20
108.8975522402323
 30
0.0
 11
248.0405166125736
 21
99.39755224020323
 31
0.0
  0
LINE
  5
9194
330
37
100
AcDbEntity
  8
0
100
AcDbLine
 10
248.0405166125736
 20
99.39755224020323
 30
0.0
 11
246.5405166125736
 21
99.39755224020323
 31
0.0
  0
LINE
  5
9195
330
37
100
AcDbEntity
  8
0
100
AcDbLine
 10
246.5405166125736
 20
99.39755224020323
 30
0.0
 11
242.7905166125736
 21
108.8975522402032
 31
0.0
  0
LINE
  5
9196
330
37
100
AcDbEntity
  8
0
100
AcDbLine
 10
242.7905166125736
 20
108.8975522402032
 30
0.0
 11
240.7905166125736
 21
108.8975522402323
 31
0.0
  0
LINE
  5
9197
330
37
100
AcDbEntity
  8
0
100
AcDbLine
 10
240.7905166125736
 20
108.8975522402323
 30
0.0
 11
237.0405166125736
 21
99.39755224020323
 31
0.0
  0
LINE
  5
9198
330
37
100
AcDbEntity
  8
0
100
AcDbLine
 10
237.0405166125736
 20
99.39755224020323
 30
0.0
 11
235.5405166125736
 21
99.39755224020323
 31
0.0
  0
LINE
  5
9199
330
37
100
AcDbEntity
  8
0
100
AcDbLine
 10
235.5405166125736
 20
99.39755224020323
 30
0.0
 11
231.7905166125736
 21
108.8975522402032
 31
0.0
  0
LINE
  5
919A
330
37
100
AcDbEntity
  8
0
100
AcDbLine
 10
231.7905166125736
 20
108.8975522402032
 30
0.0
 11
229.7905166125736
 21
108.8975522402323
 31
0.0
  0
LINE
  5
919B
330
37
100
AcDbEntity
  8
0
100
AcDbLine
 10
229.7905166125736
 20
108.8975522402323
 30
0.0
 11
226.0405166125736
 21
99.39755224020323
 31
0.0
  0
LINE
  5
919C
330
37
100
AcDbEntity
  8
0
100
AcDbLine
 10
226.0405166125736
 20
99.39755224020323
 30
0.0
 11
224.5405166125736
 21
99.39755224020323
 31
0.0
  0
LINE
  5
919D
330
37
100
AcDbEntity
  8
0
100
AcDbLine
 10
224.5405166125736
 20
99.39755224020323
 30
0.0
 11
220.7905166125736
 21
108.8975522402032
 31
0.0
  0
LINE
  5
919E
330
37
100
AcDbEntity
  8
0
100
AcDbLine
 10
220.7905166125736
 20
108.8975522402032
 30
0.0
 11
218.7905166125736
 21
108.8975522402323
 31
0.0
  0
LINE
  5
919F
330
37
100
AcDbEntity
  8
0
100
AcDbLine
 10
218.7905166125736
 20
108.8975522402323
 30
0.0
 11
215.0405166125736
 21
99.39755224020323
 31
0.0
  0
LINE
  5
91A0
330
37
100
AcDbEntity
  8
0
100
AcDbLine
 10
215.0405166125736
 20
99.39755224020323
 30
0.0
 11
213.5405166125736
 21
99.39755224020323
 31
0.0
  0
LINE
  5
91A1
330
37
100
AcDbEntity
  8
0
100
AcDbLine
 10
213.5405166125736
 20
99.39755224020323
 30
0.0
 11
209.7905166125736
 21
108.8975522402032
 31
0.0
  0
LINE
  5
91A2
330
37
100
AcDbEntity
  8
0
100
AcDbLine
 10
209.7905166125736
 20
108.8975522402032
 30
0.0
 11
207.7905166125736
 21
108.8975522402323
 31
0.0
  0
LINE
  5
91A3
330
37
100
AcDbEntity
  8
0
100
AcDbLine
 10
207.7905166125736
 20
108.8975522402323
 30
0.0
 11
204.0405166125736
 21
99.39755224020323
 31
0.0
  0
LINE
  5
91A4
330
37
100
AcDbEntity
  8
0
100
AcDbLine
 10
204.0405166125736
 20
99.39755224020323
 30
0.0
 11
202.5405166125736
 21
99.39755224020323
 31
0.0
  0
LINE
  5
91A5
330
37
100
AcDbEntity
  8
0
100
AcDbLine
 10
202.5405166125736
 20
99.39755224020323
 30
0.0
 11
198.7905166125736
 21
108.8975522402032
 31
0.0
  0
LINE
  5
91A6
330
37
100
AcDbEntity
  8
0
100
AcDbLine
 10
198.7905166125736
 20
108.8975522402032
 30
0.0
 11
196.7905166125736
 21
108.8975522402323
 31
0.0
  0
LINE
  5
91A7
330
37
100
AcDbEntity
  8
0
100
AcDbLine
 10
196.7905166125736
 20
108.8975522402323
 30
0.0
 11
193.0405166125736
 21
99.39755224020323
 31
0.0
  0
LINE
  5
91A8
330
37
100
AcDbEntity
  8
0
100
AcDbLine
 10
193.0405166125736
 20
99.39755224020323
 30
0.0
 11
191.5405166125736
 21
99.39755224020323
 31
0.0
  0
LINE
  5
91A9
330
37
100
AcDbEntity
  8
0
100
AcDbLine
 10
191.5405166125736
 20
99.39755224020323
 30
0.0
 11
187.7905166125735
 21
108.8975522402032
 31
0.0
  0
LINE
  5
91AA
330
37
100
AcDbEntity
  8
0
100
AcDbLine
 10
187.7905166125735
 20
108.8975522402032
 30
0.0
 11
185.7905166125736
 21
108.8975522402323
 31
0.0
  0
LINE
  5
91AB
330
37
100
AcDbEntity
  8
0
100
AcDbLine
 10
185.7905166125736
 20
108.8975522402323
 30
0.0
 11
182.0405166125736
 21
99.39755224020323
 31
0.0
  0
LINE
  5
91AC
330
37
100
AcDbEntity
  8
0
100
AcDbLine
 10
182.0405166125736
 20
99.39755224020323
 30
0.0
 11
180.5405166125735
 21
99.39755224020323
 31
0.0
  0
LINE
  5
91AD
330
37
100
AcDbEntity
  8
0
100
AcDbLine
 10
180.5405166125735
 20
99.39755224020323
 30
0.0
 11
176.7905166125736
 21
108.8975522402323
 31
0.0
  0
LINE
  5
91AE
330
37
100
AcDbEntity
  8
0
100
AcDbLine
 10
176.7905166125736
 20
108.8975522402323
 30
0.0
 11
174.7905166125736
 21
108.8975522402032
 31
0.0
  0
LINE
  5
91AF
330
37
100
AcDbEntity
  8
0
100
AcDbLine
 10
174.7905166125736
 20
108.8975522402032
 30
0.0
 11
171.0405166125736
 21
99.39755224020323
 31
0.0
  0
LINE
  5
91B0
330
37
100
AcDbEntity
  8
0
100
AcDbLine
 10
171.0405166125736
 20
99.39755224020323
 30
0.0
 11
169.5405166125736
 21
99.39755224020323
 31
0.0
  0
LINE
  5
91B1
330
37
100
AcDbEntity
  8
0
100
AcDbLine
 10
169.5405166125736
 20
99.39755224020323
 30
0.0
 11
165.7905166125735
 21
108.8975522402323
 31
0.0
  0
LINE
  5
91B2
330
37
100
AcDbEntity
  8
0
100
AcDbLine
 10
165.7905166125735
 20
108.8975522402323
 30
0.0
 11
163.7905166125736
 21
108.8975522402032
 31
0.0
  0
LINE
  5
91B3
330
37
100
AcDbEntity
  8
0
100
AcDbLine
 10
163.7905166125736
 20
108.8975522402032
 30
0.0
 11
160.0405166125736
 21
99.39755224020323
 31
0.0
  0
LINE
  5
91B4
330
37
100
AcDbEntity
  8
0
100
AcDbLine
 10
160.0405166125736
 20
99.39755224020323
 30
0.0
 11
158.5405166125736
 21
99.39755224020323
 31
0.0
  0
LINE
  5
91B5
330
37
100
AcDbEntity
  8
0
100
AcDbLine
 10
158.5405166125736
 20
99.39755224020323
 30
0.0
 11
154.7905166125736
 21
108.8975522402323
 31
0.0
  0
LINE
  5
91B6
330
37
100
AcDbEntity
  8
0
100
AcDbLine
 10
154.7905166125736
 20
108.8975522402323
 30
0.0
 11
152.7905166125736
 21
108.8975522402032
 31
0.0
  0
LINE
  5
91B7
330
37
100
AcDbEntity
  8
0
100
AcDbLine
 10
152.7905166125736
 20
108.8975522402032
 30
0.0
 11
149.0405166125736
 21
99.39755224020323
 31
0.0
  0
LINE
  5
91B8
330
37
100
AcDbEntity
  8
0
100
AcDbLine
 10
149.0405166125736
 20
99.39755224020323
 30
0.0
 11
147.5405166125736
 21
99.39755224020323
 31
0.0
  0
LINE
  5
91B9
330
37
100
AcDbEntity
  8
0
100
AcDbLine
 10
147.5405166125736
 20
99.39755224020323
 30
0.0
 11
143.7905166125736
 21
108.8975522402323
 31
0.0
  0
LINE
  5
91BA
330
37
100
AcDbEntity
  8
0
100
AcDbLine
 10
143.7905166125736
 20
108.8975522402323
 30
0.0
 11
141.7905166125736
 21
108.8975522402032
 31
0.0
  0
LINE
  5
91BB
330
37
100
AcDbEntity
  8
0
100
AcDbLine
 10
141.7905166125736
 20
108.8975522402032
 30
0.0
 11
138.0405166125736
 21
99.39755224020323
 31
0.0
  0
LINE
  5
91BC
330
37
100
AcDbEntity
  8
0
100
AcDbLine
 10
138.0405166125736
 20
99.39755224020323
 30
0.0
 11
136.5405166125736
 21
99.39755224020323
 31
0.0
  0
LINE
  5
91BD
330
37
100
AcDbEntity
  8
0
100
AcDbLine
 10
136.5405166125736
 20
99.39755224020323
 30
0.0
 11
132.7905166125736
 21
108.8975522402323
 31
0.0
  0
LINE
  5
91BE
330
37
100
AcDbEntity
  8
0
100
AcDbLine
 10
132.7905166125736
 20
108.8975522402323
 30
0.0
 11
130.7905166125736
 21
108.8975522402032
 31
0.0
  0
LINE
  5
91BF
330
37
100
AcDbEntity
  8
0
100
AcDbLine
 10
130.7905166125736
 20
108.8975522402032
 30
0.0
 11
127.0405166125736
 21
99.39755224020323
 31
0.0
  0
LINE
  5
91C0
330
37
100
AcDbEntity
  8
0
100
AcDbLine
 10
127.0405166125736
 20
99.39755224020323
 30
0.0
 11
125.5405166125736
 21
99.39755224020323
 31
0.0
  0
LINE
  5
91C1
330
37
100
AcDbEntity
  8
0
100
AcDbLine
 10
125.5405166125736
 20
99.39755224020323
 30
0.0
 11
121.7905166125736
 21
108.8975522402323
 31
0.0
  0
LINE
  5
91C2
330
37
100
AcDbEntity
  8
0
100
AcDbLine
 10
121.7905166125736
 20
108.8975522402323
 30
0.0
 11
119.7905166125736
 21
108.8975522402032
 31
0.0
  0
LINE
  5
91C3
330
37
100
AcDbEntity
  8
0
100
AcDbLine
 10
119.7905166125736
 20
108.8975522402032
 30
0.0
 11
116.0405166125736
 21
99.39755224020323
 31
0.0
  0
LINE
  5
91C4
330
37
100
AcDbEntity
  8
0
100
AcDbLine
 10
116.0405166125736
 20
99.39755224020323
 30
0.0
 11
114.5405166125736
 21
99.39755224020323
 31
0.0
  0
LINE
  5
91C5
330
37
100
AcDbEntity
  8
0
100
AcDbLine
 10
114.5405166125736
 20
99.39755224020323
 30
0.0
 11
110.7905166125735
 21
108.8975522402323
 31
0.0
  0
LINE
  5
91C6
330
37
100
AcDbEntity
  8
0
100
AcDbLine
 10
110.7905166125735
 20
108.8975522402323
 30
0.0
 11
108.7905166125736
 21
108.8975522402032
 31
0.0
  0
LINE
  5
91C7
330
37
100
AcDbEntity
  8
0
100
AcDbLine
 10
108.7905166125736
 20
108.8975522402032
 30
0.0
 11
105.0405166125736
 21
99.39755224020323
 31
0.0
  0
LINE
  5
91C8
330
37
100
AcDbEntity
  8
0
100
AcDbLine
 10
105.0405166125736
 20
99.39755224020323
 30
0.0
 11
103.5405166125735
 21
99.39755224020323
 31
0.0
  0
LINE
  5
91C9
330
37
100
AcDbEntity
  8
0
100
AcDbLine
 10
103.5405166125735
 20
99.39755224020323
 30
0.0
 11
99.79051661257358
 21
108.8975522402323
 31
0.0
  0
LINE
  5
91CA
330
37
100
AcDbEntity
  8
0
100
AcDbLine
 10
99.79051661257358
 20
108.8975522402323
 30
0.0
 11
97.79051661257359
 21
108.8975522402032
 31
0.0
  0
LINE
  5
91CB
330
37
100
AcDbEntity
  8
0
100
AcDbLine
 10
97.79051661257359
 20
108.8975522402032
 30
0.0
 11
94.04051661257359
 21
99.39755224020323
 31
0.0
  0
LINE
  5
91CC
330
37
100
AcDbEntity
  8
0
100
AcDbLine
 10
94.04051661257359
 20
99.39755224020323
 30
0.0
 11
92.54051661257358
 21
99.39755224020323
 31
0.0
  0
LINE
  5
91CD
330
37
100
AcDbEntity
  8
0
100
AcDbLine
 10
92.54051661257358
 20
99.39755224020323
 30
0.0
 11
88.79051661257358
 21
108.8975522402323
 31
0.0
  0
LINE
  5
91CE
330
37
100
AcDbEntity
  8
0
100
AcDbLine
 10
88.79051661257358
 20
108.8975522402323
 30
0.0
 11
86.79051661257359
 21
108.8975522402032
 31
0.0
  0
LINE
  5
91CF
330
37
100
AcDbEntity
  8
0
100
AcDbLine
 10
86.79051661257359
 20
108.8975522402032
 30
0.0
 11
83.04051661257359
 21
99.39755224020323
 31
0.0
  0
LINE
  5
91D0
330
37
100
AcDbEntity
  8
0
100
AcDbLine
 10
83.04051661257359
 20
99.39755224020323
 30
0.0
 11
81.5405166125736
 21
99.39755224020323
 31
0.0
  0
LINE
  5
91D1
330
37
100
AcDbEntity
  8
0
100
AcDbLine
 10
81.5405166125736
 20
99.39755224020323
 30
0.0
 11
77.79051661257359
 21
108.8975522402323
 31
0.0
  0
LINE
  5
91D2
330
37
100
AcDbEntity
  8
0
100
AcDbLine
 10
77.79051661257359
 20
108.8975522402323
 30
0.0
 11
75.79051661257357
 21
108.8975522402032
 31
0.0
  0
LINE
  5
91D3
330
37
100
AcDbEntity
  8
0
100
AcDbLine
 10
75.79051661257357
 20
108.8975522402032
 30
0.0
 11
72.04051661257357
 21
99.39755224020323
 31
0.0
  0
LINE
  5
91D4
330
37
100
AcDbEntity
  8
0
100
AcDbLine
 10
72.04051661257357
 20
99.39755224020323
 30
0.0
 11
70.54051661257357
 21
99.39755224020323
 31
0.0
  0
LINE
  5
91D5
330
37
100
AcDbEntity
  8
0
100
AcDbLine
 10
70.54051661257357
 20
99.39755224020323
 30
0.0
 11
66.79051661257357
 21
108.8975522402323
 31
0.0
  0
LINE
  5
91D6
330
37
100
AcDbEntity
  8
0
100
AcDbLine
 10
66.79051661257357
 20
108.8975522402323
 30
0.0
 11
64.79051661257357
 21
108.8975522402032
 31
0.0
  0
LINE
  5
91D7
330
37
100
AcDbEntity
  8
0
100
AcDbLine
 10
64.79051661257357
 20
108.8975522402032
 30
0.0
 11
61.29051661257356
 21
100.0308855735365
 31
0.0
  0
LINE
  5
91D8
330
37
100
AcDbEntity
  8
弱線
100
AcDbLine
 10
292.0405166125736
 20
123.8975522402032
 30
0.0
 11
292.0405166125736
 21
113.8975522402032
 31
0.0
  0
LINE
  5
91D9
330
37
100
AcDbEntity
  8
弱線
100
AcDbLine
 10
280.5405166125736
 20
123.8975522402032
 30
0.0
 11
280.5405166125736
 21
113.8975522402032
 31
0.0
  0
LINE
  5
91DA
330
37
100
AcDbEntity
  8
0
100
AcDbLine
 10
279.7905166125736
 20
113.8975522402032
 30
0.0
 11
292.7905166125736
 21
113.8975522402032
 31
0.0
1001
GENIUS_GENREC_14
1002
{
1000
PYDIR
1011
279.7905166125736
1021
123.8975522402032
1031
0.0
1002
}
1002
{
1000
PXDIR
1011
292.7905166125736
1021
113.8975522402032
1031
0.0
1002
}
1002
{
1000
PORI
1011
279.7905166125736
1021
113.8975522402032
1031
0.0
1002
}
1002
{
1000
PINS
1011
279.7905166125736
1021
113.8975522402032
1031
0.0
1002
}
1002
{
1000
HVAL
1000
10
1002
}
1002
{
1000
H
1070
     2
1002
}
1002
{
1000
WVAL
1000
13
1002
}
1002
{
1000
W
1070
     2
1002
}
1002
{
1000
C
1070
     1
1002
}
1001
GENIUS_GENOBJ-N-REC_13
1002
{
1000
OWNER
1000
GEN
1002
}
1001
GENIUS_GENODEF_13
1002
{
1000
HIER
1070
     0
1002
}
1002
{
1000
MANEDIT
1070
     0
1002
}
1002
{
1000
NOSEL
1070
     0
1002
}
1002
{
1000
BEHIND
1070
     0
1002
}
1002
{
1000
OTHER
1070
     0
1002
}
1002
{
1000
REACTOR
1002
}
  0
LINE
  5
91DB
330
37
100
AcDbEntity
  8
0
100
AcDbLine
 10
292.7905166125736
 20
113.8975522402032
 30
0.0
 11
292.7905166125736
 21
123.8975522402032
 31
0.0
1001
GENIUS_GENREC_14
1002
{
1000
PYDIR
1011
279.7905166125736
1021
123.8975522402032
1031
0.0
1002
}
1002
{
1000
PXDIR
1011
292.7905166125736
1021
113.8975522402032
1031
0.0
1002
}
1002
{
1000
PORI
1011
279.7905166125736
1021
113.8975522402032
1031
0.0
1002
}
1002
{
1000
PINS
1011
279.7905166125736
1021
113.8975522402032
1031
0.0
1002
}
1002
{
1000
HVAL
1000
10
1002
}
1002
{
1000
H
1070
     2
1002
}
1002
{
1000
WVAL
1000
13
1002
}
1002
{
1000
W
1070
     2
1002
}
1002
{
1000
C
1070
     1
1002
}
1001
GENIUS_GENOBJ-N-REC_13
1002
{
1000
OWNER
1000
GEN
1002
}
1001
GENIUS_GENODEF_13
1002
{
1000
HIER
1070
     0
1002
}
1002
{
1000
MANEDIT
1070
     0
1002
}
1002
{
1000
NOSEL
1070
     0
1002
}
1002
{
1000
BEHIND
1070
     0
1002
}
1002
{
1000
OTHER
1070
     0
1002
}
1002
{
1000
REACTOR
1002
}
  0
LINE
  5
91DC
330
37
100
AcDbEntity
  8
0
100
AcDbLine
 10
292.7905166125736
 20
123.8975522402032
 30
0.0
 11
279.7905166125736
 21
123.8975522402032
 31
0.0
1001
GENIUS_GENREC_14
1002
{
1000
PYDIR
1011
279.7905166125736
1021
123.8975522402032
1031
0.0
1002
}
1002
{
1000
PXDIR
1011
292.7905166125736
1021
113.8975522402032
1031
0.0
1002
}
1002
{
1000
PORI
1011
279.7905166125736
1021
113.8975522402032
1031
0.0
1002
}
1002
{
1000
PINS
1011
279.7905166125736
1021
113.8975522402032
1031
0.0
1002
}
1002
{
1000
HVAL
1000
10
1002
}
1002
{
1000
H
1070
     2
1002
}
1002
{
1000
WVAL
1000
13
1002
}
1002
{
1000
W
1070
     2
1002
}
1002
{
1000
C
1070
     1
1002
}
1001
GENIUS_GENOBJ-N-REC_13
1002
{
1000
OWNER
1000
GEN
1002
}
1001
GENIUS_GENODEF_13
1002
{
1000
HIER
1070
     0
1002
}
1002
{
1000
MANEDIT
1070
     0
1002
}
1002
{
1000
NOSEL
1070
     0
1002
}
1002
{
1000
BEHIND
1070
     0
1002
}
1002
{
1000
OTHER
1070
     0
1002
}
1002
{
1000
REACTOR
1002
}
  0
LINE
  5
91DD
330
37
100
AcDbEntity
  8
0
100
AcDbLine
 10
279.7905166125736
 20
123.8975522402032
 30
0.0
 11
279.7905166125736
 21
113.8975522402032
 31
0.0
1001
GENIUS_GENREC_14
1002
{
1000
PYDIR
1011
279.7905166125736
1021
123.8975522402032
1031
0.0
1002
}
1002
{
1000
PXDIR
1011
292.7905166125736
1021
113.8975522402032
1031
0.0
1002
}
1002
{
1000
PORI
1011
279.7905166125736
1021
113.8975522402032
1031
0.0
1002
}
1002
{
1000
PINS
1011
279.7905166125736
1021
113.8975522402032
1031
0.0
1002
}
1002
{
1000
HVAL
1000
10
1002
}
1002
{
1000
H
1070
     2
1002
}
1002
{
1000
WVAL
1000
13
1002
}
1002
{
1000
W
1070
     2
1002
}
1002
{
1000
C
1070
     1
1002
}
1001
GENIUS_GENOBJ-N-REC_13
1002
{
1000
OWNER
1000
GEN
1002
}
1001
GENIUS_GENODEF_13
1002
{
1000
HIER
1070
     0
1002
}
1002
{
1000
MANEDIT
1070
     0
1002
}
1002
{
1000
NOSEL
1070
     0
1002
}
1002
{
1000
BEHIND
1070
     0
1002
}
1002
{
1000
OTHER
1070
     0
1002
}
1002
{
1000
REACTOR
1002
}
  0
LINE
  5
91DE
330
37
100
AcDbEntity
  8
0
100
AcDbLine
 10
280.7905166125736
 20
113.8975522402032
 30
0.0
 11
280.7905166125736
 21
108.8975522402032
 31
0.0
  0
LINE
  5
91DF
330
37
100
AcDbEntity
  8
0
100
AcDbLine
 10
280.7905166125736
 20
108.8975522402032
 30
0.0
 11
291.7905166125736
 21
108.8975522402032
 31
0.0
  0
LINE
  5
91E0
330
37
100
AcDbEntity
  8
0
100
AcDbLine
 10
291.7905166125736
 20
108.8975522402032
 30
0.0
 11
291.7905166125736
 21
113.8975522402032
 31
0.0
  0
LINE
  5
91E1
330
37
100
AcDbEntity
  8
弱線
100
AcDbLine
 10
82.04051661257357
 20
123.8975522402032
 30
0.0
 11
82.04051661257357
 21
113.8975522402032
 31
0.0
  0
LINE
  5
91E2
330
37
100
AcDbEntity
  8
弱線
100
AcDbLine
 10
70.54051661257357
 20
123.8975522402032
 30
0.0
 11
70.54051661257357
 21
113.8975522402032
 31
0.0
  0
LINE
  5
91E3
330
37
100
AcDbEntity
  8
0
100
AcDbLine
 10
69.79051661257357
 20
113.8975522402032
 30
0.0
 11
82.7905166125736
 21
113.8975522402032
 31
0.0
1001
GENIUS_GENREC_14
1002
{
1000
PYDIR
1011
69.79051661257357
1021
123.8975522402032
1031
0.0
1002
}
1002
{
1000
PXDIR
1011
82.7905166125736
1021
113.8975522402032
1031
0.0
1002
}
1002
{
1000
PORI
1011
69.79051661257357
1021
113.8975522402032
1031
0.0
1002
}
1002
{
1000
PINS
1011
69.79051661257357
1021
113.8975522402032
1031
0.0
1002
}
1002
{
1000
HVAL
1000
10
1002
}
1002
{
1000
H
1070
     2
1002
}
1002
{
1000
WVAL
1000
13
1002
}
1002
{
1000
W
1070
     2
1002
}
1002
{
1000
C
1070
     1
1002
}
1001
GENIUS_GENOBJ-N-REC_13
1002
{
1000
OWNER
1000
GEN
1002
}
1001
GENIUS_GENODEF_13
1002
{
1000
HIER
1070
     0
1002
}
1002
{
1000
MANEDIT
1070
     0
1002
}
1002
{
1000
NOSEL
1070
     0
1002
}
1002
{
1000
BEHIND
1070
     0
1002
}
1002
{
1000
OTHER
1070
     0
1002
}
1002
{
1000
REACTOR
1002
}
  0
LINE
  5
91E4
330
37
100
AcDbEntity
  8
0
100
AcDbLine
 10
82.7905166125736
 20
113.8975522402032
 30
0.0
 11
82.7905166125736
 21
123.8975522402032
 31
0.0
1001
GENIUS_GENREC_14
1002
{
1000
PYDIR
1011
69.79051661257357
1021
123.8975522402032
1031
0.0
1002
}
1002
{
1000
PXDIR
1011
82.7905166125736
1021
113.8975522402032
1031
0.0
1002
}
1002
{
1000
PORI
1011
69.79051661257357
1021
113.8975522402032
1031
0.0
1002
}
1002
{
1000
PINS
1011
69.79051661257357
1021
113.8975522402032
1031
0.0
1002
}
1002
{
1000
HVAL
1000
10
1002
}
1002
{
1000
H
1070
     2
1002
}
1002
{
1000
WVAL
1000
13
1002
}
1002
{
1000
W
1070
     2
1002
}
1002
{
1000
C
1070
     1
1002
}
1001
GENIUS_GENOBJ-N-REC_13
1002
{
1000
OWNER
1000
GEN
1002
}
1001
GENIUS_GENODEF_13
1002
{
1000
HIER
1070
     0
1002
}
1002
{
1000
MANEDIT
1070
     0
1002
}
1002
{
1000
NOSEL
1070
     0
1002
}
1002
{
1000
BEHIND
1070
     0
1002
}
1002
{
1000
OTHER
1070
     0
1002
}
1002
{
1000
REACTOR
1002
}
  0
LINE
  5
91E5
330
37
100
AcDbEntity
  8
0
100
AcDbLine
 10
82.7905166125736
 20
123.8975522402032
 30
0.0
 11
69.79051661257357
 21
123.8975522402032
 31
0.0
1001
GENIUS_GENREC_14
1002
{
1000
PYDIR
1011
69.79051661257357
1021
123.8975522402032
1031
0.0
1002
}
1002
{
1000
PXDIR
1011
82.7905166125736
1021
113.8975522402032
1031
0.0
1002
}
1002
{
1000
PORI
1011
69.79051661257357
1021
113.8975522402032
1031
0.0
1002
}
1002
{
1000
PINS
1011
69.79051661257357
1021
113.8975522402032
1031
0.0
1002
}
1002
{
1000
HVAL
1000
10
1002
}
1002
{
1000
H
1070
     2
1002
}
1002
{
1000
WVAL
1000
13
1002
}
1002
{
1000
W
1070
     2
1002
}
1002
{
1000
C
1070
     1
1002
}
1001
GENIUS_GENOBJ-N-REC_13
1002
{
1000
OWNER
1000
GEN
1002
}
1001
GENIUS_GENODEF_13
1002
{
1000
HIER
1070
     0
1002
}
1002
{
1000
MANEDIT
1070
     0
1002
}
1002
{
1000
NOSEL
1070
     0
1002
}
1002
{
1000
BEHIND
1070
     0
1002
}
1002
{
1000
OTHER
1070
     0
1002
}
1002
{
1000
REACTOR
1002
}
  0
LINE
  5
91E6
330
37
100
AcDbEntity
  8
0
100
AcDbLine
 10
69.79051661257357
 20
123.8975522402032
 30
0.0
 11
69.79051661257357
 21
113.8975522402032
 31
0.0
1001
GENIUS_GENREC_14
1002
{
1000
PYDIR
1011
69.79051661257357
1021
123.8975522402032
1031
0.0
1002
}
1002
{
1000
PXDIR
1011
82.7905166125736
1021
113.8975522402032
1031
0.0
1002
}
1002
{
1000
PORI
1011
69.79051661257357
1021
113.8975522402032
1031
0.0
1002
}
1002
{
1000
PINS
1011
69.79051661257357
1021
113.8975522402032
1031
0.0
1002
}
1002
{
1000
HVAL
1000
10
1002
}
1002
{
1000
H
1070
     2
1002
}
1002
{
1000
WVAL
1000
13
1002
}
1002
{
1000
W
1070
     2
1002
}
1002
{
1000
C
1070
     1
1002
}
1001
GENIUS_GENOBJ-N-REC_13
1002
{
1000
OWNER
1000
GEN
1002
}
1001
GENIUS_GENODEF_13
1002
{
1000
HIER
1070
     0
1002
}
1002
{
1000
MANEDIT
1070
     0
1002
}
1002
{
1000
NOSEL
1070
     0
1002
}
1002
{
1000
BEHIND
1070
     0
1002
}
1002
{
1000
OTHER
1070
     0
1002
}
1002
{
1000
REACTOR
1002
}
  0
LINE
  5
91E7
330
37
100
AcDbEntity
  8
0
100
AcDbLine
 10
70.79051661257357
 20
113.8975522402032
 30
0.0
 11
70.79051661257357
 21
108.8975522402032
 31
0.0
  0
LINE
  5
91E8
330
37
100
AcDbEntity
  8
0
100
AcDbLine
 10
70.79051661257357
 20
108.8975522402032
 30
0.0
 11
81.79051661257359
 21
108.8975522402032
 31
0.0
  0
LINE
  5
91E9
330
37
100
AcDbEntity
  8
0
100
AcDbLine
 10
81.79051661257359
 20
108.8975522402032
 30
0.0
 11
81.79051661257359
 21
113.8975522402032
 31
0.0
  0
LINE
  5
91EA
330
37
100
AcDbEntity
  8
0
100
AcDbLine
 10
801.4469324522677
 20
108.8975522402032
 30
0.0
 11
801.4469324522677
 21
51.89755224020321
 31
0.0
  0
LINE
  5
91EB
330
37
100
AcDbEntity
  8
0
100
AcDbLine
 10
801.4469324522677
 20
51.89755224020321
 30
0.0
 11
798.4469324522676
 21
48.89755224020321
 31
0.0
  0
LINE
  5
91EC
330
37
100
AcDbEntity
  8
0
100
AcDbLine
 10
798.4469324522676
 20
48.89755224020321
 30
0.0
 11
484.4469324522676
 21
48.89755224020321
 31
0.0
  0
LINE
  5
91ED
330
37
100
AcDbEntity
  8
0
100
AcDbLine
 10
484.4469324522676
 20
48.89755224020321
 30
0.0
 11
481.4469324522677
 21
51.89755224020321
 31
0.0
  0
LINE
  5
91EE
330
37
100
AcDbEntity
  8
0
100
AcDbLine
 10
481.4469324522677
 20
51.89755224020321
 30
0.0
 11
481.4469324522677
 21
99.39755224014501
 31
0.0
  0
LINE
  5
91EF
330
37
100
AcDbEntity
  8
0
100
AcDbLine
 10
481.4469324522677
 20
99.39755224014501
 30
0.0
 11
484.4469324522385
 21
108.8975522402032
 31
0.0
  0
LINE
  5
91F0
330
37
100
AcDbEntity
  8
0
100
AcDbLine
 10
484.4469324522385
 20
108.8975522402032
 30
0.0
 11
801.4469324522677
 21
108.8975522402032
 31
0.0
  0
LINE
  5
91F1
330
37
100
AcDbEntity
  8
0
100
AcDbLine
 10
771.4469324522674
 20
108.8975522402032
 30
0.0
 11
771.4469324521801
 21
99.39755224014501
 31
0.0
  0
LINE
  5
91F2
330
37
100
AcDbEntity
  8
0
100
AcDbLine
 10
771.4469324521801
 20
99.39755224014501
 30
0.0
 11
481.4469324522677
 21
99.39755224014501
 31
0.0
  0
LINE
  5
91F3
330
37
100
AcDbEntity
  8
0
100
AcDbLine
 10
760.9469324522676
 20
38.89755224020321
 30
0.0
 11
781.9469324522676
 21
38.89755224020321
 31
0.0
1001
GENIUS_GENREC_14
1002
{
1000
PYDIR
1011
760.9469324522676
1021
48.89755224020321
1031
0.0
1002
}
1002
{
1000
PXDIR
1011
781.9469324522676
1021
38.89755224020321
1031
0.0
1002
}
1002
{
1000
PORI
1011
760.9469324522676
1021
38.89755224020321
1031
0.0
1002
}
1002
{
1000
PINS
1011
771.4469324522674
1021
38.89755224020321
1031
0.0
1002
}
1002
{
1000
HVAL
1000
10
1002
}
1002
{
1000
H
1070
     2
1002
}
1002
{
1000
WVAL
1000
21
1002
}
1002
{
1000
W
1070
     2
1002
}
1002
{
1000
C
1070
     2
1002
}
1001
GENIUS_GENOBJ-N-REC_13
1002
{
1000
OWNER
1000
GEN
1002
}
1001
GENIUS_GENODEF_13
1002
{
1000
HIER
1070
     0
1002
}
1002
{
1000
MANEDIT
1070
     0
1002
}
1002
{
1000
NOSEL
1070
     0
1002
}
1002
{
1000
BEHIND
1070
     0
1002
}
1002
{
1000
OTHER
1070
     0
1002
}
1002
{
1000
REACTOR
1002
}
  0
LINE
  5
91F4
330
37
100
AcDbEntity
  8
0
100
AcDbLine
 10
781.9469324522676
 20
38.89755224020321
 30
0.0
 11
781.9469324522676
 21
48.89755224020321
 31
0.0
1001
GENIUS_GENREC_14
1002
{
1000
PYDIR
1011
760.9469324522676
1021
48.89755224020321
1031
0.0
1002
}
1002
{
1000
PXDIR
1011
781.9469324522676
1021
38.89755224020321
1031
0.0
1002
}
1002
{
1000
PORI
1011
760.9469324522676
1021
38.89755224020321
1031
0.0
1002
}
1002
{
1000
PINS
1011
771.4469324522674
1021
38.89755224020321
1031
0.0
1002
}
1002
{
1000
HVAL
1000
10
1002
}
1002
{
1000
H
1070
     2
1002
}
1002
{
1000
WVAL
1000
21
1002
}
1002
{
1000
W
1070
     2
1002
}
1002
{
1000
C
1070
     2
1002
}
1001
GENIUS_GENOBJ-N-REC_13
1002
{
1000
OWNER
1000
GEN
1002
}
1001
GENIUS_GENODEF_13
1002
{
1000
HIER
1070
     0
1002
}
1002
{
1000
MANEDIT
1070
     0
1002
}
1002
{
1000
NOSEL
1070
     0
1002
}
1002
{
1000
BEHIND
1070
     0
1002
}
1002
{
1000
OTHER
1070
     0
1002
}
1002
{
1000
REACTOR
1002
}
  0
LINE
  5
91F5
330
37
100
AcDbEntity
  8
0
100
AcDbLine
 10
781.9469324522676
 20
48.89755224020321
 30
0.0
 11
760.9469324522676
 21
48.89755224020321
 31
0.0
1001
GENIUS_GENREC_14
1002
{
1000
PYDIR
1011
760.9469324522676
1021
48.89755224020321
1031
0.0
1002
}
1002
{
1000
PXDIR
1011
781.9469324522676
1021
38.89755224020321
1031
0.0
1002
}
1002
{
1000
PORI
1011
760.9469324522676
1021
38.89755224020321
1031
0.0
1002
}
1002
{
1000
PINS
1011
771.4469324522674
1021
38.89755224020321
1031
0.0
1002
}
1002
{
1000
HVAL
1000
10
1002
}
1002
{
1000
H
1070
     2
1002
}
1002
{
1000
WVAL
1000
21
1002
}
1002
{
1000
W
1070
     2
1002
}
1002
{
1000
C
1070
     2
1002
}
1001
GENIUS_GENOBJ-N-REC_13
1002
{
1000
OWNER
1000
GEN
1002
}
1001
GENIUS_GENODEF_13
1002
{
1000
HIER
1070
     0
1002
}
1002
{
1000
MANEDIT
1070
     0
1002
}
1002
{
1000
NOSEL
1070
     0
1002
}
1002
{
1000
BEHIND
1070
     0
1002
}
1002
{
1000
OTHER
1070
     0
1002
}
1002
{
1000
REACTOR
1002
}
  0
LINE
  5
91F6
330
37
100
AcDbEntity
  8
0
100
AcDbLine
 10
760.9469324522676
 20
48.89755224020321
 30
0.0
 11
760.9469324522676
 21
38.89755224020321
 31
0.0
1001
GENIUS_GENREC_14
1002
{
1000
PYDIR
1011
760.9469324522676
1021
48.89755224020321
1031
0.0
1002
}
1002
{
1000
PXDIR
1011
781.9469324522676
1021
38.89755224020321
1031
0.0
1002
}
1002
{
1000
PORI
1011
760.9469324522676
1021
38.89755224020321
1031
0.0
1002
}
1002
{
1000
PINS
1011
771.4469324522674
1021
38.89755224020321
1031
0.0
1002
}
1002
{
1000
HVAL
1000
10
1002
}
1002
{
1000
H
1070
     2
1002
}
1002
{
1000
WVAL
1000
21
1002
}
1002
{
1000
W
1070
     2
1002
}
1002
{
1000
C
1070
     2
1002
}
1001
GENIUS_GENOBJ-N-REC_13
1002
{
1000
OWNER
1000
GEN
1002
}
1001
GENIUS_GENODEF_13
1002
{
1000
HIER
1070
     0
1002
}
1002
{
1000
MANEDIT
1070
     0
1002
}
1002
{
1000
NOSEL
1070
     0
1002
}
1002
{
1000
BEHIND
1070
     0
1002
}
1002
{
1000
OTHER
1070
     0
1002
}
1002
{
1000
REACTOR
1002
}
  0
LINE
  5
91F7
330
37
100
AcDbEntity
  8
0
100
AcDbLine
 10
500.9469324522676
 20
43.89755224020321
 30
0.0
 11
521.9469324522675
 21
43.89755224020321
 31
0.0
1001
GENIUS_GENREC_14
1002
{
1000
PYDIR
1011
500.9469324522676
1021
48.89755224020321
1031
0.0
1002
}
1002
{
1000
PXDIR
1011
521.9469324522675
1021
43.89755224020321
1031
0.0
1002
}
1002
{
1000
PORI
1011
500.9469324522676
1021
43.89755224020321
1031
0.0
1002
}
1002
{
1000
PINS
1011
511.4469324522675
1021
43.89755224020321
1031
0.0
1002
}
1002
{
1000
HVAL
1000
5
1002
}
1002
{
1000
H
1070
     2
1002
}
1002
{
1000
WVAL
1000
21
1002
}
1002
{
1000
W
1070
     2
1002
}
1002
{
1000
C
1070
     2
1002
}
1001
GENIUS_GENODEF_13
1002
{
1000
HIER
1070
     0
1002
}
1002
{
1000
MANEDIT
1070
     0
1002
}
1002
{
1000
NOSEL
1070
     0
1002
}
1002
{
1000
BEHIND
1070
     0
1002
}
1002
{
1000
OTHER
1070
     0
1002
}
1002
{
1000
REACTOR
1002
}
1001
GENIUS_GENOBJ-N-REC_13
1002
{
1000
OWNER
1000
GEN
1002
}
  0
LINE
  5
91F8
330
37
100
AcDbEntity
  8
0
100
AcDbLine
 10
521.9469324522675
 20
43.89755224020321
 30
0.0
 11
521.9469324522675
 21
48.89755224020321
 31
0.0
1001
GENIUS_GENREC_14
1002
{
1000
PYDIR
1011
500.9469324522676
1021
48.89755224020321
1031
0.0
1002
}
1002
{
1000
PXDIR
1011
521.9469324522675
1021
43.89755224020321
1031
0.0
1002
}
1002
{
1000
PORI
1011
500.9469324522676
1021
43.89755224020321
1031
0.0
1002
}
1002
{
1000
PINS
1011
511.4469324522675
1021
43.89755224020321
1031
0.0
1002
}
1002
{
1000
HVAL
1000
5
1002
}
1002
{
1000
H
1070
     2
1002
}
1002
{
1000
WVAL
1000
21
1002
}
1002
{
1000
W
1070
     2
1002
}
1002
{
1000
C
1070
     2
1002
}
1001
GENIUS_GENODEF_13
1002
{
1000
HIER
1070
     0
1002
}
1002
{
1000
MANEDIT
1070
     0
1002
}
1002
{
1000
NOSEL
1070
     0
1002
}
1002
{
1000
BEHIND
1070
     0
1002
}
1002
{
1000
OTHER
1070
     0
1002
}
1002
{
1000
REACTOR
1002
}
1001
GENIUS_GENOBJ-N-REC_13
1002
{
1000
OWNER
1000
GEN
1002
}
  0
LINE
  5
91F9
330
37
100
AcDbEntity
  8
0
100
AcDbLine
 10
521.9469324522675
 20
48.89755224020321
 30
0.0
 11
500.9469324522676
 21
48.89755224020321
 31
0.0
1001
GENIUS_GENREC_14
1002
{
1000
PYDIR
1011
500.9469324522676
1021
48.89755224020321
1031
0.0
1002
}
1002
{
1000
PXDIR
1011
521.9469324522675
1021
43.89755224020321
1031
0.0
1002
}
1002
{
1000
PORI
1011
500.9469324522676
1021
43.89755224020321
1031
0.0
1002
}
1002
{
1000
PINS
1011
511.4469324522675
1021
43.89755224020321
1031
0.0
1002
}
1002
{
1000
HVAL
1000
5
1002
}
1002
{
1000
H
1070
     2
1002
}
1002
{
1000
WVAL
1000
21
1002
}
1002
{
1000
W
1070
     2
1002
}
1002
{
1000
C
1070
     2
1002
}
1001
GENIUS_GENODEF_13
1002
{
1000
HIER
1070
     0
1002
}
1002
{
1000
MANEDIT
1070
     0
1002
}
1002
{
1000
NOSEL
1070
     0
1002
}
1002
{
1000
BEHIND
1070
     0
1002
}
1002
{
1000
OTHER
1070
     0
1002
}
1002
{
1000
REACTOR
1002
}
1001
GENIUS_GENOBJ-N-REC_13
1002
{
1000
OWNER
1000
GEN
1002
}
  0
LINE
  5
91FA
330
37
100
AcDbEntity
  8
0
100
AcDbLine
 10
500.9469324522676
 20
48.89755224020321
 30
0.0
 11
500.9469324522676
 21
43.89755224020321
 31
0.0
1001
GENIUS_GENREC_14
1002
{
1000
PYDIR
1011
500.9469324522676
1021
48.89755224020321
1031
0.0
1002
}
1002
{
1000
PXDIR
1011
521.9469324522675
1021
43.89755224020321
1031
0.0
1002
}
1002
{
1000
PORI
1011
500.9469324522676
1021
43.89755224020321
1031
0.0
1002
}
1002
{
1000
PINS
1011
511.4469324522675
1021
43.89755224020321
1031
0.0
1002
}
1002
{
1000
HVAL
1000
5
1002
}
1002
{
1000
H
1070
     2
1002
}
1002
{
1000
WVAL
1000
21
1002
}
1002
{
1000
W
1070
     2
1002
}
1002
{
1000
C
1070
     2
1002
}
1001
GENIUS_GENODEF_13
1002
{
1000
HIER
1070
     0
1002
}
1002
{
1000
MANEDIT
1070
     0
1002
}
1002
{
1000
NOSEL
1070
     0
1002
}
1002
{
1000
BEHIND
1070
     0
1002
}
1002
{
1000
OTHER
1070
     0
1002
}
1002
{
1000
REACTOR
1002
}
1001
GENIUS_GENOBJ-N-REC_13
1002
{
1000
OWNER
1000
GEN
1002
}
  0
LINE
  5
91FB
330
37
100
AcDbEntity
  8
弱線
100
AcDbLine
 10
792.1969324522676
 20
123.8975522402032
 30
0.0
 11
792.1969324522676
 21
113.8975522402032
 31
0.0
  0
LINE
  5
91FC
330
37
100
AcDbEntity
  8
弱線
100
AcDbLine
 10
780.6969324522675
 20
123.8975522402032
 30
0.0
 11
780.6969324522675
 21
113.8975522402032
 31
0.0
  0
LINE
  5
91FD
330
37
100
AcDbEntity
  8
0
100
AcDbLine
 10
779.9469324522674
 20
113.8975522402032
 30
0.0
 11
792.9469324522678
 21
113.8975522402032
 31
0.0
1001
GENIUS_GENREC_14
1002
{
1000
PYDIR
1011
779.9469324522674
1021
123.8975522402032
1031
0.0
1002
}
1002
{
1000
PXDIR
1011
792.9469324522678
1021
113.8975522402032
1031
0.0
1002
}
1002
{
1000
PORI
1011
779.9469324522674
1021
113.8975522402032
1031
0.0
1002
}
1002
{
1000
PINS
1011
779.9469324522674
1021
113.8975522402032
1031
0.0
1002
}
1002
{
1000
HVAL
1000
10
1002
}
1002
{
1000
H
1070
     2
1002
}
1002
{
1000
WVAL
1000
13
1002
}
1002
{
1000
W
1070
     2
1002
}
1002
{
1000
C
1070
     1
1002
}
1001
GENIUS_GENOBJ-N-REC_13
1002
{
1000
OWNER
1000
GEN
1002
}
1001
GENIUS_GENODEF_13
1002
{
1000
HIER
1070
     0
1002
}
1002
{
1000
MANEDIT
1070
     0
1002
}
1002
{
1000
NOSEL
1070
     0
1002
}
1002
{
1000
BEHIND
1070
     0
1002
}
1002
{
1000
OTHER
1070
     0
1002
}
1002
{
1000
REACTOR
1002
}
  0
LINE
  5
91FE
330
37
100
AcDbEntity
  8
0
100
AcDbLine
 10
792.9469324522678
 20
113.8975522402032
 30
0.0
 11
792.9469324522678
 21
123.8975522402032
 31
0.0
1001
GENIUS_GENREC_14
1002
{
1000
PYDIR
1011
779.9469324522674
1021
123.8975522402032
1031
0.0
1002
}
1002
{
1000
PXDIR
1011
792.9469324522678
1021
113.8975522402032
1031
0.0
1002
}
1002
{
1000
PORI
1011
779.9469324522674
1021
113.8975522402032
1031
0.0
1002
}
1002
{
1000
PINS
1011
779.9469324522674
1021
113.8975522402032
1031
0.0
1002
}
1002
{
1000
HVAL
1000
10
1002
}
1002
{
1000
H
1070
     2
1002
}
1002
{
1000
WVAL
1000
13
1002
}
1002
{
1000
W
1070
     2
1002
}
1002
{
1000
C
1070
     1
1002
}
1001
GENIUS_GENOBJ-N-REC_13
1002
{
1000
OWNER
1000
GEN
1002
}
1001
GENIUS_GENODEF_13
1002
{
1000
HIER
1070
     0
1002
}
1002
{
1000
MANEDIT
1070
     0
1002
}
1002
{
1000
NOSEL
1070
     0
1002
}
1002
{
1000
BEHIND
1070
     0
1002
}
1002
{
1000
OTHER
1070
     0
1002
}
1002
{
1000
REACTOR
1002
}
  0
LINE
  5
91FF
330
37
100
AcDbEntity
  8
0
100
AcDbLine
 10
792.9469324522678
 20
123.8975522402032
 30
0.0
 11
779.9469324522674
 21
123.8975522402032
 31
0.0
1001
GENIUS_GENREC_14
1002
{
1000
PYDIR
1011
779.9469324522674
1021
123.8975522402032
1031
0.0
1002
}
1002
{
1000
PXDIR
1011
792.9469324522678
1021
113.8975522402032
1031
0.0
1002
}
1002
{
1000
PORI
1011
779.9469324522674
1021
113.8975522402032
1031
0.0
1002
}
1002
{
1000
PINS
1011
779.9469324522674
1021
113.8975522402032
1031
0.0
1002
}
1002
{
1000
HVAL
1000
10
1002
}
1002
{
1000
H
1070
     2
1002
}
1002
{
1000
WVAL
1000
13
1002
}
1002
{
1000
W
1070
     2
1002
}
1002
{
1000
C
1070
     1
1002
}
1001
GENIUS_GENOBJ-N-REC_13
1002
{
1000
OWNER
1000
GEN
1002
}
1001
GENIUS_GENODEF_13
1002
{
1000
HIER
1070
     0
1002
}
1002
{
1000
MANEDIT
1070
     0
1002
}
1002
{
1000
NOSEL
1070
     0
1002
}
1002
{
1000
BEHIND
1070
     0
1002
}
1002
{
1000
OTHER
1070
     0
1002
}
1002
{
1000
REACTOR
1002
}
  0
LINE
  5
9200
330
37
100
AcDbEntity
  8
0
100
AcDbLine
 10
779.9469324522674
 20
123.8975522402032
 30
0.0
 11
779.9469324522674
 21
113.8975522402032
 31
0.0
1001
GENIUS_GENREC_14
1002
{
1000
PYDIR
1011
779.9469324522674
1021
123.8975522402032
1031
0.0
1002
}
1002
{
1000
PXDIR
1011
792.9469324522678
1021
113.8975522402032
1031
0.0
1002
}
1002
{
1000
PORI
1011
779.9469324522674
1021
113.8975522402032
1031
0.0
1002
}
1002
{
1000
PINS
1011
779.9469324522674
1021
113.8975522402032
1031
0.0
1002
}
1002
{
1000
HVAL
1000
10
1002
}
1002
{
1000
H
1070
     2
1002
}
1002
{
1000
WVAL
1000
13
1002
}
1002
{
1000
W
1070
     2
1002
}
1002
{
1000
C
1070
     1
1002
}
1001
GENIUS_GENOBJ-N-REC_13
1002
{
1000
OWNER
1000
GEN
1002
}
1001
GENIUS_GENODEF_13
1002
{
1000
HIER
1070
     0
1002
}
1002
{
1000
MANEDIT
1070
     0
1002
}
1002
{
1000
NOSEL
1070
     0
1002
}
1002
{
1000
BEHIND
1070
     0
1002
}
1002
{
1000
OTHER
1070
     0
1002
}
1002
{
1000
REACTOR
1002
}
  0
LINE
  5
9201
330
37
100
AcDbEntity
  8
0
100
AcDbLine
 10
780.9469324522678
 20
113.8975522402032
 30
0.0
 11
780.9469324522678
 21
108.8975522402032
 31
0.0
  0
LINE
  5
9202
330
37
100
AcDbEntity
  8
0
100
AcDbLine
 10
780.9469324522678
 20
108.8975522402032
 30
0.0
 11
791.9469324522674
 21
108.8975522402032
 31
0.0
  0
LINE
  5
9203
330
37
100
AcDbEntity
  8
0
100
AcDbLine
 10
791.9469324522674
 20
108.8975522402032
 30
0.0
 11
791.9469324522674
 21
113.8975522402032
 31
0.0
  0
INSERT
  5
9B61
330
37
100
AcDbEntity
  8
0
100
AcDbBlockReference
  2
A$C741E39E2
 10
61.29051661257356
 20
108.8975522402032
 30
0.0
 41
5.0
 42
5.0
 43
5.0
  0
ENDSEC
  0
SECTION
  2
OBJECTS
  0
DICTIONARY
  5
C
330
0
100
AcDbDictionary
281
     1
  3
ACAD_2007HEADERVARS_RT
350
9D77
  3
ACAD_CIP_PREVIOUS_PRODUCT_INFO
350
8F21
  3
ACAD_COLOR
350
30
  3
ACAD_DETAILVIEWSTYLE
350
8F14
  3
ACAD_FIELDLIST
350
90BD
  3
ACAD_GROUP
350
D
  3
ACAD_LAYOUT
350
2F
  3
ACAD_MATERIAL
350
10
  3
ACAD_MLEADERSTYLE
350
1757
  3
ACAD_MLINESTYLE
350
2C
  3
ACAD_PLOTSETTINGS
350
2E
  3
ACAD_PLOTSTYLENAME
350
E
  3
ACAD_SCALELIST
350
1735
  3
ACAD_SECTIONVIEWSTYLE
350
8F12
  3
ACAD_TABLESTYLE
350
31
  3
ACAD_VISUALSTYLE
350
14
  3
ACDB_RECOMPOSE_DATA
350
9D75
  3
AcDbVariableDictionary
350
454
  3
AcmDictionary
350
9F
  3
AEC_PROPERTY_SET_DEFS
350
6DDB
  3
AMG
350
42
  3
AMGSNAPSETTINGS
350
125
  3
ASE_INDEX_DICTIONARY
350
8BAC
  3
DWGPROPS
350
9D76
  0
DICTIONARY
  5
104
330
2
100
AcDbDictionary
280
     1
281
     1
  3
ACAD_LAYERFILTERS
360
72F8
  3
ACAD_LAYERSTATES
360
105
  3
ACLYDICTIONARY
360
72F7
  3
AMLAYER_GROUPCOLORS
360
1956
  0
DICTIONARY
  5
2025
330
25
100
AcDbDictionary
280
     1
281
     1
  3
ADSK_XREC_LAYER_RECONCILED
360
7174
  0
DICTIONARY
  5
52A3
330
52A2
100
AcDbDictionary
280
     1
281
     1
  3
ADSK_XREC_LAYER_RECONCILED
360
7175
  0
DICTIONARY
  5
52A9
330
52A8
100
AcDbDictionary
280
     1
281
     1
  3
ADSK_XREC_LAYER_RECONCILED
360
7177
  0
DICTIONARY
  5
52AD
330
52AC
100
AcDbDictionary
280
     1
281
     1
  3
ADSK_XREC_LAYER_RECONCILED
360
7178
  0
DICTIONARY
  5
4874
330
4873
100
AcDbDictionary
280
     1
281
     1
  3
ADSK_XREC_VTR_ANNOSCALE_DATA
360
4875
  3
ADSK_XREC_VTRVIEWINFO
360
4877
  0
DICTIONARY
  5
946
330
37
100
AcDbDictionary
280
     1
281
     1
  3
ACAD_SORTENTS
360
947
  0
DICTIONARY
  5
9B5D
330
9B0B
100
AcDbDictionary
280
     1
281
     1
  3
ACAD_SORTENTS
360
9D72
  0
DICTIONARY
  5
9D77
102
{ACAD_REACTORS
330
C
102
}
330
C
100
AcDbDictionary
281
     1
  3
DIMARCSYM
350
9D78
  3
INTERFEREVPVS
350
9D79
  0
XRECORD
  5
8F21
102
{ACAD_REACTORS
330
C
102
}
330
C
100
AcDbXrecord
280
     1
300
AMECH_PP
300
2014
300
PDSP_F_S
  0
DICTIONARY
  5
30
102
{ACAD_REACTORS
330
C
102
}
330
C
100
AcDbDictionary
281
     1
  0
DICTIONARY
  5
8F14
102
{ACAD_REACTORS
330
C
102
}
330
C
100
AcDbDictionary
281
     1
  3
Imperial24
350
90F8
  3
Metric50
350
8F15
  0
FIELDLIST
  5
90BD
102
{ACAD_REACTORS
330
C
102
}
330
C
100
AcDbIdSet
 90
        3
330
9CC0
330
9CC1
330
9CC2
100
AcDbFieldList
  0
DICTIONARY
  5
D
102
{ACAD_REACTORS
330
C
102
}
330
C
100
AcDbDictionary
281
     1
  0
DICTIONARY
  5
2F
102
{ACAD_REACTORS
330
C
102
}
330
C
100
AcDbDictionary
281
     1
  3
Model
350
3A
  3
レイアウト1
350
9B63
  0
DICTIONARY
  5
10
102
{ACAD_REACTORS
330
C
102
}
330
C
100
AcDbDictionary
281
     1
  3
ByBlock
350
12
  3
ByLayer
350
11
  3
Global
350
13
  0
DICTIONARY
  5
1757
102
{ACAD_REACTORS
330
C
102
}
330
C
100
AcDbDictionary
281
     1
  3
Standard
350
1758
  0
DICTIONARY
  5
2C
102
{ACAD_REACTORS
330
C
102
}
330
C
100
AcDbDictionary
281
     1
  3
Standard
350
2D
  0
DICTIONARY
  5
2E
102
{ACAD_REACTORS
330
C
102
}
330
C
100
AcDbDictionary
281
     1
  3
PDF-A4
350
8B72
  0
ACDBDICTIONARYWDFLT
  5
E
102
{ACAD_REACTORS
330
C
102
}
330
C
100
AcDbDictionary
281
     1
  3
Normal
350
F
100
AcDbDictionaryWithDefault
340
F
  0
DICTIONARY
  5
1735
102
{ACAD_REACTORS
330
C
102
}
330
C
100
AcDbDictionary
281
     1
  3
A0
350
1736
  3
A1
350
523E
  3
A2
350
8F24
  3
A3
350
8F25
  3
A4
350
8F26
  3
A5
350
8F27
  3
A6
350
8F28
  3
A7
350
8F29
  3
A8
350
8F2A
  3
A9
350
8F2B
  3
B0
350
8F2C
  3
B1
350
8F2D
  3
B2
350
8F2E
  3
B3
350
8F2F
  3
B4
350
8F30
  3
B5
350
8F31
  3
B6
350
8F32
  0
DICTIONARY
  5
8F12
102
{ACAD_REACTORS
330
C
102
}
330
C
100
AcDbDictionary
281
     1
  3
Imperial24
350
90F6
  3
Metric50
350
8F13
  0
DICTIONARY
  5
31
102
{ACAD_REACTORS
330
C
102
}
330
C
100
AcDbDictionary
281
     1
  3
Standard
350
32
  0
DICTIONARY
  5
14
102
{ACAD_REACTORS
330
C
102
}
330
C
100
AcDbDictionary
281
     1
  3
2dWireframe
350
1A
  3
3D Hidden
350
1C
  3
3dWireframe
350
1B
  3
Basic
350
19
  3
Brighten
350
20
  3
ColorChange
350
24
  3
Conceptual
350
1D
  3
Dim
350
1F
  3
EdgeColorOff
350
8F11
  3
Facepattern
350
23
  3
Flat
350
15
  3
FlatWithEdges
350
16
  3
Gouraud
350
17
  3
GouraudWithEdges
350
18
  3
Hidden
350
8F09
  3
JitterOff
350
8F0F
  3
Linepattern
350
22
  3
OverhangOff
350
8F10
  3
Realistic
350
1E
  3
Shaded
350
8F0E
  3
Shaded with edges
350
8F0D
  3
Shades of Gray
350
8F0A
  3
Sketchy
350
8F0B
  3
Thicken
350
21
  3
Wireframe
350
8F08
  3
X-Ray
350
8F0C
  0
XRECORD
  5
9D75
102
{ACAD_REACTORS
330
C
102
}
330
C
100
AcDbXrecord
280
     1
 90
        1
330
32
  0
DICTIONARY
  5
454
102
{ACAD_REACTORS
330
C
102
}
330
C
100
AcDbDictionary
281
     1
  3
CANNOSCALE
350
177F
  3
CMLEADERSTYLE
350
177D
  3
CTABLESTYLE
350
455
  3
CVIEWDETAILSTYLE
350
8F5E
  3
CVIEWSECTIONSTYLE
350
8F5F
  3
DIMASSOC
350
9B6D
  3
HIDETEXT
350
9B6B
  3
INDEXCTL
350
9B6A
  3
LAYEREVAL
350
8F60
  3
LAYERNOTIFY
350
8F61
  3
LIGHTINGUNITS
350
1780
  3
MSLTSCALE
350
177E
  3
SOLIDHIST
350
9B6E
  3
SORTENTS
350
9B69
  3
XCLIPFRAME
350
9D73
  0
DICTIONARY
  5
9F
102
{ACAD_REACTORS
330
C
102
}
330
C
100
AcDbDictionary
281
     1
  3
AcmStdDictionary
350
A1
  3
AMDTSECTSYM_ARROWCOLOR
350
C1
  0
DICTIONARY
  5
6DDB
102
{ACAD_REACTORS
330
C
102
}
330
C
100
AcDbDictionary
281
     1
  0
DICTIONARY
  5
42
102
{ACAD_REACTORS
330
C
102
}
330
C
100
AcDbDictionary
281
     1
  0
DICTIONARY
  5
125
102
{ACAD_REACTORS
330
C
102
}
330
C
100
AcDbDictionary
281
     1
  0
DICTIONARY
  5
8BAC
102
{ACAD_REACTORS
330
C
102
}
330
C
100
AcDbDictionary
281
     1
  3
ASEBlockHierarchyIndexRecord
350
8BAD
1001
DCO15
1040
1755938436.573
  0
XRECORD
  5
9D76
102
{ACAD_REACTORS
330
C
102
}
330
C
100
AcDbXrecord
280
     1
  1
DWGPROPS COOKIE
  2

  3

  4

  6

  7

  8
HONPC031
  9

300
=
301
=
302
=
303
=
304
=
305
=
306
=
307
=
308
=
309
=
 40
0.5631758217592593
 41
2455601.773382338
 42
2456678.48622007
  1

 90
        0
  0
DICTIONARY
  5
72F8
102
{ACAD_REACTORS
330
104
102
}
330
104
100
AcDbDictionary
281
     1
  0
DICTIONARY
  5
105
102
{ACAD_REACTORS
330
104
102
}
330
104
100
AcDbDictionary
281
     1
  3
ACAD_VIEWS_セッティングイメージ
350
4878
  0
DICTIONARY
  5
72F7
102
{ACAD_REACTORS
330
104
102
}
330
104
100
AcDbDictionary
281
     1
1001
ACAD
1000
<All
  0
DICTIONARY
  5
1956
102
{ACAD_REACTORS
330
104
102
}
330
104
100
AcDbDictionary
280
     1
281
     1
  0
XRECORD
  5
7174
102
{ACAD_REACTORS
330
2025
102
}
330
2025
100
AcDbXrecord
280
     1
290
     1
  0
XRECORD
  5
7175
102
{ACAD_REACTORS
330
52A3
102
}
330
52A3
100
AcDbXrecord
280
     1
290
     1
  0
XRECORD
  5
7177
102
{ACAD_REACTORS
330
52A9
102
}
330
52A9
100
AcDbXrecord
280
     1
290
     1
  0
XRECORD
  5
7178
102
{ACAD_REACTORS
330
52AD
102
}
330
52AD
100
AcDbXrecord
280
     1
290
     1
  0
XRECORD
  5
4875
102
{ACAD_REACTORS
330
4874
102
}
330
4874
100
AcDbXrecord
280
     1
340
1736
  0
XRECORD
  5
4877
102
{ACAD_REACTORS
330
4874
102
}
330
4874
100
AcDbXrecord
280
     1
300
<なし>
302
ACAD_VIEWS_セッティングイメージ
330
3A
294
     0
  0
SORTENTSTABLE
  5
947
102
{ACAD_REACTORS
330
946
102
}
330
946
100
AcDbSortentsTable
330
37
331
8537
  5
8600
331
84F4
  5
8640
331
85AD
  5
8588
331
8533
  5
8602
331
852F
  5
8604
331
856E
  5
85C9
331
85A9
  5
858A
331
91BF
  5
91AD
331
917C
  5
916A
331
852B
  5
860C
331
856A
  5
85CB
331
91BB
  5
91A9
331
85A5
  5
8592
331
85A1
  5
8594
331
9178
  5
9166
331
91B7
  5
91A5
331
91F6
  5
91E5
331
91B3
  5
91A1
331
91F2
  5
91E1
331
8527
  5
860E
331
8566
  5
85CD
331
8562
  5
85D5
331
859D
  5
8596
331
9174
  5
9162
331
8523
  5
8610
331
851F
  5
8617
331
855E
  5
85D7
331
91EE
  5
91DD
331
8599
  5
859E
331
91AF
  5
919D
331
9170
  5
915E
331
916C
  5
915A
331
851B
  5
8618
331
855A
  5
85DD
331
91AB
  5
9199
331
91EA
  5
91D9
331
8595
  5
85A0
331
8591
  5
85A2
331
9168
  5
9202
331
91A7
  5
9195
331
91E6
  5
91D4
331
91A3
  5
9191
331
91E2
  5
91D0
331
8517
  5
8620
331
8556
  5
85DE
331
8552
  5
85E0
331
858D
  5
85AA
331
9164
  5
91FE
331
8513
  5
8622
331
850F
  5
8624
331
854E
  5
85E4
331
91DE
  5
91CC
331
8589
  5
85AE
331
919F
  5
918D
331
9160
  5
91FA
331
915C
  5
91F6
331
850B
  5
862C
331
854A
  5
85EC
331
91DA
  5
91C8
331
8585
  5
85B0
331
919B
  5
9189
331
9197
  5
9185
331
91D6
  5
91C4
331
8581
  5
85B2
331
9193
  5
9181
331
91D2
  5
91C0
331
8507
  5
862F
331
8546
  5
85EF
331
8542
  5
85F1
331
857D
  5
85BA
331
85C4
  5
856F
331
8503
  5
8633
331
84FF
  5
8637
331
853E
  5
85F7
331
8579
  5
85BC
331
85C0
  5
8577
331
918F
  5
917D
331
91CE
  5
91BC
331
84FB
  5
863B
331
853A
  5
85FD
331
91CA
  5
91B8
331
8575
  5
85BE
331
918B
  5
9179
331
9187
  5
9175
331
91C6
  5
91B4
331
9201
  5
91F0
331
8571
  5
85C6
331
9183
  5
9171
331
91C2
  5
91B0
331
91FD
  5
91EC
331
91F9
  5
91E8
331
84F7
  5
863E
331
8536
  5
85FF
331
8532
  5
8601
331
85AC
  5
8587
331
852E
  5
8609
331
856D
  5
85C8
331
85A8
  5
858F
331
91BE
  5
91AC
331
917F
  5
916D
331
917B
  5
9169
331
852A
  5
860B
331
8569
  5
85CA
331
91BA
  5
91A8
331
85A4
  5
8591
331
85A0
  5
8593
331
91B6
  5
91A4
331
91F5
  5
91E4
331
91B2
  5
91A0
331
91F1
  5
91E0
331
8565
  5
85D2
331
9177
  5
9165
331
8526
  5
860D
331
8561
  5
85D4
331
859C
  5
859B
331
9173
  5
9161
331
8522
  5
8615
331
851E
  5
8616
331
855D
  5
85D6
331
91ED
  5
91DC
331
8598
  5
859D
331
91AE
  5
919C
331
916F
  5
915D
331
916B
  5
9159
331
851A
  5
861D
331
8559
  5
85DC
331
91AA
  5
9198
331
91E9
  5
91D7
331
8594
  5
859F
331
8590
  5
85A7
331
91A6
  5
9194
331
91E5
  5
91D3
331
91A2
  5
9190
331
91E1
  5
91CF
331
9167
  5
9201
331
8516
  5
861F
331
8555
  5
85E3
331
8551
  5
85E7
331
858C
  5
85A9
331
9163
  5
91FD
331
8512
  5
8621
331
850E
  5
8629
331
854D
  5
85E9
331
91DD
  5
91CB
331
8588
  5
85AD
331
919E
  5
918C
331
915F
  5
91F9
331
915B
  5
91F5
331
850A
  5
862B
331
8549
  5
85EB
331
919A
  5
9188
331
91D9
  5
91C7
331
8584
  5
85AF
331
8580
  5
85B7
331
9196
  5
9184
331
91D5
  5
91C3
331
9192
  5
9180
331
91D1
  5
91BF
331
8506
  5
862E
331
8545
  5
85EE
331
8541
  5
85F6
331
857C
  5
85B9
331
85C3
  5
8574
331
8502
  5
8632
331
84FE
  5
8636
331
853D
  5
85FA
331
91CD
  5
91BB
331
8578
  5
85BB
331
918E
  5
917C
331
85BF
  5
8576
331
84FA
  5
863A
331
8539
  5
85FC
331
91C9
  5
91B7
331
8574
  5
85C3
331
918A
  5
9178
331
9186
  5
9174
331
91C5
  5
91B3
331
9200
  5
91EF
331
8570
  5
85C5
331
9182
  5
9170
331
91C1
  5
91AF
331
91FC
  5
91EB
331
91F8
  5
91E7
331
84F6
  5
863D
331
8535
  5
85FE
331
8531
  5
8606
331
85AB
  5
858C
331
917E
  5
916C
331
852D
  5
8608
331
856C
  5
85C7
331
85A7
  5
858E
331
91BD
  5
91AB
331
917A
  5
9168
331
8529
  5
860A
331
8568
  5
85CF
331
91B9
  5
91A7
331
85A3
  5
8590
331
91B5
  5
91A3
331
91F4
  5
91E3
331
91B1
  5
919F
331
91F0
  5
91DF
331
8564
  5
85D1
331
859F
  5
8598
331
9176
  5
9164
331
8525
  5
8612
331
8521
  5
8614
331
8560
  5
85D3
331
859B
  5
859A
331
9172
  5
9160
331
851D
  5
861A
331
855C
  5
85DA
331
91EC
  5
91DB
331
8597
  5
859C
331
91AD
  5
919B
331
916E
  5
915C
331
916A
  5
9158
331
8519
  5
861C
331
8558
  5
85DB
331
91A9
  5
9197
331
91E8
  5
91D6
331
8593
  5
85A4
331
91A5
  5
9193
331
91E4
  5
91D2
331
91A1
  5
918F
331
91E0
  5
91CE
331
8554
  5
85E2
331
858F
  5
85A6
331
9166
  5
9200
331
8515
  5
861E
331
8550
  5
85E6
331
858B
  5
85A8
331
9162
  5
91FC
331
8511
  5
8626
331
850D
  5
8628
331
854C
  5
85E8
331
91DC
  5
91CA
331
8587
  5
85AC
331
919D
  5
918B
331
915E
  5
91F8
331
915A
  5
91F4
331
8509
  5
862A
331
8548
  5
85EA
331
9199
  5
9187
331
91D8
  5
91C6
331
8583
  5
85B4
331
9195
  5
9183
331
91D4
  5
91C2
331
9191
  5
917F
331
91D0
  5
91BE
331
857F
  5
85B6
331
85C6
  5
8571
331
8505
  5
862D
331
8544
  5
85F3
331
8540
  5
85F5
331
857B
  5
85B8
331
85C2
  5
8573
331
8501
  5
8631
331
84FD
  5
8635
331
853C
  5
85F9
331
91CC
  5
91BA
331
8577
  5
85C0
331
918D
  5
917B
331
85BE
  5
8575
331
84F9
  5
8639
331
8538
  5
85FB
331
9189
  5
9177
331
91C8
  5
91B6
331
9203
  5
91F2
331
8573
  5
85C2
331
9185
  5
9173
331
91C4
  5
91B2
331
91FF
  5
91EE
331
9181
  5
916F
331
91C0
  5
91AE
331
91FB
  5
91EA
331
84F5
  5
8641
331
85AE
  5
8589
331
8534
  5
8603
331
8530
  5
8605
331
856F
  5
85C4
331
85AA
  5
858B
331
917D
  5
916B
331
852C
  5
8607
331
856B
  5
85CC
331
91BC
  5
91AA
331
85A6
  5
858D
331
85A2
  5
8595
331
9179
  5
9167
331
91B8
  5
91A6
331
91F7
  5
91E6
331
8528
  5
860F
331
91B4
  5
91A2
331
91F3
  5
91E2
331
91B0
  5
919E
331
8567
  5
85CE
331
8563
  5
85D0
331
859E
  5
8597
331
9175
  5
9163
331
8524
  5
8611
331
8520
  5
8613
331
855F
  5
85D8
331
91EF
  5
91DE
331
859A
  5
8599
331
9171
  5
915F
331
916D
  5
915B
331
851C
  5
8619
331
855B
  5
85D9
331
91EB
  5
91DA
331
8596
  5
85A1
331
91AC
  5
919A
331
9169
  5
9156
331
8518
  5
861B
331
91A8
  5
9196
331
91E7
  5
91D5
331
8592
  5
85A3
331
91A4
  5
9192
331
91E3
  5
91D1
331
91A0
  5
918E
331
8557
  5
85DF
331
8553
  5
85E1
331
858E
  5
85A5
331
9165
  5
91FF
331
8514
  5
8623
331
8510
  5
8625
331
854F
  5
85E5
331
858A
  5
85AB
331
9161
  5
91FB
331
91DF
  5
91CD
331
850C
  5
8627
331
854B
  5
85ED
331
91DB
  5
91C9
331
8586
  5
85B1
331
919C
  5
918A
331
915D
  5
91F7
331
9159
  5
91F3
331
8508
  5
8630
331
9198
  5
9186
331
91D7
  5
91C5
331
8582
  5
85B3
331
9194
  5
9182
331
91D3
  5
91C1
331
9190
  5
917E
331
8547
  5
85F0
331
8543
  5
85F2
331
857E
  5
85B5
331
85C5
  5
8570
331
8504
  5
8634
331
853F
  5
85F4
331
857A
  5
85BD
331
85C1
  5
8572
331
91CF
  5
91BD
331
8500
  5
8638
331
84FC
  5
863C
331
853B
  5
85F8
331
91CB
  5
91B9
331
8576
  5
85BF
331
918C
  5
917A
331
84F8
  5
863F
331
9188
  5
9176
331
91C7
  5
91B5
331
9202
  5
91F1
331
8572
  5
85C1
331
9184
  5
9172
331
91C3
  5
91B1
331
91FE
  5
91ED
331
9180
  5
916E
331
91FA
  5
91E9
  0
SORTENTSTABLE
  5
9D72
102
{ACAD_REACTORS
330
9B5D
102
}
330
9B5D
100
AcDbSortentsTable
330
9B0B
  0
XRECORD
  5
9D78
102
{ACAD_REACTORS
330
9D77
102
}
330
9D77
100
AcDbXrecord
280
     1
 70
     1
  0
XRECORD
  5
9D79
102
{ACAD_REACTORS
330
9D77
102
}
330
9D77
100
AcDbXrecord
280
     1
340
1B
  0
ACDBDETAILVIEWSTYLE
  5
90F8
102
{ACAD_XDICTIONARY
360
9DB9
102
}
102
{ACAD_REACTORS
330
8F14
330
9CB9
102
}
330
8F14
100
AcDbModelDocViewStyle
 70
     0
  3
Imperial24
290
     0
100
AcDbDetailViewStyle
 70
     0
 71
     0
 90
        3
 71
     1
340
26
 40
0.24
340
0
 40
0.24
300

 40
0.36
280
     3
 71
     2
340
2B
 90
       25
 71
     3
340
26
 40
0.24
 90
        1
 40
0.75
 90
        1
300
%<\AcVar ViewType \f "%tc1">% %<\AcVar ViewDetailId>%\PSCALE %<\AcVar ViewScale \f "%sn">%
 71
     4
340
2B
 90
       25
340
2B
 90
       25
280
     0
  0
ACDBDETAILVIEWSTYLE
  5
8F15
102
{ACAD_XDICTIONARY
360
9DB5
102
}
102
{ACAD_REACTORS
330
8F14
330
9CBA
102
}
330
8F14
100
AcDbModelDocViewStyle
 70
     0
  3
Metric50
290
     0
100
AcDbDetailViewStyle
 70
     0
 71
     0
 90
        3
 71
     1
340
26
 40
5.0
340
0
 40
5.0
300

 40
0.0
280
     1
 71
     2
340
2B
 90
       25
 71
     3
340
26
 40
5.0
 90
        0
 40
15.0
 90
        1
300
%<\AcVar ViewDetailId>% (%<\AcVar ViewScale \f "%sn">%)
 71
     4
340
2B
 90
       25
340
2B
 90
       25
280
     0
  0
LAYOUT
  5
3A
102
{ACAD_XDICTIONARY
360
9D9B
102
}
102
{ACAD_REACTORS
330
2F
102
}
330
2F
100
AcDbPlotSettings
  1

  2
\\CAD02\Canon LBP5700 LIPS
  4
A4
  6

 40
5.873749732971191
 41
5.873747825622557
 42
5.873748779296875
 43
5.873748779296875
 44
209.9733276367186
 45
296.9259948730469
 46
0.0
 47
0.0
 48
0.0
 49
0.0
140
0.0
141
0.0
142
1.0
143
7.186075887391405
 70
 11952
 72
     1
 73
     1
 74
     0
  7
monochrome.ctb
 75
     0
147
0.1391580071892348
148
773.4815346900619
149
-884.4699293230366
100
AcDbLayout
  1
Model
 70
     1
 71
     0
 10
0.0
 20
0.0
 11
12.0
 21
9.0
 12
0.0
 22
0.0
 32
0.0
 14
0.0
 24
0.0
 34
0.0
 15
0.0
 25
0.0
 35
0.0
146
0.0
 13
0.0
 23
0.0
 33
0.0
 16
1.0
 26
0.0
 36
0.0
 17
0.0
 27
1.0
 37
0.0
 76
     0
330
37
331
28
1001
ACAD_PSEXT
1000
\\CAD02\Canon LBP5700 LIPS
1000
Canon LBP5700 LIPS
1000
\\CAD02
1000

1070
     0
  0
LAYOUT
  5
9B63
102
{ACAD_XDICTIONARY
360
9DBB
102
}
102
{ACAD_REACTORS
330
2F
102
}
330
2F
100
AcDbPlotSettings
  1

  2
EPSON EP-802A
  4

  6

 40
0.0
 41
0.0
 42
0.0
 43
0.0
 44
0.0
 45
0.0
 46
0.0
 47
0.0
 48
0.0
 49
0.0
140
0.0
141
0.0
142
1.0
143
1.0
 70
   688
 72
     0
 73
     0
 74
     5
  7

 75
    16
147
1.0
148
0.0
149
0.0
100
AcDbLayout
  1
レイアウト1
 70
     1
 71
     1
 10
0.0
 20
0.0
 11
12.0
 21
9.0
 12
0.0
 22
0.0
 32
0.0
 14
0.0
 24
0.0
 34
0.0
 15
0.0
 25
0.0
 35
0.0
146
0.0
 13
0.0
 23
0.0
 33
0.0
 16
1.0
 26
0.0
 36
0.0
 17
0.0
 27
1.0
 37
0.0
 76
     0
330
9B62
  0
MATERIAL
  5
12
102
{ACAD_XDICTIONARY
360
9B7E
102
}
102
{ACAD_REACTORS
330
10
102
}
330
10
100
AcDbMaterial
  1
ByBlock
 73
     1
 78
     1
172
     1
176
     1
270
     1
274
     1
  0
MATERIAL
  5
11
102
{ACAD_XDICTIONARY
360
9B7C
102
}
102
{ACAD_REACTORS
330
10
102
}
330
10
100
AcDbMaterial
  1
ByLayer
 73
     1
 78
     1
172
     1
176
     1
270
     1
274
     1
  0
MATERIAL
  5
13
102
{ACAD_XDICTIONARY
360
9B80
102
}
102
{ACAD_REACTORS
330
10
102
}
330
10
100
AcDbMaterial
  1
Global
 73
     1
 78
     1
172
     1
176
     1
270
     1
274
     1
  0
MLEADERSTYLE
  5
1758
102
{ACAD_REACTORS
330
1757
102
}
330
1757
100
AcDbMLeaderStyle
170
     2
171
     1
172
     0
 90
        2
 40
0.0
 41
0.0
173
     1
 91
-1056964608
340
29
 92
       -2
290
     1
 42
2.0
291
     1
 43
0.36
  3
Standard
 44
4.0
300

342
26
174
     1
178
     6
175
     1
176
     0
 93
-1056964608
 45
4.0
292
     0
297
     0
 46
4.0
 94
-1056964608
 47
1.0
 49
1.0
140
1.0
293
     1
141
0.0
294
     1
177
     0
142
1.0
295
     0
296
     0
143
0.125
1001
ACAD_MLEADERVER
1070
     2
  0
MLINESTYLE
  5
2D
102
{ACAD_REACTORS
330
2C
102
}
330
2C
100
AcDbMlineStyle
  2
STANDARD
 70
     0
  3

 62
   256
 51
90.0
 52
90.0
 71
     2
 49
0.5
 62
   256
  6
BYLAYER
 49
-0.5
 62
   256
  6
BYLAYER
  0
PLOTSETTINGS
  5
8B72
102
{ACAD_XDICTIONARY
360
9D9D
102
}
102
{ACAD_REACTORS
330
2E
102
}
330
2E
100
AcDbPlotSettings
  1
PDF-A4
  2
Adobe PDF
  4
A4
  6

 40
3.174999952316282
 41
3.174999952316282
 42
3.175003051757812
 43
3.17498779296875
 44
209.9098358154297
 45
297.0318298339844
 46
2.5
 47
2.5
 48
0.0
 49
0.0
140
0.0
141
0.0
142
1.0
143
1.0
 70
  2736
 72
     1
 73
     0
 74
     5
  7
monochrome.ctb
 75
    16
147
1.0
148
0.0
149
0.0
1001
ACAD_PSEXT
1000
Adobe PDF
1000
Adobe PDF Converter
1000
My Documents
1000
Adobe PDF の作成
1070
     0
  0
ACDBPLACEHOLDER
  5
F
102
{ACAD_REACTORS
330
E
102
}
330
E
  0
SCALE
  5
1736
102
{ACAD_REACTORS
330
1735
102
}
330
1735
100
AcDbScale
 70
     0
300
1:1
140
1.0
141
1.0
290
     1
  0
SCALE
  5
523E
102
{ACAD_REACTORS
330
1735
102
}
330
1735
100
AcDbScale
 70
     0
300
1:5
140
1.0
141
5.0
290
     0
  0
SCALE
  5
8F24
102
{ACAD_REACTORS
330
1735
102
}
330
1735
100
AcDbScale
 70
     0
300
1:2
140
1.0
141
2.0
290
     0
  0
SCALE
  5
8F25
102
{ACAD_REACTORS
330
1735
102
}
330
1735
100
AcDbScale
 70
     0
300
1:4
140
1.0
141
4.0
290
     0
  0
SCALE
  5
8F26
102
{ACAD_REACTORS
330
1735
102
}
330
1735
100
AcDbScale
 70
     0
300
1:8
140
1.0
141
8.0
290
     0
  0
SCALE
  5
8F27
102
{ACAD_REACTORS
330
1735
102
}
330
1735
100
AcDbScale
 70
     0
300
1:10
140
1.0
141
10.0
290
     0
  0
SCALE
  5
8F28
102
{ACAD_REACTORS
330
1735
102
}
330
1735
100
AcDbScale
 70
     0
300
1:16
140
1.0
141
16.0
290
     0
  0
SCALE
  5
8F29
102
{ACAD_REACTORS
330
1735
102
}
330
1735
100
AcDbScale
 70
     0
300
1:20
140
1.0
141
20.0
290
     0
  0
SCALE
  5
8F2A
102
{ACAD_REACTORS
330
1735
102
}
330
1735
100
AcDbScale
 70
     0
300
1:30
140
1.0
141
30.0
290
     0
  0
SCALE
  5
8F2B
102
{ACAD_REACTORS
330
1735
102
}
330
1735
100
AcDbScale
 70
     0
300
1:40
140
1.0
141
40.0
290
     0
  0
SCALE
  5
8F2C
102
{ACAD_REACTORS
330
1735
102
}
330
1735
100
AcDbScale
 70
     0
300
1:50
140
1.0
141
50.0
290
     0
  0
SCALE
  5
8F2D
102
{ACAD_REACTORS
330
1735
102
}
330
1735
100
AcDbScale
 70
     0
300
1:100
140
1.0
141
100.0
290
     0
  0
SCALE
  5
8F2E
102
{ACAD_REACTORS
330
1735
102
}
330
1735
100
AcDbScale
 70
     0
300
2:1
140
2.0
141
1.0
290
     0
  0
SCALE
  5
8F2F
102
{ACAD_REACTORS
330
1735
102
}
330
1735
100
AcDbScale
 70
     0
300
4:1
140
4.0
141
1.0
290
     0
  0
SCALE
  5
8F30
102
{ACAD_REACTORS
330
1735
102
}
330
1735
100
AcDbScale
 70
     0
300
8:1
140
8.0
141
1.0
290
     0
  0
SCALE
  5
8F31
102
{ACAD_REACTORS
330
1735
102
}
330
1735
100
AcDbScale
 70
     0
300
10:1
140
10.0
141
1.0
290
     0
  0
SCALE
  5
8F32
102
{ACAD_REACTORS
330
1735
102
}
330
1735
100
AcDbScale
 70
     0
300
100:1
140
100.0
141
1.0
290
     0
  0
ACDBSECTIONVIEWSTYLE
  5
90F6
102
{ACAD_XDICTIONARY
360
9DB7
102
}
102
{ACAD_REACTORS
330
8F12
330
9CB7
102
}
330
8F12
100
AcDbModelDocViewStyle
 70
     0
  3
Imperial24
290
     0
100
AcDbSectionViewStyle
 70
     0
 71
     0
 90
       78
 71
     1
340
26
 40
0.24
340
0
340
0
 40
0.24
300
I, O, Q, S, X, Z
 40
0.48
 90
        3
 40
0.18
 90
        1
 71
     2
340
2B
 90
       25
340
2B
 90
       50
 40
0.24
 40
0.0
 40
0.24
 71
     3
340
26
 40
0.24
 90
        1
 40
0.75
 90
        1
300
%<\AcVar ViewType \f "%tc1">% %<\AcVar ViewSectionStartId>%-%<\AcVar ViewSectionEndId>%\PSCALE %<\AcVar ViewScale \f "%sn">%
 71
     4
300
ANSI31
 40
1.0
 90
        0
290
     0
290
     0
 90
        6
 40
0.0
 40
1.570796326794896
 40
0.2617993877991494
 40
1.308996938995747
 40
-0.2617993877991494
 40
1.832595714594044
  0
ACDBSECTIONVIEWSTYLE
  5
8F13
102
{ACAD_XDICTIONARY
360
9DB3
102
}
102
{ACAD_REACTORS
330
8F12
330
9CB8
102
}
330
8F12
100
AcDbModelDocViewStyle
 70
     0
  3
Metric50
290
     0
100
AcDbSectionViewStyle
 70
     0
 71
     0
 90
      102
 71
     1
340
26
 40
5.0
340
0
340
0
 40
5.0
300
I, O, Q, S, X, Z
 40
10.0
 90
        0
 40
2.5
 90
        0
 71
     2
340
2B
 90
       25
340
2B
 90
       50
 40
5.0
 40
2.5
 40
5.0
 71
     3
340
26
 40
5.0
 90
        0
 40
15.0
 90
        1
300
%<\AcVar ViewSectionStartId>%-%<\AcVar ViewSectionEndId>% (%<\AcVar ViewScale \f "%sn">%)
 71
     4
300
ANSI31
 40
1.0
 90
        0
290
     0
290
     0
 90
        6
 40
0.0
 40
1.570796326794896
 40
0.2617993877991494
 40
1.308996938995747
 40
-0.2617993877991494
 40
1.832595714594044
  0
TABLESTYLE
  5
32
102
{ACAD_XDICTIONARY
360
177A
102
}
102
{ACAD_REACTORS
330
31
102
}
330
31
100
AcDbTableStyle
  3
Standard
 70
     0
 71
     0
 40
1.5
 41
1.5
280
     0
281
     0
  7
STANDARD
140
4.5
170
     2
 62
     0
 63
     7
283
     0
274
    -2
284
     1
 64
     0
275
    -2
285
     1
 65
     0
276
    -2
286
     1
 66
     0
277
    -2
287
     1
 67
     0
278
    -2
288
     1
 68
     0
279
    -2
289
     1
 69
     0
  7
STANDARD
140
6.0
170
     5
 62
     0
 63
     7
283
     0
274
    -2
284
     1
 64
     0
275
    -2
285
     1
 65
     0
276
    -2
286
     1
 66
     0
277
    -2
287
     1
 67
     0
278
    -2
288
     1
 68
     0
279
    -2
289
     1
 69
     0
  7
STANDARD
140
4.5
170
     5
 62
     0
 63
     7
283
     0
274
    -2
284
     1
 64
     0
275
    -2
285
     1
 65
     0
276
    -2
286
     1
 66
     0
277
    -2
287
     1
 67
     0
278
    -2
288
     1
 68
     0
279
    -2
289
     1
 69
     0
  0
VISUALSTYLE
  5
1A
102
{ACAD_XDICTIONARY
360
9D84
102
}
102
{ACAD_REACTORS
330
14
102
}
330
14
100
AcDbVisualStyle
  2

 70
     4
 71
     0
 72
     2
 73
     0
 90
        0
 40
-0.6
 41
-30.0
 62
     5
 63
     7
 74
     1
 91
        4
 64
     7
 65
   257
 75
     1
175
     1
 42
1.0
 92
        0
 66
   257
 43
1.0
 76
     1
 77
     6
 78
     2
 67
     7
 79
     5
170
     0
171
     0
290
     0
174
     0
 93
        1
 44
0.0
173
     0
291
     0
 45
0.0
1001
ACAD
1000
AcDbSavedByObjectVersion
1070
     0
  0
VISUALSTYLE
  5
1C
102
{ACAD_XDICTIONARY
360
9D88
102
}
102
{ACAD_REACTORS
330
14
102
}
330
14
100
AcDbVisualStyle
  2

 70
     6
 71
     1
 72
     2
 73
     2
 90
        0
 40
-0.6
 41
-30.0
 62
     5
 63
     7
 74
     2
 91
        2
 64
     7
 65
   257
 75
     2
175
     1
 42
40.0
 92
        0
 66
   257
 43
1.0
 76
     1
 77
     6
 78
     2
 67
     7
 79
     3
170
     0
171
     0
290
     0
174
     0
 93
        1
 44
0.0
173
     0
291
     0
 45
0.0
1001
ACAD
1000
AcDbSavedByObjectVersion
1070
     0
  0
VISUALSTYLE
  5
1B
102
{ACAD_XDICTIONARY
360
9D86
102
}
102
{ACAD_REACTORS
330
14
102
}
330
14
100
AcDbVisualStyle
  2

 70
     5
 71
     0
 72
     2
 73
     0
 90
        0
 40
-0.6
 41
-30.0
 62
     5
 63
     7
 74
     1
 91
        4
 64
     7
 65
   257
 75
     1
175
     1
 42
1.0
 92
        0
 66
   257
 43
1.0
 76
     1
 77
     6
 78
     2
 67
     7
 79
     5
170
     0
171
     0
290
     0
174
     0
 93
        1
 44
0.0
173
     0
291
     0
 45
0.0
1001
ACAD
1000
AcDbSavedByObjectVersion
1070
     0
  0
VISUALSTYLE
  5
19
102
{ACAD_XDICTIONARY
360
9D82
102
}
102
{ACAD_REACTORS
330
14
102
}
330
14
100
AcDbVisualStyle
  2

 70
     7
 71
     1
 72
     0
 73
     1
 90
        0
 40
-0.6
 41
-30.0
 62
     5
 63
     7
 74
     0
 91
        4
 64
     7
 65
   257
 75
     1
175
     1
 42
1.0
 92
        8
 66
     7
 43
1.0
 76
     1
 77
     6
 78
     2
 67
     7
 79
     5
170
     0
171
     0
290
     0
174
     0
 93
        1
 44
0.0
173
     0
291
     1
 45
0.0
1001
ACAD
1000
AcDbSavedByObjectVersion
1070
     0
  0
VISUALSTYLE
  5
20
102
{ACAD_XDICTIONARY
360
9D90
102
}
102
{ACAD_REACTORS
330
14
102
}
330
14
100
AcDbVisualStyle
  2

 70
    12
 71
     2
 72
     2
 73
     0
 90
        0
 40
-0.6
 41
-30.0
 62
     5
 63
     7
 74
     1
 91
        4
 64
     7
 65
   257
 75
     1
175
     1
 42
1.0
 92
        8
 66
     7
 43
1.0
 76
     1
 77
     6
 78
     2
 67
     7
 79
     5
170
     0
171
     0
290
     0
174
     0
 93
        1
 44
50.0
173
     0
291
     1
 45
0.0
1001
ACAD
1000
AcDbSavedByObjectVersion
1070
     0
  0
VISUALSTYLE
  5
24
102
{ACAD_XDICTIONARY
360
9D98
102
}
102
{ACAD_REACTORS
330
14
102
}
330
14
100
AcDbVisualStyle
  2

 70
    16
 71
     2
 72
     2
 73
     3
 90
        0
 40
-0.6
 41
-30.0
 62
     5
 63
     8
 74
     1
 91
        4
 64
     7
 65
   257
 75
     1
175
     1
 42
1.0
 92
        8
 66
     8
 43
1.0
 76
     1
 77
     6
 78
     2
 67
     7
 79
     5
170
     0
171
     0
290
     0
174
     0
 93
        1
 44
0.0
173
     0
291
     1
 45
0.0
1001
ACAD
1000
AcDbSavedByObjectVersion
1070
     0
  0
VISUALSTYLE
  5
1D
102
{ACAD_XDICTIONARY
360
9D8A
102
}
102
{ACAD_REACTORS
330
14
102
}
330
14
100
AcDbVisualStyle
  2

 70
     9
 71
     3
 72
     2
 73
     0
 90
        0
 40
-0.6
 41
-30.0
 62
     5
 63
     7
 74
     2
 91
        2
 64
     7
 65
   257
 75
     1
175
     1
 42
40.0
 92
        8
 66
     7
 43
1.0
 76
     1
 77
     6
 78
     2
 67
     7
 79
     3
170
     0
171
     0
290
     0
174
     0
 93
        1
 44
0.0
173
     0
291
     0
 45
0.0
1001
ACAD
1000
AcDbSavedByObjectVersion
1070
     0
  0
VISUALSTYLE
  5
1F
102
{ACAD_XDICTIONARY
360
9D8E
102
}
102
{ACAD_REACTORS
330
14
102
}
330
14
100
AcDbVisualStyle
  2

 70
    11
 71
     2
 72
     2
 73
     0
 90
        0
 40
-0.6
 41
-30.0
 62
     5
 63
     7
 74
     1
 91
        4
 64
     7
 65
   257
 75
     1
175
     1
 42
1.0
 92
        8
 66
     7
 43
1.0
 76
     1
 77
     6
 78
     2
 67
     7
 79
     5
170
     0
171
     0
290
     0
174
     0
 93
        1
 44
-50.0
173
     0
291
     1
 45
0.0
1001
ACAD
1000
AcDbSavedByObjectVersion
1070
     0
  0
VISUALSTYLE
  5
8F11
102
{ACAD_XDICTIONARY
360
9DB1
102
}
102
{ACAD_REACTORS
330
14
102
}
330
14
100
AcDbVisualStyle
  2

 70
    22
 71
     2
 72
     2
 73
     0
 90
        0
 40
-0.6
 41
-30.0
 62
     5
 63
     7
 74
     1
 91
        4
 64
     7
 65
   257
 75
     1
175
     1
 42
1.0
 92
        8
 66
     7
 43
1.0
 76
     1
 77
     6
 78
     2
 67
     7
 79
     5
170
     0
171
     0
290
     0
174
     0
 93
        1
 44
0.0
173
     0
291
     1
 45
0.0
1001
ACAD
1000
AcDbSavedByObjectVersion
1070
     0
  0
VISUALSTYLE
  5
23
102
{ACAD_XDICTIONARY
360
9D96
102
}
102
{ACAD_REACTORS
330
14
102
}
330
14
100
AcDbVisualStyle
  2

 70
    15
 71
     2
 72
     2
 73
     0
 90
        0
 40
-0.6
 41
-30.0
 62
     5
 63
     7
 74
     1
 91
        4
 64
     7
 65
   257
 75
     1
175
     1
 42
1.0
 92
        8
 66
     7
 43
1.0
 76
     1
 77
     6
 78
     2
 67
     7
 79
     5
170
     0
171
     0
290
     0
174
     0
 93
        1
 44
0.0
173
     0
291
     1
 45
0.0
1001
ACAD
1000
AcDbSavedByObjectVersion
1070
     0
  0
VISUALSTYLE
  5
15
102
{ACAD_XDICTIONARY
360
9D7A
102
}
102
{ACAD_REACTORS
330
14
102
}
330
14
100
AcDbVisualStyle
  2

 70
     0
 71
     2
 72
     1
 73
     1
 90
        2
 40
-0.6
 41
30.0
 62
     5
 63
     7
 74
     0
 91
        4
 64
     7
 65
   257
 75
     1
175
     1
 42
1.0
 92
        8
 66
     7
 43
1.0
 76
     1
 77
     6
 78
     2
 67
     7
 79
     5
170
     0
171
     0
290
     0
174
     0
 93
       13
 44
0.0
173
     0
291
     1
 45
0.0
1001
ACAD
1000
AcDbSavedByObjectVersion
1070
     0
  0
VISUALSTYLE
  5
16
102
{ACAD_XDICTIONARY
360
9D7C
102
}
102
{ACAD_REACTORS
330
14
102
}
330
14
100
AcDbVisualStyle
  2

 70
     1
 71
     2
 72
     1
 73
     1
 90
        2
 40
-0.6
 41
30.0
 62
     5
 63
     7
 74
     1
 91
        4
 64
     7
 65
   257
 75
     1
175
     1
 42
1.0
 92
        0
 66
   257
 43
1.0
 76
     1
 77
     6
 78
     2
 67
     7
 79
     5
170
     0
171
     0
290
     0
174
     0
 93
       13
 44
0.0
173
     0
291
     1
 45
0.0
1001
ACAD
1000
AcDbSavedByObjectVersion
1070
     0
  0
VISUALSTYLE
  5
17
102
{ACAD_XDICTIONARY
360
9D7E
102
}
102
{ACAD_REACTORS
330
14
102
}
330
14
100
AcDbVisualStyle
  2

 70
     2
 71
     2
 72
     2
 73
     1
 90
        2
 40
-0.6
 41
30.0
 62
     5
 63
     7
 74
     0
 91
        4
 64
     7
 65
   257
 75
     1
175
     1
 42
1.0
 92
        0
 66
     7
 43
1.0
 76
     1
 77
     6
 78
     2
 67
     7
 79
     5
170
     0
171
     0
290
     0
174
     0
 93
       13
 44
0.0
173
     0
291
     1
 45
0.0
1001
ACAD
1000
AcDbSavedByObjectVersion
1070
     0
  0
VISUALSTYLE
  5
18
102
{ACAD_XDICTIONARY
360
9D80
102
}
102
{ACAD_REACTORS
330
14
102
}
330
14
100
AcDbVisualStyle
  2

 70
     3
 71
     2
 72
     2
 73
     1
 90
        2
 40
-0.6
 41
30.0
 62
     5
 63
     7
 74
     1
 91
        4
 64
     7
 65
   257
 75
     1
175
     1
 42
1.0
 92
        0
 66
   257
 43
1.0
 76
     1
 77
     6
 78
     2
 67
     7
 79
     5
170
     0
171
     0
290
     0
174
     0
 93
       13
 44
0.0
173
     0
291
     1
 45
0.0
1001
ACAD
1000
AcDbSavedByObjectVersion
1070
     0
  0
VISUALSTYLE
  5
8F09
102
{ACAD_XDICTIONARY
360
9DA1
102
}
102
{ACAD_REACTORS
330
14
102
}
330
14
100
AcDbVisualStyle
  2

 70
     6
 71
     1
 72
     2
 73
     2
 90
        0
 40
-0.6
 41
-30.0
 62
     5
 63
     7
 74
     2
 91
        2
 64
     7
 65
   257
 75
     2
175
     1
 42
40.0
 92
        0
 66
   257
 43
1.0
 76
     1
 77
     6
 78
     2
 67
     7
 79
     3
170
     0
171
     0
290
     0
174
     0
 93
        1
 44
0.0
173
     0
291
     0
 45
0.0
1001
ACAD
1000
AcDbSavedByObjectVersion
1070
     0
  0
VISUALSTYLE
  5
8F0F
102
{ACAD_XDICTIONARY
360
9DAD
102
}
102
{ACAD_REACTORS
330
14
102
}
330
14
100
AcDbVisualStyle
  2

 70
    20
 71
     2
 72
     2
 73
     0
 90
        0
 40
-0.6
 41
-30.0
 62
     5
 63
     7
 74
     1
 91
        4
 64
     7
 65
   257
 75
     1
175
     1
 42
1.0
 92
       10
 66
     7
 43
1.0
 76
     1
 77
     6
 78
     2
 67
     7
 79
     5
170
     0
171
     0
290
     0
174
     0
 93
        1
 44
0.0
173
     0
291
     1
 45
0.0
1001
ACAD
1000
AcDbSavedByObjectVersion
1070
     0
  0
VISUALSTYLE
  5
22
102
{ACAD_XDICTIONARY
360
9D94
102
}
102
{ACAD_REACTORS
330
14
102
}
330
14
100
AcDbVisualStyle
  2

 70
    14
 71
     2
 72
     2
 73
     0
 90
        0
 40
-0.6
 41
-30.0
 62
     5
 63
     7
 74
     1
 91
        4
 64
     7
 65
   257
 75
     7
175
     7
 42
1.0
 92
        8
 66
     7
 43
1.0
 76
     1
 77
     6
 78
     2
 67
     7
 79
     5
170
     0
171
     0
290
     0
174
     0
 93
        1
 44
0.0
173
     0
291
     1
 45
0.0
1001
ACAD
1000
AcDbSavedByObjectVersion
1070
     0
  0
VISUALSTYLE
  5
8F10
102
{ACAD_XDICTIONARY
360
9DAF
102
}
102
{ACAD_REACTORS
330
14
102
}
330
14
100
AcDbVisualStyle
  2

 70
    21
 71
     2
 72
     2
 73
     0
 90
        0
 40
-0.6
 41
-30.0
 62
     5
 63
     7
 74
     1
 91
        4
 64
     7
 65
   257
 75
     1
175
     1
 42
1.0
 92
        9
 66
     7
 43
1.0
 76
     1
 77
     6
 78
     2
 67
     7
 79
     5
170
     0
171
     0
290
     0
174
     0
 93
        1
 44
0.0
173
     0
291
     1
 45
0.0
1001
ACAD
1000
AcDbSavedByObjectVersion
1070
     0
  0
VISUALSTYLE
  5
1E
102
{ACAD_XDICTIONARY
360
9D8C
102
}
102
{ACAD_REACTORS
330
14
102
}
330
14
100
AcDbVisualStyle
  2

 70
     8
 71
     2
 72
     2
 73
     0
 90
        0
 40
-0.6
 41
-30.0
 62
     5
 63
     7
 74
     1
 91
        0
 64
     7
 65
   257
 75
     1
175
     1
 42
1.0
 92
        8
 66
     8
 43
1.0
 76
     1
 77
     6
 78
     2
 67
     7
 79
     5
170
     0
171
     0
290
     0
174
     0
 93
       13
 44
0.0
173
     0
291
     0
 45
0.0
1001
ACAD
1000
AcDbSavedByObjectVersion
1070
     0
  0
VISUALSTYLE
  5
8F0E
102
{ACAD_XDICTIONARY
360
9DAB
102
}
102
{ACAD_REACTORS
330
14
102
}
330
14
100
AcDbVisualStyle
  2

 70
    27
 71
     2
 72
     2
 73
     1
 90
        2
 40
-0.6
 41
30.0
 62
     5
 63
     7
 74
     0
 91
        4
 64
     7
 65
   257
 75
     1
175
     1
 42
1.0
 92
        8
 66
   257
 43
1.0
 76
     1
 77
     6
 78
     2
 67
     8
 79
     3
170
     0
171
     0
290
     0
174
     0
 93
        5
 44
0.0
173
     0
291
     0
 45
0.0
1001
ACAD
1000
AcDbSavedByObjectVersion
1070
     0
  0
VISUALSTYLE
  5
8F0D
102
{ACAD_XDICTIONARY
360
9DA9
102
}
102
{ACAD_REACTORS
330
14
102
}
330
14
100
AcDbVisualStyle
  2

 70
    26
 71
     2
 72
     2
 73
     1
 90
        2
 40
-0.6
 41
30.0
 62
     5
 63
     7
 74
     1
 91
       10
 64
     7
 65
   257
 75
     2
175
     1
 42
1.0
 92
        8
 66
   257
 43
1.0
 76
     1
 77
     6
 78
     2
 67
     7
 79
     3
170
     0
171
     0
290
     0
174
     0
 93
        5
 44
0.0
173
     0
291
     0
 45
0.0
1001
ACAD
1000
AcDbSavedByObjectVersion
1070
     0
  0
VISUALSTYLE
  5
8F0A
102
{ACAD_XDICTIONARY
360
9DA3
102
}
102
{ACAD_REACTORS
330
14
102
}
330
14
100
AcDbVisualStyle
  2

 70
    23
 71
     2
 72
     2
 73
     3
 90
        0
 40
-0.6
 41
-30.0
 62
     5
 63
     7
 74
     2
 91
        2
 64
     7
 65
     7
 75
     1
175
     1
 42
40.0
 92
        8
 66
     7
 43
1.0
 76
     1
 77
     6
 78
     2
 67
     7
 79
     3
170
     0
171
     0
290
     0
174
     0
 93
        1
 44
0.0
173
     0
291
     0
 45
0.0
1001
ACAD
1000
AcDbSavedByObjectVersion
1070
     0
  0
VISUALSTYLE
  5
8F0B
102
{ACAD_XDICTIONARY
360
9DA5
102
}
102
{ACAD_REACTORS
330
14
102
}
330
14
100
AcDbVisualStyle
  2

 70
    24
 71
     1
 72
     2
 73
     2
 90
        0
 40
-0.6
 41
-30.0
 62
     5
 63
     7
 74
     2
 91
        2
 64
     7
 65
     7
 75
     1
175
     1
 42
40.0
 92
       11
 66
     7
 43
1.0
 76
     1
 77
     6
 78
     2
 67
     7
 79
     6
170
     0
171
     0
290
     0
174
     0
 93
        1
 44
0.0
173
     0
291
     0
 45
0.0
1001
ACAD
1000
AcDbSavedByObjectVersion
1070
     0
  0
VISUALSTYLE
  5
21
102
{ACAD_XDICTIONARY
360
9D92
102
}
102
{ACAD_REACTORS
330
14
102
}
330
14
100
AcDbVisualStyle
  2

 70
    13
 71
     2
 72
     2
 73
     0
 90
        0
 40
-0.6
 41
-30.0
 62
     5
 63
     7
 74
     1
 91
        4
 64
     7
 65
   257
 75
     1
175
     1
 42
1.0
 92
       12
 66
     7
 43
1.0
 76
     1
 77
     6
 78
     2
 67
     7
 79
     5
170
     0
171
     0
290
     0
174
     0
 93
        1
 44
0.0
173
     0
291
     1
 45
0.0
1001
ACAD
1000
AcDbSavedByObjectVersion
1070
     0
  0
VISUALSTYLE
  5
8F08
102
{ACAD_XDICTIONARY
360
9D9F
102
}
102
{ACAD_REACTORS
330
14
102
}
330
14
100
AcDbVisualStyle
  2

 70
     5
 71
     0
 72
     2
 73
     0
 90
        0
 40
-0.6
 41
-30.0
 62
     5
 63
     7
 74
     1
 91
        4
 64
     7
 65
   257
 75
     1
175
     1
 42
1.0
 92
        0
 66
   257
 43
1.0
 76
     1
 77
     6
 78
     2
 67
     7
 79
     3
170
     0
171
     0
290
     0
174
     0
 93
        1
 44
0.0
173
     0
291
     0
 45
0.0
1001
ACAD
1000
AcDbSavedByObjectVersion
1070
     0
  0
VISUALSTYLE
  5
8F0C
102
{ACAD_XDICTIONARY
360
9DA7
102
}
102
{ACAD_REACTORS
330
14
102
}
330
14
100
AcDbVisualStyle
  2

 70
    25
 71
     2
 72
     2
 73
     1
 90
        1
 40
0.5
 41
-30.0
 62
     5
 63
     7
 74
     1
 91
        0
 64
     7
 65
   257
 75
     1
175
     1
 42
1.0
 92
        8
 66
     7
 43
1.0
 76
     1
 77
     6
 78
     2
 67
     7
 79
     3
170
     0
171
     0
290
     0
174
     0
 93
       13
 44
0.0
173
     0
291
     0
 45
0.0
1001
ACAD
1000
AcDbSavedByObjectVersion
1070
     0
  0
DICTIONARYVAR
  5
177F
102
{ACAD_REACTORS
330
454
102
}
330
454
100
DictionaryVariables
280
     0
  1
1:1
  0
DICTIONARYVAR
  5
177D
102
{ACAD_REACTORS
330
454
102
}
330
454
100
DictionaryVariables
280
     0
  1
STANDARD
  0
DICTIONARYVAR
  5
455
102
{ACAD_REACTORS
330
454
102
}
330
454
100
DictionaryVariables
280
     0
  1
STANDARD
  0
DICTIONARYVAR
  5
8F5E
102
{ACAD_REACTORS
330
454
102
}
330
454
100
DictionaryVariables
280
     0
  1
Metric50
  0
DICTIONARYVAR
  5
8F5F
102
{ACAD_REACTORS
330
454
102
}
330
454
100
DictionaryVariables
280
     0
  1
Metric50
  0
DICTIONARYVAR
  5
9B6D
102
{ACAD_REACTORS
330
454
102
}
330
454
100
DictionaryVariables
280
     0
  1
2
  0
DICTIONARYVAR
  5
9B6B
102
{ACAD_REACTORS
330
454
102
}
330
454
100
DictionaryVariables
280
     0
  1
1
  0
DICTIONARYVAR
  5
9B6A
102
{ACAD_REACTORS
330
454
102
}
330
454
100
DictionaryVariables
280
     0
  1
0
  0
DICTIONARYVAR
  5
8F60
102
{ACAD_REACTORS
330
454
102
}
330
454
100
DictionaryVariables
280
     0
  1
1
  0
DICTIONARYVAR
  5
8F61
102
{ACAD_REACTORS
330
454
102
}
330
454
100
DictionaryVariables
280
     0
  1
15
  0
DICTIONARYVAR
  5
1780
102
{ACAD_REACTORS
330
454
102
}
330
454
100
DictionaryVariables
280
     0
  1
0
  0
DICTIONARYVAR
  5
177E
102
{ACAD_REACTORS
330
454
102
}
330
454
100
DictionaryVariables
280
     0
  1
0
  0
DICTIONARYVAR
  5
9B6E
102
{ACAD_REACTORS
330
454
102
}
330
454
100
DictionaryVariables
280
     0
  1
1
  0
DICTIONARYVAR
  5
9B69
102
{ACAD_REACTORS
330
454
102
}
330
454
100
DictionaryVariables
280
     0
  1
127
  0
DICTIONARYVAR
  5
9D73
102
{ACAD_REACTORS
330
454
102
}
330
454
100
DictionaryVariables
280
     0
  1
2
  0
DICTIONARY
  5
A1
102
{ACAD_REACTORS
330
9F
102
}
330
9F
100
AcDbDictionary
281
     1
  0
XRECORD
  5
C1
102
{ACAD_REACTORS
330
9F
102
}
330
9F
100
AcDbXrecord
280
     1
 90
-1023410169
  0
XRECORD
  5
8BAD
102
{ACAD_REACTORS
330
8BAC
102
}
330
8BAC
100
AcDbXrecord
280
     1
330
0
330
0
330
0
330
0
330
0
330
0
330
0
330
0
330
0
330
0
330
0
330
0
330
0
330
0
330
0
330
0
330
0
330
0
330
0
330
0
330
0
330
0
330
0
330
0
330
0
  0
XRECORD
  5
4878
102
{ACAD_XDICTIONARY
360
4879
102
}
102
{ACAD_REACTORS
330
105
102
}
330
105
100
AcDbXrecord
280
     1
 91
    33280
301

290
     0
302
0
330
0
 90
        8
 62
     1
370
    25
331
2B
  1
色_1
330
0
 90
        8
 62
    52
370
     9
331
0
  1
色_52
330
0
 90
        9
 62
   253
370
     0
331
2B
  1
色_253
330
0
 90
        8
 62
     3
370
     9
331
2B
  1
色_3
330
0
 90
        8
 62
     7
370
    18
331
2B
  1
色_7
330
0
 90
        8
 62
     4
370
     9
331
A5
  1
色_4
330
0
 90
        0
 62
     2
370
    13
331
A6
  1
色_2
330
0
 90
        0
 62
     1
370
     9
331
A7
  1
色_1
330
0
 90
        8
 62
   133
370
     9
331
2B
  1
色_133
330
0
 90
        8
 62
   253
370
     9
331
0
  1
色_253
330
0
 90
        8
 62
    22
370
     9
331
78
  1
色_22
330
0
 90
        8
 62
   191
370
    15
331
2B
  1
色_191
330
0
 90
        8
 62
     4
370
    15
331
2B
  1
色_4
330
0
 90
        8
 62
     3
370
    13
331
2B
  1
色_3
330
0
 90
        8
 62
     6
370
     5
331
BD
  1
色_6
330
0
 90
        8
 62
   253
370
     5
331
2B
  1
色_253
330
0
 90
        8
 62
    42
370
    13
331
0
  1
色_42
330
0
 90
        8
 62
   101
370
     5
331
0
  1
色_101
330
ED
 90
        0
 62
     7
370
    15
331
2B
  1
色_7
330
0
 90
        0
 62
     1
370
    25
331
2B
  1
色_1
330
0
 90
        8
 62
     3
370
    13
331
2B
  1
色_3
330
25
 90
        8
 62
     7
370
    18
331
2B
  1
色_7
  0
DICTIONARY
  5
9DB9
330
90F8
100
AcDbDictionary
280
     1
281
     1
  3
ACAD_XREC_ROUNDTRIP
360
9DBA
  0
DICTIONARY
  5
9DB5
330
8F15
100
AcDbDictionary
280
     1
281
     1
  3
ACAD_XREC_ROUNDTRIP
360
9DB6
  0
DICTIONARY
  5
9D9B
330
3A
100
AcDbDictionary
280
     1
281
     1
  3
ACAD_XREC_ROUNDTRIP
360
9D9C
  0
DICTIONARY
  5
9DBB
330
9B63
100
AcDbDictionary
280
     1
281
     1
  3
ACAD_XREC_ROUNDTRIP
360
9DBC
  0
DICTIONARY
  5
9B7E
330
12
100
AcDbDictionary
280
     1
281
     1
  3
ACAD_XREC_ROUNDTRIP
360
9B7F
  0
DICTIONARY
  5
9B7C
330
11
100
AcDbDictionary
280
     1
281
     1
  3
ACAD_XREC_ROUNDTRIP
360
9B7D
  0
DICTIONARY
  5
9B80
330
13
100
AcDbDictionary
280
     1
281
     1
  3
ACAD_XREC_ROUNDTRIP
360
9B81
  0
DICTIONARY
  5
9D9D
330
8B72
100
AcDbDictionary
280
     1
281
     1
  3
ACAD_XREC_ROUNDTRIP
360
9D9E
  0
DICTIONARY
  5
9DB7
330
90F6
100
AcDbDictionary
280
     1
281
     1
  3
ACAD_XREC_ROUNDTRIP
360
9DB8
  0
DICTIONARY
  5
9DB3
330
8F13
100
AcDbDictionary
280
     1
281
     1
  3
ACAD_XREC_ROUNDTRIP
360
9DB4
  0
DICTIONARY
  5
177A
330
32
100
AcDbDictionary
280
     1
281
     1
  3
ACAD_ROUNDTRIP_2008_TABLESTYLE_CELLSTYLEMAP
360
9D74
  3
ACAD_XREC_ROUNDTRIP
360
9D9A
  0
DICTIONARY
  5
9D84
330
1A
100
AcDbDictionary
280
     1
281
     1
  3
ACAD_XREC_ROUNDTRIP
360
9D85
  0
DICTIONARY
  5
9D88
330
1C
100
AcDbDictionary
280
     1
281
     1
  3
ACAD_XREC_ROUNDTRIP
360
9D89
  0
DICTIONARY
  5
9D86
330
1B
100
AcDbDictionary
280
     1
281
     1
  3
ACAD_XREC_ROUNDTRIP
360
9D87
  0
DICTIONARY
  5
9D82
330
19
100
AcDbDictionary
280
     1
281
     1
  3
ACAD_XREC_ROUNDTRIP
360
9D83
  0
DICTIONARY
  5
9D90
330
20
100
AcDbDictionary
280
     1
281
     1
  3
ACAD_XREC_ROUNDTRIP
360
9D91
  0
DICTIONARY
  5
9D98
330
24
100
AcDbDictionary
280
     1
281
     1
  3
ACAD_XREC_ROUNDTRIP
360
9D99
  0
DICTIONARY
  5
9D8A
330
1D
100
AcDbDictionary
280
     1
281
     1
  3
ACAD_XREC_ROUNDTRIP
360
9D8B
  0
DICTIONARY
  5
9D8E
330
1F
100
AcDbDictionary
280
     1
281
     1
  3
ACAD_XREC_ROUNDTRIP
360
9D8F
  0
DICTIONARY
  5
9DB1
330
8F11
100
AcDbDictionary
280
     1
281
     1
  3
ACAD_XREC_ROUNDTRIP
360
9DB2
  0
DICTIONARY
  5
9D96
330
23
100
AcDbDictionary
280
     1
281
     1
  3
ACAD_XREC_ROUNDTRIP
360
9D97
  0
DICTIONARY
  5
9D7A
330
15
100
AcDbDictionary
280
     1
281
     1
  3
ACAD_XREC_ROUNDTRIP
360
9D7B
  0
DICTIONARY
  5
9D7C
330
16
100
AcDbDictionary
280
     1
281
     1
  3
ACAD_XREC_ROUNDTRIP
360
9D7D
  0
DICTIONARY
  5
9D7E
330
17
100
AcDbDictionary
280
     1
281
     1
  3
ACAD_XREC_ROUNDTRIP
360
9D7F
  0
DICTIONARY
  5
9D80
330
18
100
AcDbDictionary
280
     1
281
     1
  3
ACAD_XREC_ROUNDTRIP
360
9D81
  0
DICTIONARY
  5
9DA1
330
8F09
100
AcDbDictionary
280
     1
281
     1
  3
ACAD_XREC_ROUNDTRIP
360
9DA2
  0
DICTIONARY
  5
9DAD
330
8F0F
100
AcDbDictionary
280
     1
281
     1
  3
ACAD_XREC_ROUNDTRIP
360
9DAE
  0
DICTIONARY
  5
9D94
330
22
100
AcDbDictionary
280
     1
281
     1
  3
ACAD_XREC_ROUNDTRIP
360
9D95
  0
DICTIONARY
  5
9DAF
330
8F10
100
AcDbDictionary
280
     1
281
     1
  3
ACAD_XREC_ROUNDTRIP
360
9DB0
  0
DICTIONARY
  5
9D8C
330
1E
100
AcDbDictionary
280
     1
281
     1
  3
ACAD_XREC_ROUNDTRIP
360
9D8D
  0
DICTIONARY
  5
9DAB
330
8F0E
100
AcDbDictionary
280
     1
281
     1
  3
ACAD_XREC_ROUNDTRIP
360
9DAC
  0
DICTIONARY
  5
9DA9
330
8F0D
100
AcDbDictionary
280
     1
281
     1
  3
ACAD_XREC_ROUNDTRIP
360
9DAA
  0
DICTIONARY
  5
9DA3
330
8F0A
100
AcDbDictionary
280
     1
281
     1
  3
ACAD_XREC_ROUNDTRIP
360
9DA4
  0
DICTIONARY
  5
9DA5
330
8F0B
100
AcDbDictionary
280
     1
281
     1
  3
ACAD_XREC_ROUNDTRIP
360
9DA6
  0
DICTIONARY
  5
9D92
330
21
100
AcDbDictionary
280
     1
281
     1
  3
ACAD_XREC_ROUNDTRIP
360
9D93
  0
DICTIONARY
  5
9D9F
330
8F08
100
AcDbDictionary
280
     1
281
     1
  3
ACAD_XREC_ROUNDTRIP
360
9DA0
  0
DICTIONARY
  5
9DA7
330
8F0C
100
AcDbDictionary
280
     1
281
     1
  3
ACAD_XREC_ROUNDTRIP
360
9DA8
  0
DICTIONARY
  5
4879
330
4878
100
AcDbDictionary
280
     1
281
     1
  3
AcadLayerStateAnnoScale
360
487A
  0
XRECORD
  5
9DBA
102
{ACAD_REACTORS
330
9DB9
102
}
330
9DB9
100
AcDbXrecord
280
     1
102
DISPLAYNAME
  1
Imperial24
102
FLAGS
 90
        0
  0
XRECORD
  5
9DB6
102
{ACAD_REACTORS
330
9DB5
102
}
330
9DB5
100
AcDbXrecord
280
     1
102
DISPLAYNAME
  1
Metric50
102
FLAGS
 90
        0
  0
XRECORD
  5
9D9C
102
{ACAD_REACTORS
330
9D9B
102
}
330
9D9B
100
AcDbXrecord
280
     1
102
SHADEPLOT
 70
     0
102
SHADEPLOTRESLEVEL
 70
     2
102
SHADEPLOTCUSTOMDPI
 70
   300
  0
XRECORD
  5
9DBC
102
{ACAD_REACTORS
330
9DBB
102
}
330
9DBB
100
AcDbXrecord
280
     1
102
SHADEPLOT
 70
     0
102
SHADEPLOTRESLEVEL
 70
     2
102
SHADEPLOTCUSTOMDPI
 70
   300
  0
XRECORD
  5
9B7F
102
{ACAD_REACTORS
330
9B7E
102
}
330
9B7E
100
AcDbXrecord
280
     1
102
MATERIAL
148
0.0
149
0.0
149
0.0
 93
        0
 94
      127
282
     0
 72
     1
 77
     1
171
     1
175
     1
179
     1
273
     0
  0
XRECORD
  5
9B7D
102
{ACAD_REACTORS
330
9B7C
102
}
330
9B7C
100
AcDbXrecord
280
     1
102
MATERIAL
148
0.0
149
0.0
149
0.0
 93
        0
 94
      127
282
     0
 72
     1
 77
     1
171
     1
175
     1
179
     1
273
     0
  0
XRECORD
  5
9B81
102
{ACAD_REACTORS
330
9B80
102
}
330
9B80
100
AcDbXrecord
280
     1
102
MATERIAL
148
0.0
149
0.0
149
0.0
 93
        0
 94
      127
282
     0
 72
     1
 77
     1
171
     1
175
     1
179
     1
273
     0
  0
XRECORD
  5
9D9E
102
{ACAD_REACTORS
330
9D9D
102
}
330
9D9D
100
AcDbXrecord
280
     1
102
SHADEPLOT
 70
     1
102
SHADEPLOTRESLEVEL
 70
     4
102
SHADEPLOTCUSTOMDPI
 70
   300
  0
XRECORD
  5
9DB8
102
{ACAD_REACTORS
330
9DB7
102
}
330
9DB7
100
AcDbXrecord
280
     1
102
DISPLAYNAME
  1
Imperial24
102
FLAGS
 90
        0
  0
XRECORD
  5
9DB4
102
{ACAD_REACTORS
330
9DB3
102
}
330
9DB3
100
AcDbXrecord
280
     1
102
DISPLAYNAME
  1
Metric50
102
FLAGS
 90
        0
  0
CELLSTYLEMAP
  5
9D74
102
{ACAD_REACTORS
330
177A
102
}
330
177A
100
AcDbCellStyleMap
 90
        3
300
CELLSTYLE
  1
TABLEFORMAT_BEGIN
 90
        5
170
     1
 91
        0
 92
    32768
 62
   257
 93
        1
300
CONTENTFORMAT
  1
CONTENTFORMAT_BEGIN
 90
        0
 91
        0
 92
      512
 93
        0
300

 40
0.0
140
1.0
 94
        5
 62
     0
340
26
144
6.0
309
CONTENTFORMAT_END
171
     1
301
MARGIN
  1
CELLMARGIN_BEGIN
 40
1.5
 40
1.5
 40
1.5
 40
1.5
 40
0.18
 40
0.18
309
CELLMARGIN_END
 94
        6
 95
        1
302
GRIDFORMAT
  1
GRIDFORMAT_BEGIN
 90
        0
 91
        1
 62
     0
 92
       -2
340
0
 93
        0
 40
0.045
309
GRIDFORMAT_END
 95
        2
302
GRIDFORMAT
  1
GRIDFORMAT_BEGIN
 90
        0
 91
        1
 62
     0
 92
       -2
340
0
 93
        0
 40
0.045
309
GRIDFORMAT_END
 95
        4
302
GRIDFORMAT
  1
GRIDFORMAT_BEGIN
 90
        0
 91
        1
 62
     0
 92
       -2
340
0
 93
        0
 40
0.045
309
GRIDFORMAT_END
 95
        8
302
GRIDFORMAT
  1
GRIDFORMAT_BEGIN
 90
        0
 91
        1
 62
     0
 92
       -2
340
0
 93
        0
 40
0.045
309
GRIDFORMAT_END
 95
       16
302
GRIDFORMAT
  1
GRIDFORMAT_BEGIN
 90
        0
 91
        1
 62
     0
 92
       -2
340
0
 93
        0
 40
0.045
309
GRIDFORMAT_END
 95
       32
302
GRIDFORMAT
  1
GRIDFORMAT_BEGIN
 90
        0
 91
        1
 62
     0
 92
       -2
340
0
 93
        0
 40
0.045
309
GRIDFORMAT_END
309
TABLEFORMAT_END
  1
CELLSTYLE_BEGIN
 90
        1
 91
        1
300
_TITLE
309
CELLSTYLE_END
300
CELLSTYLE
  1
TABLEFORMAT_BEGIN
 90
        5
170
     1
 91
        0
 92
        0
 62
   257
 93
        1
300
CONTENTFORMAT
  1
CONTENTFORMAT_BEGIN
 90
        0
 91
        0
 92
      512
 93
        0
300

 40
0.0
140
1.0
 94
        5
 62
     0
340
26
144
4.5
309
CONTENTFORMAT_END
171
     1
301
MARGIN
  1
CELLMARGIN_BEGIN
 40
1.5
 40
1.5
 40
1.5
 40
1.5
 40
0.18
 40
0.18
309
CELLMARGIN_END
 94
        6
 95
        1
302
GRIDFORMAT
  1
GRIDFORMAT_BEGIN
 90
        0
 91
        1
 62
     0
 92
       -2
340
0
 93
        0
 40
0.045
309
GRIDFORMAT_END
 95
        2
302
GRIDFORMAT
  1
GRIDFORMAT_BEGIN
 90
        0
 91
        1
 62
     0
 92
       -2
340
0
 93
        0
 40
0.045
309
GRIDFORMAT_END
 95
        4
302
GRIDFORMAT
  1
GRIDFORMAT_BEGIN
 90
        0
 91
        1
 62
     0
 92
       -2
340
0
 93
        0
 40
0.045
309
GRIDFORMAT_END
 95
        8
302
GRIDFORMAT
  1
GRIDFORMAT_BEGIN
 90
        0
 91
        1
 62
     0
 92
       -2
340
0
 93
        0
 40
0.045
309
GRIDFORMAT_END
 95
       16
302
GRIDFORMAT
  1
GRIDFORMAT_BEGIN
 90
        0
 91
        1
 62
     0
 92
       -2
340
0
 93
        0
 40
0.045
309
GRIDFORMAT_END
 95
       32
302
GRIDFORMAT
  1
GRIDFORMAT_BEGIN
 90
        0
 91
        1
 62
     0
 92
       -2
340
0
 93
        0
 40
0.045
309
GRIDFORMAT_END
309
TABLEFORMAT_END
  1
CELLSTYLE_BEGIN
 90
        2
 91
        1
300
_HEADER
309
CELLSTYLE_END
300
CELLSTYLE
  1
TABLEFORMAT_BEGIN
 90
        5
170
     1
 91
        0
 92
        0
 62
   257
 93
        1
300
CONTENTFORMAT
  1
CONTENTFORMAT_BEGIN
 90
        0
 91
        0
 92
      512
 93
        0
300

 40
0.0
140
1.0
 94
        2
 62
     0
340
26
144
4.5
309
CONTENTFORMAT_END
171
     1
301
MARGIN
  1
CELLMARGIN_BEGIN
 40
1.5
 40
1.5
 40
1.5
 40
1.5
 40
0.18
 40
0.18
309
CELLMARGIN_END
 94
        6
 95
        1
302
GRIDFORMAT
  1
GRIDFORMAT_BEGIN
 90
        0
 91
        1
 62
     0
 92
       -2
340
0
 93
        0
 40
0.045
309
GRIDFORMAT_END
 95
        2
302
GRIDFORMAT
  1
GRIDFORMAT_BEGIN
 90
        0
 91
        1
 62
     0
 92
       -2
340
0
 93
        0
 40
0.045
309
GRIDFORMAT_END
 95
        4
302
GRIDFORMAT
  1
GRIDFORMAT_BEGIN
 90
        0
 91
        1
 62
     0
 92
       -2
340
0
 93
        0
 40
0.045
309
GRIDFORMAT_END
 95
        8
302
GRIDFORMAT
  1
GRIDFORMAT_BEGIN
 90
        0
 91
        1
 62
     0
 92
       -2
340
0
 93
        0
 40
0.045
309
GRIDFORMAT_END
 95
       16
302
GRIDFORMAT
  1
GRIDFORMAT_BEGIN
 90
        0
 91
        1
 62
     0
 92
       -2
340
0
 93
        0
 40
0.045
309
GRIDFORMAT_END
 95
       32
302
GRIDFORMAT
  1
GRIDFORMAT_BEGIN
 90
        0
 91
        1
 62
     0
 92
       -2
340
0
 93
        0
 40
0.045
309
GRIDFORMAT_END
309
TABLEFORMAT_END
  1
CELLSTYLE_BEGIN
 90
        3
 91
        2
300
_DATA
309
CELLSTYLE_END
  0
XRECORD
  5
9D9A
102
{ACAD_REACTORS
330
177A
102
}
330
177A
100
AcDbXrecord
280
     1
102
ACAD_ROUNDTRIP_PRE2007_TABLESTYLE
 90
      512
 91
        0
  1

 92
      512
 93
        0
  2

 94
      512
 95
        0
  3

  0
XRECORD
  5
9D85
102
{ACAD_REACTORS
330
9D84
102
}
330
9D84
100
AcDbXrecord
280
     1
102
RTVSPost2010Prop28
280
     1
102
RTVSPost2010PropOp28
 70
     1
102
RTVSPost2010Prop29
280
     1
102
RTVSPost2010PropOp29
 70
     1
102
RTVSPost2010Prop30
280
     0
102
RTVSPost2010PropOp30
 70
     1
102
RTVSPost2010Prop31
280
     0
102
RTVSPost2010PropOp31
 70
     1
102
RTVSPost2010Prop32
280
     0
102
RTVSPost2010PropOp32
 70
     1
102
RTVSPost2010Prop33
280
     0
102
RTVSPost2010PropOp33
 70
     1
102
RTVSPost2010Prop34
280
     0
102
RTVSPost2010PropOp34
 70
     1
102
RTVSPost2010Prop35
280
     0
102
RTVSPost2010PropOp35
 70
     1
102
RTVSPost2010Prop36
280
     0
102
RTVSPost2010PropOp36
 70
     1
102
RTVSPost2010Prop37
 90
       50
102
RTVSPost2010PropOp37
 70
     1
102
RTVSPost2010Prop38
140
0.0
102
RTVSPost2010PropOp38
 70
     1
102
RTVSPost2010Prop39
140
1.0
102
RTVSPost2010PropOp39
 70
     1
102
RTVSPost2010Prop40
 90
        0
102
RTVSPost2010PropOp40
 70
     1
102
RTVSPost2010Prop41ColorIndex
 90
       18
102
RTVSPost2010Prop41ColorRGB
 90
        0
102
RTVSPost2010PropOp41
 70
     1
102
RTVSPost2010Prop42
 90
       50
102
RTVSPost2010PropOp42
 70
     1
102
RTVSPost2010Prop43
 90
        3
102
RTVSPost2010PropOp43
 70
     1
102
RTVSPost2010Prop44ColorIndex
 90
        5
102
RTVSPost2010Prop44ColorRGB
 90
      255
102
RTVSPost2010PropOp44
 70
     1
102
RTVSPost2010Prop45
280
     0
102
RTVSPost2010PropOp45
 70
     1
102
RTVSPost2010Prop46
 90
       50
102
RTVSPost2010PropOp46
 70
     1
102
RTVSPost2010Prop47
 90
       50
102
RTVSPost2010PropOp47
 70
     1
102
RTVSPost2010Prop48
 90
       50
102
RTVSPost2010PropOp48
 70
     1
102
RTVSPost2010Prop49
280
     0
102
RTVSPost2010PropOp49
 70
     1
102
RTVSPost2010Prop50
 90
       50
102
RTVSPost2010PropOp50
 70
     1
102
RTVSPost2010Prop51ColorIndex
 90
      256
102
RTVSPost2010Prop51ColorRGB
 90
-16777216
102
RTVSPost2010PropOp51
 70
     0
102
RTVSPost2010Prop52
140
1.0
102
RTVSPost2010PropOp52
 70
     0
102
RTVSPost2010Prop53
 90
        2
102
RTVSPost2010PropOp53
 70
     1
102
RTVSPost2010Prop54
  1
strokes_ogs.tif
102
RTVSPost2010PropOp54
 70
     1
102
RTVSPost2010Prop55
280
     0
102
RTVSPost2010PropOp55
 70
     1
102
RTVSPost2010Prop56
140
1.0
102
RTVSPost2010PropOp56
 70
     1
102
RTVSPost2010Prop57
140
1.0
102
RTVSPost2010PropOp57
 70
     1
102
RTVSPropertyOp0
 70
     1
102
RTVSPropertyOp1
 70
     1
102
RTVSPropertyOp2
 70
     1
102
RTVSPropertyOp3
 70
     1
102
RTVSPropertyOp4
 70
     1
102
RTVSPropertyOp5
 70
     1
102
RTVSPropertyOp6
 70
     1
102
RTVSPropertyOp7
 70
     1
102
RTVSPropertyOp8
 70
     1
102
RTVSPropertyOp9
 70
     1
102
RTVSPropertyOp10
 70
     1
102
RTVSPropertyOp11
 70
     1
102
RTVSPropertyOp12
 70
     1
102
RTVSPropertyOp13
 70
     1
102
RTVSPropertyOp14
 70
     1
102
RTVSPropertyOp15
 70
     1
102
RTVSPropertyOp16
 70
     1
102
RTVSPropertyOp17
 70
     1
102
RTVSPropertyOp18
 70
     1
102
RTVSPropertyOp19
 70
     1
102
RTVSPropertyOp20
 70
     1
102
RTVSPropertyOp21
 70
     1
102
RTVSPropertyOp22
 70
     1
102
RTVSPropertyOp23
 70
     1
102
RTVSPropertyOp24
 70
     1
102
RTVSPropertyOp25
 70
     1
102
RTVSPropertyOp26
 70
     1
102
RTVSPropertyOp27
 70
     1
102
RTVSPropertyOp28
 70
     1
102
RTVSPropertyOp29
 70
     1
102
RTVSPropertyOp30
 70
     1
102
RTVSPropertyOp31
 70
     1
102
RTVSPropertyOp32
 70
     1
102
RTVSPropertyOp33
 70
     1
102
RTVSPropertyOp34
 70
     1
102
RTVSPropertyOp35
 70
     1
102
RTVSPropertyOp36
 70
     1
102
RTVSPropertyOp37
 70
     1
102
RTVSPropertyOp38
 70
     1
102
RTVSPropertyOp39
 70
     1
102
RTVSPropertyOp40
 70
     1
102
RTVSPropertyOp41
 70
     1
102
RTVSPropertyOp42
 70
     1
102
RTVSPropertyOp43
 70
     1
102
RTVSPropertyOp44
 70
     1
102
RTVSPropertyOp45
 70
     1
102
RTVSPropertyOp46
 70
     1
102
RTVSPropertyOp47
 70
     1
102
RTVSPropertyOp48
 70
     1
102
RTVSPropertyOp49
 70
     1
102
RTVSPropertyOp50
 70
     1
102
RTVSPropertyOp51
 70
     0
102
RTVSPropertyOp52
 70
     0
102
RTVSPropertyOp53
 70
     1
102
RTVSPropertyOp54
 70
     1
102
RTVSPropertyOp55
 70
     1
102
RTVSPropertyOp56
 70
     1
102
RTVSPropertyOp57
 70
     1
102
RTVSPropertyOp58
 70
     1
102
RTVSPropertyOp59
 70
     1
102
RTVSPropertyOp60
 70
     1
102
RTVSPropertyOp61
 70
     1
102
RTVSPropertyOp62
 70
     1
  0
XRECORD
  5
9D89
102
{ACAD_REACTORS
330
9D88
102
}
330
9D88
100
AcDbXrecord
280
     1
102
RTVSPost2010Prop28
280
     0
102
RTVSPost2010PropOp28
 70
     1
102
RTVSPost2010Prop29
280
     1
102
RTVSPost2010PropOp29
 70
     1
102
RTVSPost2010Prop30
280
     1
102
RTVSPost2010PropOp30
 70
     1
102
RTVSPost2010Prop31
280
     0
102
RTVSPost2010PropOp31
 70
     1
102
RTVSPost2010Prop32
280
     0
102
RTVSPost2010PropOp32
 70
     1
102
RTVSPost2010Prop33
280
     0
102
RTVSPost2010PropOp33
 70
     1
102
RTVSPost2010Prop34
280
     0
102
RTVSPost2010PropOp34
 70
     1
102
RTVSPost2010Prop35
280
     0
102
RTVSPost2010PropOp35
 70
     1
102
RTVSPost2010Prop36
280
     0
102
RTVSPost2010PropOp36
 70
     1
102
RTVSPost2010Prop37
 90
       50
102
RTVSPost2010PropOp37
 70
     1
102
RTVSPost2010Prop38
140
0.0
102
RTVSPost2010PropOp38
 70
     1
102
RTVSPost2010Prop39
140
1.0
102
RTVSPost2010PropOp39
 70
     1
102
RTVSPost2010Prop40
 90
        0
102
RTVSPost2010PropOp40
 70
     1
102
RTVSPost2010Prop41ColorIndex
 90
       18
102
RTVSPost2010Prop41ColorRGB
 90
        0
102
RTVSPost2010PropOp41
 70
     1
102
RTVSPost2010Prop42
 90
       50
102
RTVSPost2010PropOp42
 70
     1
102
RTVSPost2010Prop43
 90
        3
102
RTVSPost2010PropOp43
 70
     1
102
RTVSPost2010Prop44ColorIndex
 90
        5
102
RTVSPost2010Prop44ColorRGB
 90
      255
102
RTVSPost2010PropOp44
 70
     1
102
RTVSPost2010Prop45
280
     0
102
RTVSPost2010PropOp45
 70
     1
102
RTVSPost2010Prop46
 90
       50
102
RTVSPost2010PropOp46
 70
     1
102
RTVSPost2010Prop47
 90
       50
102
RTVSPost2010PropOp47
 70
     1
102
RTVSPost2010Prop48
 90
       50
102
RTVSPost2010PropOp48
 70
     1
102
RTVSPost2010Prop49
280
     0
102
RTVSPost2010PropOp49
 70
     1
102
RTVSPost2010Prop50
 90
       50
102
RTVSPost2010PropOp50
 70
     1
102
RTVSPost2010Prop51ColorIndex
 90
      256
102
RTVSPost2010Prop51ColorRGB
 90
-16777216
102
RTVSPost2010PropOp51
 70
     0
102
RTVSPost2010Prop52
140
1.0
102
RTVSPost2010PropOp52
 70
     0
102
RTVSPost2010Prop53
 90
        2
102
RTVSPost2010PropOp53
 70
     1
102
RTVSPost2010Prop54
  1
strokes_ogs.tif
102
RTVSPost2010PropOp54
 70
     1
102
RTVSPost2010Prop55
280
     0
102
RTVSPost2010PropOp55
 70
     1
102
RTVSPost2010Prop56
140
1.0
102
RTVSPost2010PropOp56
 70
     1
102
RTVSPost2010Prop57
140
1.0
102
RTVSPost2010PropOp57
 70
     1
102
RTVSPropertyOp0
 70
     1
102
RTVSPropertyOp1
 70
     1
102
RTVSPropertyOp2
 70
     1
102
RTVSPropertyOp3
 70
     1
102
RTVSPropertyOp4
 70
     1
102
RTVSPropertyOp5
 70
     1
102
RTVSPropertyOp6
 70
     1
102
RTVSPropertyOp7
 70
     1
102
RTVSPropertyOp8
 70
     1
102
RTVSPropertyOp9
 70
     1
102
RTVSPropertyOp10
 70
     1
102
RTVSPropertyOp11
 70
     1
102
RTVSPropertyOp12
 70
     1
102
RTVSPropertyOp13
 70
     1
102
RTVSPropertyOp14
 70
     1
102
RTVSPropertyOp15
 70
     1
102
RTVSPropertyOp16
 70
     1
102
RTVSPropertyOp17
 70
     1
102
RTVSPropertyOp18
 70
     1
102
RTVSPropertyOp19
 70
     1
102
RTVSPropertyOp20
 70
     1
102
RTVSPropertyOp21
 70
     1
102
RTVSPropertyOp22
 70
     1
102
RTVSPropertyOp23
 70
     1
102
RTVSPropertyOp24
 70
     1
102
RTVSPropertyOp25
 70
     1
102
RTVSPropertyOp26
 70
     1
102
RTVSPropertyOp27
 70
     1
102
RTVSPropertyOp28
 70
     1
102
RTVSPropertyOp29
 70
     1
102
RTVSPropertyOp30
 70
     1
102
RTVSPropertyOp31
 70
     1
102
RTVSPropertyOp32
 70
     1
102
RTVSPropertyOp33
 70
     1
102
RTVSPropertyOp34
 70
     1
102
RTVSPropertyOp35
 70
     1
102
RTVSPropertyOp36
 70
     1
102
RTVSPropertyOp37
 70
     1
102
RTVSPropertyOp38
 70
     1
102
RTVSPropertyOp39
 70
     1
102
RTVSPropertyOp40
 70
     1
102
RTVSPropertyOp41
 70
     1
102
RTVSPropertyOp42
 70
     1
102
RTVSPropertyOp43
 70
     1
102
RTVSPropertyOp44
 70
     1
102
RTVSPropertyOp45
 70
     1
102
RTVSPropertyOp46
 70
     1
102
RTVSPropertyOp47
 70
     1
102
RTVSPropertyOp48
 70
     1
102
RTVSPropertyOp49
 70
     1
102
RTVSPropertyOp50
 70
     1
102
RTVSPropertyOp51
 70
     0
102
RTVSPropertyOp52
 70
     0
102
RTVSPropertyOp53
 70
     1
102
RTVSPropertyOp54
 70
     1
102
RTVSPropertyOp55
 70
     1
102
RTVSPropertyOp56
 70
     1
102
RTVSPropertyOp57
 70
     1
102
RTVSPropertyOp58
 70
     1
102
RTVSPropertyOp59
 70
     1
102
RTVSPropertyOp60
 70
     1
102
RTVSPropertyOp61
 70
     1
102
RTVSPropertyOp62
 70
     1
  0
XRECORD
  5
9D87
102
{ACAD_REACTORS
330
9D86
102
}
330
9D86
100
AcDbXrecord
280
     1
102
RTVSPost2010Prop28
280
     0
102
RTVSPost2010PropOp28
 70
     1
102
RTVSPost2010Prop29
280
     1
102
RTVSPost2010PropOp29
 70
     1
102
RTVSPost2010Prop30
280
     1
102
RTVSPost2010PropOp30
 70
     1
102
RTVSPost2010Prop31
280
     0
102
RTVSPost2010PropOp31
 70
     1
102
RTVSPost2010Prop32
280
     0
102
RTVSPost2010PropOp32
 70
     1
102
RTVSPost2010Prop33
280
     0
102
RTVSPost2010PropOp33
 70
     1
102
RTVSPost2010Prop34
280
     0
102
RTVSPost2010PropOp34
 70
     1
102
RTVSPost2010Prop35
280
     0
102
RTVSPost2010PropOp35
 70
     1
102
RTVSPost2010Prop36
280
     0
102
RTVSPost2010PropOp36
 70
     1
102
RTVSPost2010Prop37
 90
       50
102
RTVSPost2010PropOp37
 70
     1
102
RTVSPost2010Prop38
140
0.0
102
RTVSPost2010PropOp38
 70
     1
102
RTVSPost2010Prop39
140
1.0
102
RTVSPost2010PropOp39
 70
     1
102
RTVSPost2010Prop40
 90
        0
102
RTVSPost2010PropOp40
 70
     1
102
RTVSPost2010Prop41ColorIndex
 90
       18
102
RTVSPost2010Prop41ColorRGB
 90
        0
102
RTVSPost2010PropOp41
 70
     1
102
RTVSPost2010Prop42
 90
       50
102
RTVSPost2010PropOp42
 70
     1
102
RTVSPost2010Prop43
 90
        3
102
RTVSPost2010PropOp43
 70
     1
102
RTVSPost2010Prop44ColorIndex
 90
        5
102
RTVSPost2010Prop44ColorRGB
 90
      255
102
RTVSPost2010PropOp44
 70
     1
102
RTVSPost2010Prop45
280
     0
102
RTVSPost2010PropOp45
 70
     1
102
RTVSPost2010Prop46
 90
       50
102
RTVSPost2010PropOp46
 70
     1
102
RTVSPost2010Prop47
 90
       50
102
RTVSPost2010PropOp47
 70
     1
102
RTVSPost2010Prop48
 90
       50
102
RTVSPost2010PropOp48
 70
     1
102
RTVSPost2010Prop49
280
     0
102
RTVSPost2010PropOp49
 70
     1
102
RTVSPost2010Prop50
 90
       50
102
RTVSPost2010PropOp50
 70
     1
102
RTVSPost2010Prop51ColorIndex
 90
      256
102
RTVSPost2010Prop51ColorRGB
 90
-16777216
102
RTVSPost2010PropOp51
 70
     0
102
RTVSPost2010Prop52
140
1.0
102
RTVSPost2010PropOp52
 70
     0
102
RTVSPost2010Prop53
 90
        2
102
RTVSPost2010PropOp53
 70
     1
102
RTVSPost2010Prop54
  1
strokes_ogs.tif
102
RTVSPost2010PropOp54
 70
     1
102
RTVSPost2010Prop55
280
     0
102
RTVSPost2010PropOp55
 70
     1
102
RTVSPost2010Prop56
140
1.0
102
RTVSPost2010PropOp56
 70
     1
102
RTVSPost2010Prop57
140
1.0
102
RTVSPost2010PropOp57
 70
     1
102
RTVSPropertyOp0
 70
     1
102
RTVSPropertyOp1
 70
     1
102
RTVSPropertyOp2
 70
     1
102
RTVSPropertyOp3
 70
     1
102
RTVSPropertyOp4
 70
     1
102
RTVSPropertyOp5
 70
     1
102
RTVSPropertyOp6
 70
     1
102
RTVSPropertyOp7
 70
     1
102
RTVSPropertyOp8
 70
     1
102
RTVSPropertyOp9
 70
     1
102
RTVSPropertyOp10
 70
     1
102
RTVSPropertyOp11
 70
     1
102
RTVSPropertyOp12
 70
     1
102
RTVSPropertyOp13
 70
     1
102
RTVSPropertyOp14
 70
     1
102
RTVSPropertyOp15
 70
     1
102
RTVSPropertyOp16
 70
     1
102
RTVSPropertyOp17
 70
     1
102
RTVSPropertyOp18
 70
     1
102
RTVSPropertyOp19
 70
     1
102
RTVSPropertyOp20
 70
     1
102
RTVSPropertyOp21
 70
     1
102
RTVSPropertyOp22
 70
     1
102
RTVSPropertyOp23
 70
     1
102
RTVSPropertyOp24
 70
     1
102
RTVSPropertyOp25
 70
     1
102
RTVSPropertyOp26
 70
     1
102
RTVSPropertyOp27
 70
     1
102
RTVSPropertyOp28
 70
     1
102
RTVSPropertyOp29
 70
     1
102
RTVSPropertyOp30
 70
     1
102
RTVSPropertyOp31
 70
     1
102
RTVSPropertyOp32
 70
     1
102
RTVSPropertyOp33
 70
     1
102
RTVSPropertyOp34
 70
     1
102
RTVSPropertyOp35
 70
     1
102
RTVSPropertyOp36
 70
     1
102
RTVSPropertyOp37
 70
     1
102
RTVSPropertyOp38
 70
     1
102
RTVSPropertyOp39
 70
     1
102
RTVSPropertyOp40
 70
     1
102
RTVSPropertyOp41
 70
     1
102
RTVSPropertyOp42
 70
     1
102
RTVSPropertyOp43
 70
     1
102
RTVSPropertyOp44
 70
     1
102
RTVSPropertyOp45
 70
     1
102
RTVSPropertyOp46
 70
     1
102
RTVSPropertyOp47
 70
     1
102
RTVSPropertyOp48
 70
     1
102
RTVSPropertyOp49
 70
     1
102
RTVSPropertyOp50
 70
     1
102
RTVSPropertyOp51
 70
     0
102
RTVSPropertyOp52
 70
     0
102
RTVSPropertyOp53
 70
     1
102
RTVSPropertyOp54
 70
     1
102
RTVSPropertyOp55
 70
     1
102
RTVSPropertyOp56
 70
     1
102
RTVSPropertyOp57
 70
     1
102
RTVSPropertyOp58
 70
     1
102
RTVSPropertyOp59
 70
     1
102
RTVSPropertyOp60
 70
     1
102
RTVSPropertyOp61
 70
     1
102
RTVSPropertyOp62
 70
     1
  0
XRECORD
  5
9D83
102
{ACAD_REACTORS
330
9D82
102
}
330
9D82
100
AcDbXrecord
280
     1
102
RTVSPost2010Prop28
280
     0
102
RTVSPost2010PropOp28
 70
     1
102
RTVSPost2010Prop29
280
     1
102
RTVSPost2010PropOp29
 70
     1
102
RTVSPost2010Prop30
280
     1
102
RTVSPost2010PropOp30
 70
     1
102
RTVSPost2010Prop31
280
     0
102
RTVSPost2010PropOp31
 70
     1
102
RTVSPost2010Prop32
280
     0
102
RTVSPost2010PropOp32
 70
     1
102
RTVSPost2010Prop33
280
     0
102
RTVSPost2010PropOp33
 70
     1
102
RTVSPost2010Prop34
280
     0
102
RTVSPost2010PropOp34
 70
     1
102
RTVSPost2010Prop35
280
     0
102
RTVSPost2010PropOp35
 70
     1
102
RTVSPost2010Prop36
280
     0
102
RTVSPost2010PropOp36
 70
     1
102
RTVSPost2010Prop37
 90
       50
102
RTVSPost2010PropOp37
 70
     1
102
RTVSPost2010Prop38
140
0.0
102
RTVSPost2010PropOp38
 70
     1
102
RTVSPost2010Prop39
140
1.0
102
RTVSPost2010PropOp39
 70
     1
102
RTVSPost2010Prop40
 90
        0
102
RTVSPost2010PropOp40
 70
     1
102
RTVSPost2010Prop41ColorIndex
 90
       18
102
RTVSPost2010Prop41ColorRGB
 90
        0
102
RTVSPost2010PropOp41
 70
     1
102
RTVSPost2010Prop42
 90
       50
102
RTVSPost2010PropOp42
 70
     1
102
RTVSPost2010Prop43
 90
        3
102
RTVSPost2010PropOp43
 70
     1
102
RTVSPost2010Prop44ColorIndex
 90
        5
102
RTVSPost2010Prop44ColorRGB
 90
      255
102
RTVSPost2010PropOp44
 70
     1
102
RTVSPost2010Prop45
280
     0
102
RTVSPost2010PropOp45
 70
     1
102
RTVSPost2010Prop46
 90
       50
102
RTVSPost2010PropOp46
 70
     1
102
RTVSPost2010Prop47
 90
       50
102
RTVSPost2010PropOp47
 70
     1
102
RTVSPost2010Prop48
 90
       50
102
RTVSPost2010PropOp48
 70
     1
102
RTVSPost2010Prop49
280
     0
102
RTVSPost2010PropOp49
 70
     1
102
RTVSPost2010Prop50
 90
       50
102
RTVSPost2010PropOp50
 70
     1
102
RTVSPost2010Prop51ColorIndex
 90
      256
102
RTVSPost2010Prop51ColorRGB
 90
-16777216
102
RTVSPost2010PropOp51
 70
     0
102
RTVSPost2010Prop52
140
1.0
102
RTVSPost2010PropOp52
 70
     0
102
RTVSPost2010Prop53
 90
        2
102
RTVSPost2010PropOp53
 70
     1
102
RTVSPost2010Prop54
  1
strokes_ogs.tif
102
RTVSPost2010PropOp54
 70
     1
102
RTVSPost2010Prop55
280
     0
102
RTVSPost2010PropOp55
 70
     1
102
RTVSPost2010Prop56
140
1.0
102
RTVSPost2010PropOp56
 70
     1
102
RTVSPost2010Prop57
140
1.0
102
RTVSPost2010PropOp57
 70
     1
102
RTVSPropertyOp0
 70
     1
102
RTVSPropertyOp1
 70
     1
102
RTVSPropertyOp2
 70
     1
102
RTVSPropertyOp3
 70
     1
102
RTVSPropertyOp4
 70
     1
102
RTVSPropertyOp5
 70
     1
102
RTVSPropertyOp6
 70
     1
102
RTVSPropertyOp7
 70
     1
102
RTVSPropertyOp8
 70
     1
102
RTVSPropertyOp9
 70
     1
102
RTVSPropertyOp10
 70
     1
102
RTVSPropertyOp11
 70
     1
102
RTVSPropertyOp12
 70
     1
102
RTVSPropertyOp13
 70
     1
102
RTVSPropertyOp14
 70
     1
102
RTVSPropertyOp15
 70
     1
102
RTVSPropertyOp16
 70
     1
102
RTVSPropertyOp17
 70
     1
102
RTVSPropertyOp18
 70
     1
102
RTVSPropertyOp19
 70
     1
102
RTVSPropertyOp20
 70
     1
102
RTVSPropertyOp21
 70
     1
102
RTVSPropertyOp22
 70
     1
102
RTVSPropertyOp23
 70
     1
102
RTVSPropertyOp24
 70
     1
102
RTVSPropertyOp25
 70
     1
102
RTVSPropertyOp26
 70
     1
102
RTVSPropertyOp27
 70
     1
102
RTVSPropertyOp28
 70
     1
102
RTVSPropertyOp29
 70
     1
102
RTVSPropertyOp30
 70
     1
102
RTVSPropertyOp31
 70
     1
102
RTVSPropertyOp32
 70
     1
102
RTVSPropertyOp33
 70
     1
102
RTVSPropertyOp34
 70
     1
102
RTVSPropertyOp35
 70
     1
102
RTVSPropertyOp36
 70
     1
102
RTVSPropertyOp37
 70
     1
102
RTVSPropertyOp38
 70
     1
102
RTVSPropertyOp39
 70
     1
102
RTVSPropertyOp40
 70
     1
102
RTVSPropertyOp41
 70
     1
102
RTVSPropertyOp42
 70
     1
102
RTVSPropertyOp43
 70
     1
102
RTVSPropertyOp44
 70
     1
102
RTVSPropertyOp45
 70
     1
102
RTVSPropertyOp46
 70
     1
102
RTVSPropertyOp47
 70
     1
102
RTVSPropertyOp48
 70
     1
102
RTVSPropertyOp49
 70
     1
102
RTVSPropertyOp50
 70
     1
102
RTVSPropertyOp51
 70
     0
102
RTVSPropertyOp52
 70
     0
102
RTVSPropertyOp53
 70
     1
102
RTVSPropertyOp54
 70
     1
102
RTVSPropertyOp55
 70
     1
102
RTVSPropertyOp56
 70
     1
102
RTVSPropertyOp57
 70
     1
102
RTVSPropertyOp58
 70
     1
102
RTVSPropertyOp59
 70
     1
102
RTVSPropertyOp60
 70
     1
102
RTVSPropertyOp61
 70
     1
102
RTVSPropertyOp62
 70
     1
  0
XRECORD
  5
9D91
102
{ACAD_REACTORS
330
9D90
102
}
330
9D90
100
AcDbXrecord
280
     1
102
RTVSPost2010Prop28
280
     0
102
RTVSPost2010PropOp28
 70
     1
102
RTVSPost2010Prop29
280
     1
102
RTVSPost2010PropOp29
 70
     1
102
RTVSPost2010Prop30
280
     1
102
RTVSPost2010PropOp30
 70
     1
102
RTVSPost2010Prop31
280
     0
102
RTVSPost2010PropOp31
 70
     1
102
RTVSPost2010Prop32
280
     0
102
RTVSPost2010PropOp32
 70
     1
102
RTVSPost2010Prop33
280
     0
102
RTVSPost2010PropOp33
 70
     1
102
RTVSPost2010Prop34
280
     0
102
RTVSPost2010PropOp34
 70
     1
102
RTVSPost2010Prop35
280
     0
102
RTVSPost2010PropOp35
 70
     1
102
RTVSPost2010Prop36
280
     0
102
RTVSPost2010PropOp36
 70
     1
102
RTVSPost2010Prop37
 90
       50
102
RTVSPost2010PropOp37
 70
     1
102
RTVSPost2010Prop38
140
0.0
102
RTVSPost2010PropOp38
 70
     1
102
RTVSPost2010Prop39
140
1.0
102
RTVSPost2010PropOp39
 70
     1
102
RTVSPost2010Prop40
 90
        0
102
RTVSPost2010PropOp40
 70
     1
102
RTVSPost2010Prop41ColorIndex
 90
       18
102
RTVSPost2010Prop41ColorRGB
 90
        0
102
RTVSPost2010PropOp41
 70
     1
102
RTVSPost2010Prop42
 90
       50
102
RTVSPost2010PropOp42
 70
     1
102
RTVSPost2010Prop43
 90
        3
102
RTVSPost2010PropOp43
 70
     1
102
RTVSPost2010Prop44ColorIndex
 90
        5
102
RTVSPost2010Prop44ColorRGB
 90
      255
102
RTVSPost2010PropOp44
 70
     1
102
RTVSPost2010Prop45
280
     0
102
RTVSPost2010PropOp45
 70
     1
102
RTVSPost2010Prop46
 90
       50
102
RTVSPost2010PropOp46
 70
     1
102
RTVSPost2010Prop47
 90
       50
102
RTVSPost2010PropOp47
 70
     1
102
RTVSPost2010Prop48
 90
       50
102
RTVSPost2010PropOp48
 70
     1
102
RTVSPost2010Prop49
280
     0
102
RTVSPost2010PropOp49
 70
     1
102
RTVSPost2010Prop50
 90
       50
102
RTVSPost2010PropOp50
 70
     1
102
RTVSPost2010Prop51ColorIndex
 90
      256
102
RTVSPost2010Prop51ColorRGB
 90
-16777216
102
RTVSPost2010PropOp51
 70
     0
102
RTVSPost2010Prop52
140
1.0
102
RTVSPost2010PropOp52
 70
     0
102
RTVSPost2010Prop53
 90
        2
102
RTVSPost2010PropOp53
 70
     1
102
RTVSPost2010Prop54
  1
strokes_ogs.tif
102
RTVSPost2010PropOp54
 70
     1
102
RTVSPost2010Prop55
280
     0
102
RTVSPost2010PropOp55
 70
     1
102
RTVSPost2010Prop56
140
1.0
102
RTVSPost2010PropOp56
 70
     1
102
RTVSPost2010Prop57
140
1.0
102
RTVSPost2010PropOp57
 70
     1
102
RTVSPropertyOp0
 70
     1
102
RTVSPropertyOp1
 70
     1
102
RTVSPropertyOp2
 70
     1
102
RTVSPropertyOp3
 70
     1
102
RTVSPropertyOp4
 70
     1
102
RTVSPropertyOp5
 70
     1
102
RTVSPropertyOp6
 70
     1
102
RTVSPropertyOp7
 70
     1
102
RTVSPropertyOp8
 70
     1
102
RTVSPropertyOp9
 70
     1
102
RTVSPropertyOp10
 70
     1
102
RTVSPropertyOp11
 70
     1
102
RTVSPropertyOp12
 70
     1
102
RTVSPropertyOp13
 70
     1
102
RTVSPropertyOp14
 70
     1
102
RTVSPropertyOp15
 70
     1
102
RTVSPropertyOp16
 70
     1
102
RTVSPropertyOp17
 70
     1
102
RTVSPropertyOp18
 70
     1
102
RTVSPropertyOp19
 70
     1
102
RTVSPropertyOp20
 70
     1
102
RTVSPropertyOp21
 70
     1
102
RTVSPropertyOp22
 70
     1
102
RTVSPropertyOp23
 70
     1
102
RTVSPropertyOp24
 70
     1
102
RTVSPropertyOp25
 70
     1
102
RTVSPropertyOp26
 70
     1
102
RTVSPropertyOp27
 70
     1
102
RTVSPropertyOp28
 70
     1
102
RTVSPropertyOp29
 70
     1
102
RTVSPropertyOp30
 70
     1
102
RTVSPropertyOp31
 70
     1
102
RTVSPropertyOp32
 70
     1
102
RTVSPropertyOp33
 70
     1
102
RTVSPropertyOp34
 70
     1
102
RTVSPropertyOp35
 70
     1
102
RTVSPropertyOp36
 70
     1
102
RTVSPropertyOp37
 70
     1
102
RTVSPropertyOp38
 70
     1
102
RTVSPropertyOp39
 70
     1
102
RTVSPropertyOp40
 70
     1
102
RTVSPropertyOp41
 70
     1
102
RTVSPropertyOp42
 70
     1
102
RTVSPropertyOp43
 70
     1
102
RTVSPropertyOp44
 70
     1
102
RTVSPropertyOp45
 70
     1
102
RTVSPropertyOp46
 70
     1
102
RTVSPropertyOp47
 70
     1
102
RTVSPropertyOp48
 70
     1
102
RTVSPropertyOp49
 70
     1
102
RTVSPropertyOp50
 70
     1
102
RTVSPropertyOp51
 70
     0
102
RTVSPropertyOp52
 70
     0
102
RTVSPropertyOp53
 70
     1
102
RTVSPropertyOp54
 70
     1
102
RTVSPropertyOp55
 70
     1
102
RTVSPropertyOp56
 70
     1
102
RTVSPropertyOp57
 70
     1
102
RTVSPropertyOp58
 70
     1
102
RTVSPropertyOp59
 70
     1
102
RTVSPropertyOp60
 70
     1
102
RTVSPropertyOp61
 70
     1
102
RTVSPropertyOp62
 70
     1
  0
XRECORD
  5
9D99
102
{ACAD_REACTORS
330
9D98
102
}
330
9D98
100
AcDbXrecord
280
     1
102
RTVSPost2010Prop28
280
     0
102
RTVSPost2010PropOp28
 70
     1
102
RTVSPost2010Prop29
280
     1
102
RTVSPost2010PropOp29
 70
     1
102
RTVSPost2010Prop30
280
     1
102
RTVSPost2010PropOp30
 70
     1
102
RTVSPost2010Prop31
280
     0
102
RTVSPost2010PropOp31
 70
     1
102
RTVSPost2010Prop32
280
     0
102
RTVSPost2010PropOp32
 70
     1
102
RTVSPost2010Prop33
280
     0
102
RTVSPost2010PropOp33
 70
     1
102
RTVSPost2010Prop34
280
     0
102
RTVSPost2010PropOp34
 70
     1
102
RTVSPost2010Prop35
280
     0
102
RTVSPost2010PropOp35
 70
     1
102
RTVSPost2010Prop36
280
     0
102
RTVSPost2010PropOp36
 70
     1
102
RTVSPost2010Prop37
 90
       50
102
RTVSPost2010PropOp37
 70
     1
102
RTVSPost2010Prop38
140
0.0
102
RTVSPost2010PropOp38
 70
     1
102
RTVSPost2010Prop39
140
1.0
102
RTVSPost2010PropOp39
 70
     1
102
RTVSPost2010Prop40
 90
        0
102
RTVSPost2010PropOp40
 70
     1
102
RTVSPost2010Prop41ColorIndex
 90
       18
102
RTVSPost2010Prop41ColorRGB
 90
        0
102
RTVSPost2010PropOp41
 70
     1
102
RTVSPost2010Prop42
 90
       50
102
RTVSPost2010PropOp42
 70
     1
102
RTVSPost2010Prop43
 90
        3
102
RTVSPost2010PropOp43
 70
     1
102
RTVSPost2010Prop44ColorIndex
 90
        5
102
RTVSPost2010Prop44ColorRGB
 90
      255
102
RTVSPost2010PropOp44
 70
     1
102
RTVSPost2010Prop45
280
     0
102
RTVSPost2010PropOp45
 70
     1
102
RTVSPost2010Prop46
 90
       50
102
RTVSPost2010PropOp46
 70
     1
102
RTVSPost2010Prop47
 90
       50
102
RTVSPost2010PropOp47
 70
     1
102
RTVSPost2010Prop48
 90
       50
102
RTVSPost2010PropOp48
 70
     1
102
RTVSPost2010Prop49
280
     0
102
RTVSPost2010PropOp49
 70
     1
102
RTVSPost2010Prop50
 90
       50
102
RTVSPost2010PropOp50
 70
     1
102
RTVSPost2010Prop51ColorIndex
 90
      256
102
RTVSPost2010Prop51ColorRGB
 90
-16777216
102
RTVSPost2010PropOp51
 70
     0
102
RTVSPost2010Prop52
140
1.0
102
RTVSPost2010PropOp52
 70
     0
102
RTVSPost2010Prop53
 90
        2
102
RTVSPost2010PropOp53
 70
     1
102
RTVSPost2010Prop54
  1
strokes_ogs.tif
102
RTVSPost2010PropOp54
 70
     1
102
RTVSPost2010Prop55
280
     0
102
RTVSPost2010PropOp55
 70
     1
102
RTVSPost2010Prop56
140
1.0
102
RTVSPost2010PropOp56
 70
     1
102
RTVSPost2010Prop57
140
1.0
102
RTVSPost2010PropOp57
 70
     1
102
RTVSPropertyOp0
 70
     1
102
RTVSPropertyOp1
 70
     1
102
RTVSPropertyOp2
 70
     1
102
RTVSPropertyOp3
 70
     1
102
RTVSPropertyOp4
 70
     1
102
RTVSPropertyOp5
 70
     1
102
RTVSPropertyOp6
 70
     1
102
RTVSPropertyOp7
 70
     1
102
RTVSPropertyOp8
 70
     1
102
RTVSPropertyOp9
 70
     1
102
RTVSPropertyOp10
 70
     1
102
RTVSPropertyOp11
 70
     1
102
RTVSPropertyOp12
 70
     1
102
RTVSPropertyOp13
 70
     1
102
RTVSPropertyOp14
 70
     1
102
RTVSPropertyOp15
 70
     1
102
RTVSPropertyOp16
 70
     1
102
RTVSPropertyOp17
 70
     1
102
RTVSPropertyOp18
 70
     1
102
RTVSPropertyOp19
 70
     1
102
RTVSPropertyOp20
 70
     1
102
RTVSPropertyOp21
 70
     1
102
RTVSPropertyOp22
 70
     1
102
RTVSPropertyOp23
 70
     1
102
RTVSPropertyOp24
 70
     1
102
RTVSPropertyOp25
 70
     1
102
RTVSPropertyOp26
 70
     1
102
RTVSPropertyOp27
 70
     1
102
RTVSPropertyOp28
 70
     1
102
RTVSPropertyOp29
 70
     1
102
RTVSPropertyOp30
 70
     1
102
RTVSPropertyOp31
 70
     1
102
RTVSPropertyOp32
 70
     1
102
RTVSPropertyOp33
 70
     1
102
RTVSPropertyOp34
 70
     1
102
RTVSPropertyOp35
 70
     1
102
RTVSPropertyOp36
 70
     1
102
RTVSPropertyOp37
 70
     1
102
RTVSPropertyOp38
 70
     1
102
RTVSPropertyOp39
 70
     1
102
RTVSPropertyOp40
 70
     1
102
RTVSPropertyOp41
 70
     1
102
RTVSPropertyOp42
 70
     1
102
RTVSPropertyOp43
 70
     1
102
RTVSPropertyOp44
 70
     1
102
RTVSPropertyOp45
 70
     1
102
RTVSPropertyOp46
 70
     1
102
RTVSPropertyOp47
 70
     1
102
RTVSPropertyOp48
 70
     1
102
RTVSPropertyOp49
 70
     1
102
RTVSPropertyOp50
 70
     1
102
RTVSPropertyOp51
 70
     0
102
RTVSPropertyOp52
 70
     0
102
RTVSPropertyOp53
 70
     1
102
RTVSPropertyOp54
 70
     1
102
RTVSPropertyOp55
 70
     1
102
RTVSPropertyOp56
 70
     1
102
RTVSPropertyOp57
 70
     1
102
RTVSPropertyOp58
 70
     1
102
RTVSPropertyOp59
 70
     1
102
RTVSPropertyOp60
 70
     1
102
RTVSPropertyOp61
 70
     1
102
RTVSPropertyOp62
 70
     1
  0
XRECORD
  5
9D8B
102
{ACAD_REACTORS
330
9D8A
102
}
330
9D8A
100
AcDbXrecord
280
     1
102
RTVSPost2010Prop28
280
     0
102
RTVSPost2010PropOp28
 70
     1
102
RTVSPost2010Prop29
280
     1
102
RTVSPost2010PropOp29
 70
     1
102
RTVSPost2010Prop30
280
     1
102
RTVSPost2010PropOp30
 70
     1
102
RTVSPost2010Prop31
280
     0
102
RTVSPost2010PropOp31
 70
     1
102
RTVSPost2010Prop32
280
     0
102
RTVSPost2010PropOp32
 70
     1
102
RTVSPost2010Prop33
280
     0
102
RTVSPost2010PropOp33
 70
     1
102
RTVSPost2010Prop34
280
     0
102
RTVSPost2010PropOp34
 70
     1
102
RTVSPost2010Prop35
280
     0
102
RTVSPost2010PropOp35
 70
     1
102
RTVSPost2010Prop36
280
     0
102
RTVSPost2010PropOp36
 70
     1
102
RTVSPost2010Prop37
 90
       50
102
RTVSPost2010PropOp37
 70
     1
102
RTVSPost2010Prop38
140
0.0
102
RTVSPost2010PropOp38
 70
     1
102
RTVSPost2010Prop39
140
1.0
102
RTVSPost2010PropOp39
 70
     1
102
RTVSPost2010Prop40
 90
        0
102
RTVSPost2010PropOp40
 70
     1
102
RTVSPost2010Prop41ColorIndex
 90
       18
102
RTVSPost2010Prop41ColorRGB
 90
        0
102
RTVSPost2010PropOp41
 70
     1
102
RTVSPost2010Prop42
 90
       50
102
RTVSPost2010PropOp42
 70
     1
102
RTVSPost2010Prop43
 90
        3
102
RTVSPost2010PropOp43
 70
     1
102
RTVSPost2010Prop44ColorIndex
 90
        5
102
RTVSPost2010Prop44ColorRGB
 90
      255
102
RTVSPost2010PropOp44
 70
     1
102
RTVSPost2010Prop45
280
     0
102
RTVSPost2010PropOp45
 70
     1
102
RTVSPost2010Prop46
 90
       50
102
RTVSPost2010PropOp46
 70
     1
102
RTVSPost2010Prop47
 90
       50
102
RTVSPost2010PropOp47
 70
     1
102
RTVSPost2010Prop48
 90
       50
102
RTVSPost2010PropOp48
 70
     1
102
RTVSPost2010Prop49
280
     0
102
RTVSPost2010PropOp49
 70
     1
102
RTVSPost2010Prop50
 90
       50
102
RTVSPost2010PropOp50
 70
     1
102
RTVSPost2010Prop51ColorIndex
 90
      256
102
RTVSPost2010Prop51ColorRGB
 90
-16777216
102
RTVSPost2010PropOp51
 70
     0
102
RTVSPost2010Prop52
140
1.0
102
RTVSPost2010PropOp52
 70
     0
102
RTVSPost2010Prop53
 90
        2
102
RTVSPost2010PropOp53
 70
     1
102
RTVSPost2010Prop54
  1
strokes_ogs.tif
102
RTVSPost2010PropOp54
 70
     1
102
RTVSPost2010Prop55
280
     0
102
RTVSPost2010PropOp55
 70
     1
102
RTVSPost2010Prop56
140
1.0
102
RTVSPost2010PropOp56
 70
     1
102
RTVSPost2010Prop57
140
1.0
102
RTVSPost2010PropOp57
 70
     1
102
RTVSPropertyOp0
 70
     1
102
RTVSPropertyOp1
 70
     1
102
RTVSPropertyOp2
 70
     1
102
RTVSPropertyOp3
 70
     1
102
RTVSPropertyOp4
 70
     1
102
RTVSPropertyOp5
 70
     1
102
RTVSPropertyOp6
 70
     1
102
RTVSPropertyOp7
 70
     1
102
RTVSPropertyOp8
 70
     1
102
RTVSPropertyOp9
 70
     1
102
RTVSPropertyOp10
 70
     1
102
RTVSPropertyOp11
 70
     1
102
RTVSPropertyOp12
 70
     1
102
RTVSPropertyOp13
 70
     1
102
RTVSPropertyOp14
 70
     1
102
RTVSPropertyOp15
 70
     1
102
RTVSPropertyOp16
 70
     1
102
RTVSPropertyOp17
 70
     1
102
RTVSPropertyOp18
 70
     1
102
RTVSPropertyOp19
 70
     1
102
RTVSPropertyOp20
 70
     1
102
RTVSPropertyOp21
 70
     1
102
RTVSPropertyOp22
 70
     1
102
RTVSPropertyOp23
 70
     1
102
RTVSPropertyOp24
 70
     1
102
RTVSPropertyOp25
 70
     1
102
RTVSPropertyOp26
 70
     1
102
RTVSPropertyOp27
 70
     1
102
RTVSPropertyOp28
 70
     1
102
RTVSPropertyOp29
 70
     1
102
RTVSPropertyOp30
 70
     1
102
RTVSPropertyOp31
 70
     1
102
RTVSPropertyOp32
 70
     1
102
RTVSPropertyOp33
 70
     1
102
RTVSPropertyOp34
 70
     1
102
RTVSPropertyOp35
 70
     1
102
RTVSPropertyOp36
 70
     1
102
RTVSPropertyOp37
 70
     1
102
RTVSPropertyOp38
 70
     1
102
RTVSPropertyOp39
 70
     1
102
RTVSPropertyOp40
 70
     1
102
RTVSPropertyOp41
 70
     1
102
RTVSPropertyOp42
 70
     1
102
RTVSPropertyOp43
 70
     1
102
RTVSPropertyOp44
 70
     1
102
RTVSPropertyOp45
 70
     1
102
RTVSPropertyOp46
 70
     1
102
RTVSPropertyOp47
 70
     1
102
RTVSPropertyOp48
 70
     1
102
RTVSPropertyOp49
 70
     1
102
RTVSPropertyOp50
 70
     1
102
RTVSPropertyOp51
 70
     0
102
RTVSPropertyOp52
 70
     0
102
RTVSPropertyOp53
 70
     1
102
RTVSPropertyOp54
 70
     1
102
RTVSPropertyOp55
 70
     1
102
RTVSPropertyOp56
 70
     1
102
RTVSPropertyOp57
 70
     1
102
RTVSPropertyOp58
 70
     1
102
RTVSPropertyOp59
 70
     1
102
RTVSPropertyOp60
 70
     1
102
RTVSPropertyOp61
 70
     1
102
RTVSPropertyOp62
 70
     1
  0
XRECORD
  5
9D8F
102
{ACAD_REACTORS
330
9D8E
102
}
330
9D8E
100
AcDbXrecord
280
     1
102
RTVSPost2010Prop28
280
     0
102
RTVSPost2010PropOp28
 70
     1
102
RTVSPost2010Prop29
280
     1
102
RTVSPost2010PropOp29
 70
     1
102
RTVSPost2010Prop30
280
     1
102
RTVSPost2010PropOp30
 70
     1
102
RTVSPost2010Prop31
280
     0
102
RTVSPost2010PropOp31
 70
     1
102
RTVSPost2010Prop32
280
     0
102
RTVSPost2010PropOp32
 70
     1
102
RTVSPost2010Prop33
280
     0
102
RTVSPost2010PropOp33
 70
     1
102
RTVSPost2010Prop34
280
     0
102
RTVSPost2010PropOp34
 70
     1
102
RTVSPost2010Prop35
280
     0
102
RTVSPost2010PropOp35
 70
     1
102
RTVSPost2010Prop36
280
     0
102
RTVSPost2010PropOp36
 70
     1
102
RTVSPost2010Prop37
 90
       50
102
RTVSPost2010PropOp37
 70
     1
102
RTVSPost2010Prop38
140
0.0
102
RTVSPost2010PropOp38
 70
     1
102
RTVSPost2010Prop39
140
1.0
102
RTVSPost2010PropOp39
 70
     1
102
RTVSPost2010Prop40
 90
        0
102
RTVSPost2010PropOp40
 70
     1
102
RTVSPost2010Prop41ColorIndex
 90
       18
102
RTVSPost2010Prop41ColorRGB
 90
        0
102
RTVSPost2010PropOp41
 70
     1
102
RTVSPost2010Prop42
 90
       50
102
RTVSPost2010PropOp42
 70
     1
102
RTVSPost2010Prop43
 90
        3
102
RTVSPost2010PropOp43
 70
     1
102
RTVSPost2010Prop44ColorIndex
 90
        5
102
RTVSPost2010Prop44ColorRGB
 90
      255
102
RTVSPost2010PropOp44
 70
     1
102
RTVSPost2010Prop45
280
     0
102
RTVSPost2010PropOp45
 70
     1
102
RTVSPost2010Prop46
 90
       50
102
RTVSPost2010PropOp46
 70
     1
102
RTVSPost2010Prop47
 90
       50
102
RTVSPost2010PropOp47
 70
     1
102
RTVSPost2010Prop48
 90
       50
102
RTVSPost2010PropOp48
 70
     1
102
RTVSPost2010Prop49
280
     0
102
RTVSPost2010PropOp49
 70
     1
102
RTVSPost2010Prop50
 90
       50
102
RTVSPost2010PropOp50
 70
     1
102
RTVSPost2010Prop51ColorIndex
 90
      256
102
RTVSPost2010Prop51ColorRGB
 90
-16777216
102
RTVSPost2010PropOp51
 70
     0
102
RTVSPost2010Prop52
140
1.0
102
RTVSPost2010PropOp52
 70
     0
102
RTVSPost2010Prop53
 90
        2
102
RTVSPost2010PropOp53
 70
     1
102
RTVSPost2010Prop54
  1
strokes_ogs.tif
102
RTVSPost2010PropOp54
 70
     1
102
RTVSPost2010Prop55
280
     0
102
RTVSPost2010PropOp55
 70
     1
102
RTVSPost2010Prop56
140
1.0
102
RTVSPost2010PropOp56
 70
     1
102
RTVSPost2010Prop57
140
1.0
102
RTVSPost2010PropOp57
 70
     1
102
RTVSPropertyOp0
 70
     1
102
RTVSPropertyOp1
 70
     1
102
RTVSPropertyOp2
 70
     1
102
RTVSPropertyOp3
 70
     1
102
RTVSPropertyOp4
 70
     1
102
RTVSPropertyOp5
 70
     1
102
RTVSPropertyOp6
 70
     1
102
RTVSPropertyOp7
 70
     1
102
RTVSPropertyOp8
 70
     1
102
RTVSPropertyOp9
 70
     1
102
RTVSPropertyOp10
 70
     1
102
RTVSPropertyOp11
 70
     1
102
RTVSPropertyOp12
 70
     1
102
RTVSPropertyOp13
 70
     1
102
RTVSPropertyOp14
 70
     1
102
RTVSPropertyOp15
 70
     1
102
RTVSPropertyOp16
 70
     1
102
RTVSPropertyOp17
 70
     1
102
RTVSPropertyOp18
 70
     1
102
RTVSPropertyOp19
 70
     1
102
RTVSPropertyOp20
 70
     1
102
RTVSPropertyOp21
 70
     1
102
RTVSPropertyOp22
 70
     1
102
RTVSPropertyOp23
 70
     1
102
RTVSPropertyOp24
 70
     1
102
RTVSPropertyOp25
 70
     1
102
RTVSPropertyOp26
 70
     1
102
RTVSPropertyOp27
 70
     1
102
RTVSPropertyOp28
 70
     1
102
RTVSPropertyOp29
 70
     1
102
RTVSPropertyOp30
 70
     1
102
RTVSPropertyOp31
 70
     1
102
RTVSPropertyOp32
 70
     1
102
RTVSPropertyOp33
 70
     1
102
RTVSPropertyOp34
 70
     1
102
RTVSPropertyOp35
 70
     1
102
RTVSPropertyOp36
 70
     1
102
RTVSPropertyOp37
 70
     1
102
RTVSPropertyOp38
 70
     1
102
RTVSPropertyOp39
 70
     1
102
RTVSPropertyOp40
 70
     1
102
RTVSPropertyOp41
 70
     1
102
RTVSPropertyOp42
 70
     1
102
RTVSPropertyOp43
 70
     1
102
RTVSPropertyOp44
 70
     1
102
RTVSPropertyOp45
 70
     1
102
RTVSPropertyOp46
 70
     1
102
RTVSPropertyOp47
 70
     1
102
RTVSPropertyOp48
 70
     1
102
RTVSPropertyOp49
 70
     1
102
RTVSPropertyOp50
 70
     1
102
RTVSPropertyOp51
 70
     0
102
RTVSPropertyOp52
 70
     0
102
RTVSPropertyOp53
 70
     1
102
RTVSPropertyOp54
 70
     1
102
RTVSPropertyOp55
 70
     1
102
RTVSPropertyOp56
 70
     1
102
RTVSPropertyOp57
 70
     1
102
RTVSPropertyOp58
 70
     1
102
RTVSPropertyOp59
 70
     1
102
RTVSPropertyOp60
 70
     1
102
RTVSPropertyOp61
 70
     1
102
RTVSPropertyOp62
 70
     1
  0
XRECORD
  5
9DB2
102
{ACAD_REACTORS
330
9DB1
102
}
330
9DB1
100
AcDbXrecord
280
     1
102
RTVSPost2010Prop28
280
     0
102
RTVSPost2010PropOp28
 70
     0
102
RTVSPost2010Prop29
280
     1
102
RTVSPost2010PropOp29
 70
     0
102
RTVSPost2010Prop30
280
     1
102
RTVSPost2010PropOp30
 70
     0
102
RTVSPost2010Prop31
280
     0
102
RTVSPost2010PropOp31
 70
     0
102
RTVSPost2010Prop32
280
     0
102
RTVSPost2010PropOp32
 70
     0
102
RTVSPost2010Prop33
280
     0
102
RTVSPost2010PropOp33
 70
     0
102
RTVSPost2010Prop34
280
     0
102
RTVSPost2010PropOp34
 70
     0
102
RTVSPost2010Prop35
280
     0
102
RTVSPost2010PropOp35
 70
     0
102
RTVSPost2010Prop36
280
     0
102
RTVSPost2010PropOp36
 70
     0
102
RTVSPost2010Prop37
 90
       50
102
RTVSPost2010PropOp37
 70
     0
102
RTVSPost2010Prop38
140
0.0
102
RTVSPost2010PropOp38
 70
     0
102
RTVSPost2010Prop39
140
1.0
102
RTVSPost2010PropOp39
 70
     0
102
RTVSPost2010Prop40
 90
        0
102
RTVSPost2010PropOp40
 70
     0
102
RTVSPost2010Prop41ColorIndex
 90
       18
102
RTVSPost2010Prop41ColorRGB
 90
        0
102
RTVSPost2010PropOp41
 70
     0
102
RTVSPost2010Prop42
 90
       50
102
RTVSPost2010PropOp42
 70
     0
102
RTVSPost2010Prop43
 90
        3
102
RTVSPost2010PropOp43
 70
     0
102
RTVSPost2010Prop44ColorIndex
 90
        5
102
RTVSPost2010Prop44ColorRGB
 90
      255
102
RTVSPost2010PropOp44
 70
     0
102
RTVSPost2010Prop45
280
     0
102
RTVSPost2010PropOp45
 70
     0
102
RTVSPost2010Prop46
 90
       50
102
RTVSPost2010PropOp46
 70
     0
102
RTVSPost2010Prop47
 90
       50
102
RTVSPost2010PropOp47
 70
     0
102
RTVSPost2010Prop48
 90
       50
102
RTVSPost2010PropOp48
 70
     0
102
RTVSPost2010Prop49
280
     0
102
RTVSPost2010PropOp49
 70
     0
102
RTVSPost2010Prop50
 90
       50
102
RTVSPost2010PropOp50
 70
     0
102
RTVSPost2010Prop51ColorIndex
 90
      256
102
RTVSPost2010Prop51ColorRGB
 90
-16777216
102
RTVSPost2010PropOp51
 70
     0
102
RTVSPost2010Prop52
140
1.0
102
RTVSPost2010PropOp52
 70
     0
102
RTVSPost2010Prop53
 90
        2
102
RTVSPost2010PropOp53
 70
     0
102
RTVSPost2010Prop54
  1
strokes_ogs.tif
102
RTVSPost2010PropOp54
 70
     0
102
RTVSPost2010Prop55
280
     0
102
RTVSPost2010PropOp55
 70
     0
102
RTVSPost2010Prop56
140
1.0
102
RTVSPost2010PropOp56
 70
     0
102
RTVSPost2010Prop57
140
1.0
102
RTVSPost2010PropOp57
 70
     0
102
RTVSPropertyOp0
 70
     0
102
RTVSPropertyOp1
 70
     0
102
RTVSPropertyOp2
 70
     0
102
RTVSPropertyOp3
 70
     0
102
RTVSPropertyOp4
 70
     0
102
RTVSPropertyOp5
 70
     0
102
RTVSPropertyOp6
 70
     0
102
RTVSPropertyOp7
 70
     0
102
RTVSPropertyOp8
 70
     0
102
RTVSPropertyOp9
 70
     0
102
RTVSPropertyOp10
 70
     0
102
RTVSPropertyOp11
 70
     0
102
RTVSPropertyOp12
 70
     0
102
RTVSPropertyOp13
 70
     0
102
RTVSPropertyOp14
 70
     2
102
RTVSPropertyOp15
 70
     0
102
RTVSPropertyOp16
 70
     0
102
RTVSPropertyOp17
 70
     0
102
RTVSPropertyOp18
 70
     0
102
RTVSPropertyOp19
 70
     0
102
RTVSPropertyOp20
 70
     0
102
RTVSPropertyOp21
 70
     0
102
RTVSPropertyOp22
 70
     0
102
RTVSPropertyOp23
 70
     0
102
RTVSPropertyOp24
 70
     0
102
RTVSPropertyOp25
 70
     0
102
RTVSPropertyOp26
 70
     0
102
RTVSPropertyOp27
 70
     0
102
RTVSPropertyOp28
 70
     0
102
RTVSPropertyOp29
 70
     0
102
RTVSPropertyOp30
 70
     0
102
RTVSPropertyOp31
 70
     0
102
RTVSPropertyOp32
 70
     0
102
RTVSPropertyOp33
 70
     0
102
RTVSPropertyOp34
 70
     0
102
RTVSPropertyOp35
 70
     0
102
RTVSPropertyOp36
 70
     0
102
RTVSPropertyOp37
 70
     0
102
RTVSPropertyOp38
 70
     0
102
RTVSPropertyOp39
 70
     0
102
RTVSPropertyOp40
 70
     0
102
RTVSPropertyOp41
 70
     0
102
RTVSPropertyOp42
 70
     0
102
RTVSPropertyOp43
 70
     0
102
RTVSPropertyOp44
 70
     0
102
RTVSPropertyOp45
 70
     0
102
RTVSPropertyOp46
 70
     0
102
RTVSPropertyOp47
 70
     0
102
RTVSPropertyOp48
 70
     0
102
RTVSPropertyOp49
 70
     0
102
RTVSPropertyOp50
 70
     0
102
RTVSPropertyOp51
 70
     0
102
RTVSPropertyOp52
 70
     0
102
RTVSPropertyOp53
 70
     0
102
RTVSPropertyOp54
 70
     0
102
RTVSPropertyOp55
 70
     0
102
RTVSPropertyOp56
 70
     0
102
RTVSPropertyOp57
 70
     0
102
RTVSPropertyOp58
 70
     1
102
RTVSPropertyOp59
 70
     1
102
RTVSPropertyOp60
 70
     1
102
RTVSPropertyOp61
 70
     1
102
RTVSPropertyOp62
 70
     1
  0
XRECORD
  5
9D97
102
{ACAD_REACTORS
330
9D96
102
}
330
9D96
100
AcDbXrecord
280
     1
102
RTVSPost2010Prop28
280
     0
102
RTVSPost2010PropOp28
 70
     1
102
RTVSPost2010Prop29
280
     1
102
RTVSPost2010PropOp29
 70
     1
102
RTVSPost2010Prop30
280
     1
102
RTVSPost2010PropOp30
 70
     1
102
RTVSPost2010Prop31
280
     0
102
RTVSPost2010PropOp31
 70
     1
102
RTVSPost2010Prop32
280
     0
102
RTVSPost2010PropOp32
 70
     1
102
RTVSPost2010Prop33
280
     0
102
RTVSPost2010PropOp33
 70
     1
102
RTVSPost2010Prop34
280
     0
102
RTVSPost2010PropOp34
 70
     1
102
RTVSPost2010Prop35
280
     0
102
RTVSPost2010PropOp35
 70
     1
102
RTVSPost2010Prop36
280
     0
102
RTVSPost2010PropOp36
 70
     1
102
RTVSPost2010Prop37
 90
       50
102
RTVSPost2010PropOp37
 70
     1
102
RTVSPost2010Prop38
140
0.0
102
RTVSPost2010PropOp38
 70
     1
102
RTVSPost2010Prop39
140
1.0
102
RTVSPost2010PropOp39
 70
     1
102
RTVSPost2010Prop40
 90
        0
102
RTVSPost2010PropOp40
 70
     1
102
RTVSPost2010Prop41ColorIndex
 90
       18
102
RTVSPost2010Prop41ColorRGB
 90
        0
102
RTVSPost2010PropOp41
 70
     1
102
RTVSPost2010Prop42
 90
       50
102
RTVSPost2010PropOp42
 70
     1
102
RTVSPost2010Prop43
 90
        3
102
RTVSPost2010PropOp43
 70
     1
102
RTVSPost2010Prop44ColorIndex
 90
        5
102
RTVSPost2010Prop44ColorRGB
 90
      255
102
RTVSPost2010PropOp44
 70
     1
102
RTVSPost2010Prop45
280
     0
102
RTVSPost2010PropOp45
 70
     1
102
RTVSPost2010Prop46
 90
       50
102
RTVSPost2010PropOp46
 70
     1
102
RTVSPost2010Prop47
 90
       50
102
RTVSPost2010PropOp47
 70
     1
102
RTVSPost2010Prop48
 90
       50
102
RTVSPost2010PropOp48
 70
     1
102
RTVSPost2010Prop49
280
     0
102
RTVSPost2010PropOp49
 70
     1
102
RTVSPost2010Prop50
 90
       50
102
RTVSPost2010PropOp50
 70
     1
102
RTVSPost2010Prop51ColorIndex
 90
      256
102
RTVSPost2010Prop51ColorRGB
 90
-16777216
102
RTVSPost2010PropOp51
 70
     0
102
RTVSPost2010Prop52
140
1.0
102
RTVSPost2010PropOp52
 70
     0
102
RTVSPost2010Prop53
 90
        2
102
RTVSPost2010PropOp53
 70
     1
102
RTVSPost2010Prop54
  1
strokes_ogs.tif
102
RTVSPost2010PropOp54
 70
     1
102
RTVSPost2010Prop55
280
     0
102
RTVSPost2010PropOp55
 70
     1
102
RTVSPost2010Prop56
140
1.0
102
RTVSPost2010PropOp56
 70
     1
102
RTVSPost2010Prop57
140
1.0
102
RTVSPost2010PropOp57
 70
     1
102
RTVSPropertyOp0
 70
     1
102
RTVSPropertyOp1
 70
     1
102
RTVSPropertyOp2
 70
     1
102
RTVSPropertyOp3
 70
     1
102
RTVSPropertyOp4
 70
     1
102
RTVSPropertyOp5
 70
     1
102
RTVSPropertyOp6
 70
     1
102
RTVSPropertyOp7
 70
     1
102
RTVSPropertyOp8
 70
     1
102
RTVSPropertyOp9
 70
     1
102
RTVSPropertyOp10
 70
     1
102
RTVSPropertyOp11
 70
     1
102
RTVSPropertyOp12
 70
     1
102
RTVSPropertyOp13
 70
     1
102
RTVSPropertyOp14
 70
     1
102
RTVSPropertyOp15
 70
     1
102
RTVSPropertyOp16
 70
     1
102
RTVSPropertyOp17
 70
     1
102
RTVSPropertyOp18
 70
     1
102
RTVSPropertyOp19
 70
     1
102
RTVSPropertyOp20
 70
     1
102
RTVSPropertyOp21
 70
     1
102
RTVSPropertyOp22
 70
     1
102
RTVSPropertyOp23
 70
     1
102
RTVSPropertyOp24
 70
     1
102
RTVSPropertyOp25
 70
     1
102
RTVSPropertyOp26
 70
     1
102
RTVSPropertyOp27
 70
     1
102
RTVSPropertyOp28
 70
     1
102
RTVSPropertyOp29
 70
     1
102
RTVSPropertyOp30
 70
     1
102
RTVSPropertyOp31
 70
     1
102
RTVSPropertyOp32
 70
     1
102
RTVSPropertyOp33
 70
     1
102
RTVSPropertyOp34
 70
     1
102
RTVSPropertyOp35
 70
     1
102
RTVSPropertyOp36
 70
     1
102
RTVSPropertyOp37
 70
     1
102
RTVSPropertyOp38
 70
     1
102
RTVSPropertyOp39
 70
     1
102
RTVSPropertyOp40
 70
     1
102
RTVSPropertyOp41
 70
     1
102
RTVSPropertyOp42
 70
     1
102
RTVSPropertyOp43
 70
     1
102
RTVSPropertyOp44
 70
     1
102
RTVSPropertyOp45
 70
     1
102
RTVSPropertyOp46
 70
     1
102
RTVSPropertyOp47
 70
     1
102
RTVSPropertyOp48
 70
     1
102
RTVSPropertyOp49
 70
     1
102
RTVSPropertyOp50
 70
     1
102
RTVSPropertyOp51
 70
     0
102
RTVSPropertyOp52
 70
     0
102
RTVSPropertyOp53
 70
     1
102
RTVSPropertyOp54
 70
     1
102
RTVSPropertyOp55
 70
     1
102
RTVSPropertyOp56
 70
     1
102
RTVSPropertyOp57
 70
     1
102
RTVSPropertyOp58
 70
     1
102
RTVSPropertyOp59
 70
     1
102
RTVSPropertyOp60
 70
     1
102
RTVSPropertyOp61
 70
     1
102
RTVSPropertyOp62
 70
     1
  0
XRECORD
  5
9D7B
102
{ACAD_REACTORS
330
9D7A
102
}
330
9D7A
100
AcDbXrecord
280
     1
102
RTVSPost2010Prop28
280
     0
102
RTVSPost2010PropOp28
 70
     1
102
RTVSPost2010Prop29
280
     1
102
RTVSPost2010PropOp29
 70
     1
102
RTVSPost2010Prop30
280
     1
102
RTVSPost2010PropOp30
 70
     1
102
RTVSPost2010Prop31
280
     0
102
RTVSPost2010PropOp31
 70
     1
102
RTVSPost2010Prop32
280
     0
102
RTVSPost2010PropOp32
 70
     1
102
RTVSPost2010Prop33
280
     0
102
RTVSPost2010PropOp33
 70
     1
102
RTVSPost2010Prop34
280
     0
102
RTVSPost2010PropOp34
 70
     1
102
RTVSPost2010Prop35
280
     0
102
RTVSPost2010PropOp35
 70
     1
102
RTVSPost2010Prop36
280
     0
102
RTVSPost2010PropOp36
 70
     1
102
RTVSPost2010Prop37
 90
       50
102
RTVSPost2010PropOp37
 70
     1
102
RTVSPost2010Prop38
140
0.0
102
RTVSPost2010PropOp38
 70
     1
102
RTVSPost2010Prop39
140
1.0
102
RTVSPost2010PropOp39
 70
     1
102
RTVSPost2010Prop40
 90
        0
102
RTVSPost2010PropOp40
 70
     1
102
RTVSPost2010Prop41ColorIndex
 90
       18
102
RTVSPost2010Prop41ColorRGB
 90
        0
102
RTVSPost2010PropOp41
 70
     1
102
RTVSPost2010Prop42
 90
       50
102
RTVSPost2010PropOp42
 70
     1
102
RTVSPost2010Prop43
 90
        3
102
RTVSPost2010PropOp43
 70
     1
102
RTVSPost2010Prop44ColorIndex
 90
        5
102
RTVSPost2010Prop44ColorRGB
 90
      255
102
RTVSPost2010PropOp44
 70
     1
102
RTVSPost2010Prop45
280
     0
102
RTVSPost2010PropOp45
 70
     1
102
RTVSPost2010Prop46
 90
       50
102
RTVSPost2010PropOp46
 70
     1
102
RTVSPost2010Prop47
 90
       50
102
RTVSPost2010PropOp47
 70
     1
102
RTVSPost2010Prop48
 90
       50
102
RTVSPost2010PropOp48
 70
     1
102
RTVSPost2010Prop49
280
     0
102
RTVSPost2010PropOp49
 70
     1
102
RTVSPost2010Prop50
 90
       50
102
RTVSPost2010PropOp50
 70
     1
102
RTVSPost2010Prop51ColorIndex
 90
      256
102
RTVSPost2010Prop51ColorRGB
 90
-16777216
102
RTVSPost2010PropOp51
 70
     0
102
RTVSPost2010Prop52
140
1.0
102
RTVSPost2010PropOp52
 70
     0
102
RTVSPost2010Prop53
 90
        2
102
RTVSPost2010PropOp53
 70
     1
102
RTVSPost2010Prop54
  1
strokes_ogs.tif
102
RTVSPost2010PropOp54
 70
     1
102
RTVSPost2010Prop55
280
     0
102
RTVSPost2010PropOp55
 70
     1
102
RTVSPost2010Prop56
140
1.0
102
RTVSPost2010PropOp56
 70
     1
102
RTVSPost2010Prop57
140
1.0
102
RTVSPost2010PropOp57
 70
     1
102
RTVSPropertyOp0
 70
     1
102
RTVSPropertyOp1
 70
     1
102
RTVSPropertyOp2
 70
     1
102
RTVSPropertyOp3
 70
     1
102
RTVSPropertyOp4
 70
     1
102
RTVSPropertyOp5
 70
     1
102
RTVSPropertyOp6
 70
     1
102
RTVSPropertyOp7
 70
     1
102
RTVSPropertyOp8
 70
     1
102
RTVSPropertyOp9
 70
     1
102
RTVSPropertyOp10
 70
     1
102
RTVSPropertyOp11
 70
     1
102
RTVSPropertyOp12
 70
     1
102
RTVSPropertyOp13
 70
     1
102
RTVSPropertyOp14
 70
     1
102
RTVSPropertyOp15
 70
     1
102
RTVSPropertyOp16
 70
     1
102
RTVSPropertyOp17
 70
     1
102
RTVSPropertyOp18
 70
     1
102
RTVSPropertyOp19
 70
     1
102
RTVSPropertyOp20
 70
     1
102
RTVSPropertyOp21
 70
     1
102
RTVSPropertyOp22
 70
     1
102
RTVSPropertyOp23
 70
     1
102
RTVSPropertyOp24
 70
     1
102
RTVSPropertyOp25
 70
     1
102
RTVSPropertyOp26
 70
     1
102
RTVSPropertyOp27
 70
     1
102
RTVSPropertyOp28
 70
     1
102
RTVSPropertyOp29
 70
     1
102
RTVSPropertyOp30
 70
     1
102
RTVSPropertyOp31
 70
     1
102
RTVSPropertyOp32
 70
     1
102
RTVSPropertyOp33
 70
     1
102
RTVSPropertyOp34
 70
     1
102
RTVSPropertyOp35
 70
     1
102
RTVSPropertyOp36
 70
     1
102
RTVSPropertyOp37
 70
     1
102
RTVSPropertyOp38
 70
     1
102
RTVSPropertyOp39
 70
     1
102
RTVSPropertyOp40
 70
     1
102
RTVSPropertyOp41
 70
     1
102
RTVSPropertyOp42
 70
     1
102
RTVSPropertyOp43
 70
     1
102
RTVSPropertyOp44
 70
     1
102
RTVSPropertyOp45
 70
     1
102
RTVSPropertyOp46
 70
     1
102
RTVSPropertyOp47
 70
     1
102
RTVSPropertyOp48
 70
     1
102
RTVSPropertyOp49
 70
     1
102
RTVSPropertyOp50
 70
     1
102
RTVSPropertyOp51
 70
     0
102
RTVSPropertyOp52
 70
     0
102
RTVSPropertyOp53
 70
     1
102
RTVSPropertyOp54
 70
     1
102
RTVSPropertyOp55
 70
     1
102
RTVSPropertyOp56
 70
     1
102
RTVSPropertyOp57
 70
     1
102
RTVSPropertyOp58
 70
     1
102
RTVSPropertyOp59
 70
     1
102
RTVSPropertyOp60
 70
     1
102
RTVSPropertyOp61
 70
     1
102
RTVSPropertyOp62
 70
     1
  0
XRECORD
  5
9D7D
102
{ACAD_REACTORS
330
9D7C
102
}
330
9D7C
100
AcDbXrecord
280
     1
102
RTVSPost2010Prop28
280
     0
102
RTVSPost2010PropOp28
 70
     1
102
RTVSPost2010Prop29
280
     1
102
RTVSPost2010PropOp29
 70
     1
102
RTVSPost2010Prop30
280
     1
102
RTVSPost2010PropOp30
 70
     1
102
RTVSPost2010Prop31
280
     0
102
RTVSPost2010PropOp31
 70
     1
102
RTVSPost2010Prop32
280
     0
102
RTVSPost2010PropOp32
 70
     1
102
RTVSPost2010Prop33
280
     0
102
RTVSPost2010PropOp33
 70
     1
102
RTVSPost2010Prop34
280
     0
102
RTVSPost2010PropOp34
 70
     1
102
RTVSPost2010Prop35
280
     0
102
RTVSPost2010PropOp35
 70
     1
102
RTVSPost2010Prop36
280
     0
102
RTVSPost2010PropOp36
 70
     1
102
RTVSPost2010Prop37
 90
       50
102
RTVSPost2010PropOp37
 70
     1
102
RTVSPost2010Prop38
140
0.0
102
RTVSPost2010PropOp38
 70
     1
102
RTVSPost2010Prop39
140
1.0
102
RTVSPost2010PropOp39
 70
     1
102
RTVSPost2010Prop40
 90
        0
102
RTVSPost2010PropOp40
 70
     1
102
RTVSPost2010Prop41ColorIndex
 90
       18
102
RTVSPost2010Prop41ColorRGB
 90
        0
102
RTVSPost2010PropOp41
 70
     1
102
RTVSPost2010Prop42
 90
       50
102
RTVSPost2010PropOp42
 70
     1
102
RTVSPost2010Prop43
 90
        3
102
RTVSPost2010PropOp43
 70
     1
102
RTVSPost2010Prop44ColorIndex
 90
        5
102
RTVSPost2010Prop44ColorRGB
 90
      255
102
RTVSPost2010PropOp44
 70
     1
102
RTVSPost2010Prop45
280
     0
102
RTVSPost2010PropOp45
 70
     1
102
RTVSPost2010Prop46
 90
       50
102
RTVSPost2010PropOp46
 70
     1
102
RTVSPost2010Prop47
 90
       50
102
RTVSPost2010PropOp47
 70
     1
102
RTVSPost2010Prop48
 90
       50
102
RTVSPost2010PropOp48
 70
     1
102
RTVSPost2010Prop49
280
     0
102
RTVSPost2010PropOp49
 70
     1
102
RTVSPost2010Prop50
 90
       50
102
RTVSPost2010PropOp50
 70
     1
102
RTVSPost2010Prop51ColorIndex
 90
      256
102
RTVSPost2010Prop51ColorRGB
 90
-16777216
102
RTVSPost2010PropOp51
 70
     0
102
RTVSPost2010Prop52
140
1.0
102
RTVSPost2010PropOp52
 70
     0
102
RTVSPost2010Prop53
 90
        2
102
RTVSPost2010PropOp53
 70
     1
102
RTVSPost2010Prop54
  1
strokes_ogs.tif
102
RTVSPost2010PropOp54
 70
     1
102
RTVSPost2010Prop55
280
     0
102
RTVSPost2010PropOp55
 70
     1
102
RTVSPost2010Prop56
140
1.0
102
RTVSPost2010PropOp56
 70
     1
102
RTVSPost2010Prop57
140
1.0
102
RTVSPost2010PropOp57
 70
     1
102
RTVSPropertyOp0
 70
     1
102
RTVSPropertyOp1
 70
     1
102
RTVSPropertyOp2
 70
     1
102
RTVSPropertyOp3
 70
     1
102
RTVSPropertyOp4
 70
     1
102
RTVSPropertyOp5
 70
     1
102
RTVSPropertyOp6
 70
     1
102
RTVSPropertyOp7
 70
     1
102
RTVSPropertyOp8
 70
     1
102
RTVSPropertyOp9
 70
     1
102
RTVSPropertyOp10
 70
     1
102
RTVSPropertyOp11
 70
     1
102
RTVSPropertyOp12
 70
     1
102
RTVSPropertyOp13
 70
     1
102
RTVSPropertyOp14
 70
     1
102
RTVSPropertyOp15
 70
     1
102
RTVSPropertyOp16
 70
     1
102
RTVSPropertyOp17
 70
     1
102
RTVSPropertyOp18
 70
     1
102
RTVSPropertyOp19
 70
     1
102
RTVSPropertyOp20
 70
     1
102
RTVSPropertyOp21
 70
     1
102
RTVSPropertyOp22
 70
     1
102
RTVSPropertyOp23
 70
     1
102
RTVSPropertyOp24
 70
     1
102
RTVSPropertyOp25
 70
     1
102
RTVSPropertyOp26
 70
     1
102
RTVSPropertyOp27
 70
     1
102
RTVSPropertyOp28
 70
     1
102
RTVSPropertyOp29
 70
     1
102
RTVSPropertyOp30
 70
     1
102
RTVSPropertyOp31
 70
     1
102
RTVSPropertyOp32
 70
     1
102
RTVSPropertyOp33
 70
     1
102
RTVSPropertyOp34
 70
     1
102
RTVSPropertyOp35
 70
     1
102
RTVSPropertyOp36
 70
     1
102
RTVSPropertyOp37
 70
     1
102
RTVSPropertyOp38
 70
     1
102
RTVSPropertyOp39
 70
     1
102
RTVSPropertyOp40
 70
     1
102
RTVSPropertyOp41
 70
     1
102
RTVSPropertyOp42
 70
     1
102
RTVSPropertyOp43
 70
     1
102
RTVSPropertyOp44
 70
     1
102
RTVSPropertyOp45
 70
     1
102
RTVSPropertyOp46
 70
     1
102
RTVSPropertyOp47
 70
     1
102
RTVSPropertyOp48
 70
     1
102
RTVSPropertyOp49
 70
     1
102
RTVSPropertyOp50
 70
     1
102
RTVSPropertyOp51
 70
     0
102
RTVSPropertyOp52
 70
     0
102
RTVSPropertyOp53
 70
     1
102
RTVSPropertyOp54
 70
     1
102
RTVSPropertyOp55
 70
     1
102
RTVSPropertyOp56
 70
     1
102
RTVSPropertyOp57
 70
     1
102
RTVSPropertyOp58
 70
     1
102
RTVSPropertyOp59
 70
     1
102
RTVSPropertyOp60
 70
     1
102
RTVSPropertyOp61
 70
     1
102
RTVSPropertyOp62
 70
     1
  0
XRECORD
  5
9D7F
102
{ACAD_REACTORS
330
9D7E
102
}
330
9D7E
100
AcDbXrecord
280
     1
102
RTVSPost2010Prop28
280
     0
102
RTVSPost2010PropOp28
 70
     1
102
RTVSPost2010Prop29
280
     1
102
RTVSPost2010PropOp29
 70
     1
102
RTVSPost2010Prop30
280
     1
102
RTVSPost2010PropOp30
 70
     1
102
RTVSPost2010Prop31
280
     0
102
RTVSPost2010PropOp31
 70
     1
102
RTVSPost2010Prop32
280
     0
102
RTVSPost2010PropOp32
 70
     1
102
RTVSPost2010Prop33
280
     0
102
RTVSPost2010PropOp33
 70
     1
102
RTVSPost2010Prop34
280
     0
102
RTVSPost2010PropOp34
 70
     1
102
RTVSPost2010Prop35
280
     0
102
RTVSPost2010PropOp35
 70
     1
102
RTVSPost2010Prop36
280
     0
102
RTVSPost2010PropOp36
 70
     1
102
RTVSPost2010Prop37
 90
       50
102
RTVSPost2010PropOp37
 70
     1
102
RTVSPost2010Prop38
140
0.0
102
RTVSPost2010PropOp38
 70
     1
102
RTVSPost2010Prop39
140
1.0
102
RTVSPost2010PropOp39
 70
     1
102
RTVSPost2010Prop40
 90
        0
102
RTVSPost2010PropOp40
 70
     1
102
RTVSPost2010Prop41ColorIndex
 90
       18
102
RTVSPost2010Prop41ColorRGB
 90
        0
102
RTVSPost2010PropOp41
 70
     1
102
RTVSPost2010Prop42
 90
       50
102
RTVSPost2010PropOp42
 70
     1
102
RTVSPost2010Prop43
 90
        3
102
RTVSPost2010PropOp43
 70
     1
102
RTVSPost2010Prop44ColorIndex
 90
        5
102
RTVSPost2010Prop44ColorRGB
 90
      255
102
RTVSPost2010PropOp44
 70
     1
102
RTVSPost2010Prop45
280
     0
102
RTVSPost2010PropOp45
 70
     1
102
RTVSPost2010Prop46
 90
       50
102
RTVSPost2010PropOp46
 70
     1
102
RTVSPost2010Prop47
 90
       50
102
RTVSPost2010PropOp47
 70
     1
102
RTVSPost2010Prop48
 90
       50
102
RTVSPost2010PropOp48
 70
     1
102
RTVSPost2010Prop49
280
     0
102
RTVSPost2010PropOp49
 70
     1
102
RTVSPost2010Prop50
 90
       50
102
RTVSPost2010PropOp50
 70
     1
102
RTVSPost2010Prop51ColorIndex
 90
      256
102
RTVSPost2010Prop51ColorRGB
 90
-16777216
102
RTVSPost2010PropOp51
 70
     0
102
RTVSPost2010Prop52
140
1.0
102
RTVSPost2010PropOp52
 70
     0
102
RTVSPost2010Prop53
 90
        2
102
RTVSPost2010PropOp53
 70
     1
102
RTVSPost2010Prop54
  1
strokes_ogs.tif
102
RTVSPost2010PropOp54
 70
     1
102
RTVSPost2010Prop55
280
     0
102
RTVSPost2010PropOp55
 70
     1
102
RTVSPost2010Prop56
140
1.0
102
RTVSPost2010PropOp56
 70
     1
102
RTVSPost2010Prop57
140
1.0
102
RTVSPost2010PropOp57
 70
     1
102
RTVSPropertyOp0
 70
     1
102
RTVSPropertyOp1
 70
     1
102
RTVSPropertyOp2
 70
     1
102
RTVSPropertyOp3
 70
     1
102
RTVSPropertyOp4
 70
     1
102
RTVSPropertyOp5
 70
     1
102
RTVSPropertyOp6
 70
     1
102
RTVSPropertyOp7
 70
     1
102
RTVSPropertyOp8
 70
     1
102
RTVSPropertyOp9
 70
     1
102
RTVSPropertyOp10
 70
     1
102
RTVSPropertyOp11
 70
     1
102
RTVSPropertyOp12
 70
     1
102
RTVSPropertyOp13
 70
     1
102
RTVSPropertyOp14
 70
     1
102
RTVSPropertyOp15
 70
     1
102
RTVSPropertyOp16
 70
     1
102
RTVSPropertyOp17
 70
     1
102
RTVSPropertyOp18
 70
     1
102
RTVSPropertyOp19
 70
     1
102
RTVSPropertyOp20
 70
     1
102
RTVSPropertyOp21
 70
     1
102
RTVSPropertyOp22
 70
     1
102
RTVSPropertyOp23
 70
     1
102
RTVSPropertyOp24
 70
     1
102
RTVSPropertyOp25
 70
     1
102
RTVSPropertyOp26
 70
     1
102
RTVSPropertyOp27
 70
     1
102
RTVSPropertyOp28
 70
     1
102
RTVSPropertyOp29
 70
     1
102
RTVSPropertyOp30
 70
     1
102
RTVSPropertyOp31
 70
     1
102
RTVSPropertyOp32
 70
     1
102
RTVSPropertyOp33
 70
     1
102
RTVSPropertyOp34
 70
     1
102
RTVSPropertyOp35
 70
     1
102
RTVSPropertyOp36
 70
     1
102
RTVSPropertyOp37
 70
     1
102
RTVSPropertyOp38
 70
     1
102
RTVSPropertyOp39
 70
     1
102
RTVSPropertyOp40
 70
     1
102
RTVSPropertyOp41
 70
     1
102
RTVSPropertyOp42
 70
     1
102
RTVSPropertyOp43
 70
     1
102
RTVSPropertyOp44
 70
     1
102
RTVSPropertyOp45
 70
     1
102
RTVSPropertyOp46
 70
     1
102
RTVSPropertyOp47
 70
     1
102
RTVSPropertyOp48
 70
     1
102
RTVSPropertyOp49
 70
     1
102
RTVSPropertyOp50
 70
     1
102
RTVSPropertyOp51
 70
     0
102
RTVSPropertyOp52
 70
     0
102
RTVSPropertyOp53
 70
     1
102
RTVSPropertyOp54
 70
     1
102
RTVSPropertyOp55
 70
     1
102
RTVSPropertyOp56
 70
     1
102
RTVSPropertyOp57
 70
     1
102
RTVSPropertyOp58
 70
     1
102
RTVSPropertyOp59
 70
     1
102
RTVSPropertyOp60
 70
     1
102
RTVSPropertyOp61
 70
     1
102
RTVSPropertyOp62
 70
     1
  0
XRECORD
  5
9D81
102
{ACAD_REACTORS
330
9D80
102
}
330
9D80
100
AcDbXrecord
280
     1
102
RTVSPost2010Prop28
280
     0
102
RTVSPost2010PropOp28
 70
     1
102
RTVSPost2010Prop29
280
     1
102
RTVSPost2010PropOp29
 70
     1
102
RTVSPost2010Prop30
280
     1
102
RTVSPost2010PropOp30
 70
     1
102
RTVSPost2010Prop31
280
     0
102
RTVSPost2010PropOp31
 70
     1
102
RTVSPost2010Prop32
280
     0
102
RTVSPost2010PropOp32
 70
     1
102
RTVSPost2010Prop33
280
     0
102
RTVSPost2010PropOp33
 70
     1
102
RTVSPost2010Prop34
280
     0
102
RTVSPost2010PropOp34
 70
     1
102
RTVSPost2010Prop35
280
     0
102
RTVSPost2010PropOp35
 70
     1
102
RTVSPost2010Prop36
280
     0
102
RTVSPost2010PropOp36
 70
     1
102
RTVSPost2010Prop37
 90
       50
102
RTVSPost2010PropOp37
 70
     1
102
RTVSPost2010Prop38
140
0.0
102
RTVSPost2010PropOp38
 70
     1
102
RTVSPost2010Prop39
140
1.0
102
RTVSPost2010PropOp39
 70
     1
102
RTVSPost2010Prop40
 90
        0
102
RTVSPost2010PropOp40
 70
     1
102
RTVSPost2010Prop41ColorIndex
 90
       18
102
RTVSPost2010Prop41ColorRGB
 90
        0
102
RTVSPost2010PropOp41
 70
     1
102
RTVSPost2010Prop42
 90
       50
102
RTVSPost2010PropOp42
 70
     1
102
RTVSPost2010Prop43
 90
        3
102
RTVSPost2010PropOp43
 70
     1
102
RTVSPost2010Prop44ColorIndex
 90
        5
102
RTVSPost2010Prop44ColorRGB
 90
      255
102
RTVSPost2010PropOp44
 70
     1
102
RTVSPost2010Prop45
280
     0
102
RTVSPost2010PropOp45
 70
     1
102
RTVSPost2010Prop46
 90
       50
102
RTVSPost2010PropOp46
 70
     1
102
RTVSPost2010Prop47
 90
       50
102
RTVSPost2010PropOp47
 70
     1
102
RTVSPost2010Prop48
 90
       50
102
RTVSPost2010PropOp48
 70
     1
102
RTVSPost2010Prop49
280
     0
102
RTVSPost2010PropOp49
 70
     1
102
RTVSPost2010Prop50
 90
       50
102
RTVSPost2010PropOp50
 70
     1
102
RTVSPost2010Prop51ColorIndex
 90
      256
102
RTVSPost2010Prop51ColorRGB
 90
-16777216
102
RTVSPost2010PropOp51
 70
     0
102
RTVSPost2010Prop52
140
1.0
102
RTVSPost2010PropOp52
 70
     0
102
RTVSPost2010Prop53
 90
        2
102
RTVSPost2010PropOp53
 70
     1
102
RTVSPost2010Prop54
  1
strokes_ogs.tif
102
RTVSPost2010PropOp54
 70
     1
102
RTVSPost2010Prop55
280
     0
102
RTVSPost2010PropOp55
 70
     1
102
RTVSPost2010Prop56
140
1.0
102
RTVSPost2010PropOp56
 70
     1
102
RTVSPost2010Prop57
140
1.0
102
RTVSPost2010PropOp57
 70
     1
102
RTVSPropertyOp0
 70
     1
102
RTVSPropertyOp1
 70
     1
102
RTVSPropertyOp2
 70
     1
102
RTVSPropertyOp3
 70
     1
102
RTVSPropertyOp4
 70
     1
102
RTVSPropertyOp5
 70
     1
102
RTVSPropertyOp6
 70
     1
102
RTVSPropertyOp7
 70
     1
102
RTVSPropertyOp8
 70
     1
102
RTVSPropertyOp9
 70
     1
102
RTVSPropertyOp10
 70
     1
102
RTVSPropertyOp11
 70
     1
102
RTVSPropertyOp12
 70
     1
102
RTVSPropertyOp13
 70
     1
102
RTVSPropertyOp14
 70
     1
102
RTVSPropertyOp15
 70
     1
102
RTVSPropertyOp16
 70
     1
102
RTVSPropertyOp17
 70
     1
102
RTVSPropertyOp18
 70
     1
102
RTVSPropertyOp19
 70
     1
102
RTVSPropertyOp20
 70
     1
102
RTVSPropertyOp21
 70
     1
102
RTVSPropertyOp22
 70
     1
102
RTVSPropertyOp23
 70
     1
102
RTVSPropertyOp24
 70
     1
102
RTVSPropertyOp25
 70
     1
102
RTVSPropertyOp26
 70
     1
102
RTVSPropertyOp27
 70
     1
102
RTVSPropertyOp28
 70
     1
102
RTVSPropertyOp29
 70
     1
102
RTVSPropertyOp30
 70
     1
102
RTVSPropertyOp31
 70
     1
102
RTVSPropertyOp32
 70
     1
102
RTVSPropertyOp33
 70
     1
102
RTVSPropertyOp34
 70
     1
102
RTVSPropertyOp35
 70
     1
102
RTVSPropertyOp36
 70
     1
102
RTVSPropertyOp37
 70
     1
102
RTVSPropertyOp38
 70
     1
102
RTVSPropertyOp39
 70
     1
102
RTVSPropertyOp40
 70
     1
102
RTVSPropertyOp41
 70
     1
102
RTVSPropertyOp42
 70
     1
102
RTVSPropertyOp43
 70
     1
102
RTVSPropertyOp44
 70
     1
102
RTVSPropertyOp45
 70
     1
102
RTVSPropertyOp46
 70
     1
102
RTVSPropertyOp47
 70
     1
102
RTVSPropertyOp48
 70
     1
102
RTVSPropertyOp49
 70
     1
102
RTVSPropertyOp50
 70
     1
102
RTVSPropertyOp51
 70
     0
102
RTVSPropertyOp52
 70
     0
102
RTVSPropertyOp53
 70
     1
102
RTVSPropertyOp54
 70
     1
102
RTVSPropertyOp55
 70
     1
102
RTVSPropertyOp56
 70
     1
102
RTVSPropertyOp57
 70
     1
102
RTVSPropertyOp58
 70
     1
102
RTVSPropertyOp59
 70
     1
102
RTVSPropertyOp60
 70
     1
102
RTVSPropertyOp61
 70
     1
102
RTVSPropertyOp62
 70
     1
  0
XRECORD
  5
9DA2
102
{ACAD_REACTORS
330
9DA1
102
}
330
9DA1
100
AcDbXrecord
280
     1
102
RTVSPost2010Prop28
280
     0
102
RTVSPost2010PropOp28
 70
     1
102
RTVSPost2010Prop29
280
     1
102
RTVSPost2010PropOp29
 70
     1
102
RTVSPost2010Prop30
280
     1
102
RTVSPost2010PropOp30
 70
     1
102
RTVSPost2010Prop31
280
     0
102
RTVSPost2010PropOp31
 70
     1
102
RTVSPost2010Prop32
280
     0
102
RTVSPost2010PropOp32
 70
     1
102
RTVSPost2010Prop33
280
     0
102
RTVSPost2010PropOp33
 70
     1
102
RTVSPost2010Prop34
280
     0
102
RTVSPost2010PropOp34
 70
     1
102
RTVSPost2010Prop35
280
     0
102
RTVSPost2010PropOp35
 70
     1
102
RTVSPost2010Prop36
280
     0
102
RTVSPost2010PropOp36
 70
     1
102
RTVSPost2010Prop37
 90
       50
102
RTVSPost2010PropOp37
 70
     1
102
RTVSPost2010Prop38
140
0.0
102
RTVSPost2010PropOp38
 70
     1
102
RTVSPost2010Prop39
140
1.0
102
RTVSPost2010PropOp39
 70
     1
102
RTVSPost2010Prop40
 90
        0
102
RTVSPost2010PropOp40
 70
     1
102
RTVSPost2010Prop41ColorIndex
 90
       18
102
RTVSPost2010Prop41ColorRGB
 90
        0
102
RTVSPost2010PropOp41
 70
     1
102
RTVSPost2010Prop42
 90
       50
102
RTVSPost2010PropOp42
 70
     1
102
RTVSPost2010Prop43
 90
        3
102
RTVSPost2010PropOp43
 70
     1
102
RTVSPost2010Prop44ColorIndex
 90
        5
102
RTVSPost2010Prop44ColorRGB
 90
      255
102
RTVSPost2010PropOp44
 70
     1
102
RTVSPost2010Prop45
280
     0
102
RTVSPost2010PropOp45
 70
     1
102
RTVSPost2010Prop46
 90
       50
102
RTVSPost2010PropOp46
 70
     1
102
RTVSPost2010Prop47
 90
       50
102
RTVSPost2010PropOp47
 70
     1
102
RTVSPost2010Prop48
 90
       50
102
RTVSPost2010PropOp48
 70
     1
102
RTVSPost2010Prop49
280
     0
102
RTVSPost2010PropOp49
 70
     1
102
RTVSPost2010Prop50
 90
       50
102
RTVSPost2010PropOp50
 70
     1
102
RTVSPost2010Prop51ColorIndex
 90
      256
102
RTVSPost2010Prop51ColorRGB
 90
-16777216
102
RTVSPost2010PropOp51
 70
     0
102
RTVSPost2010Prop52
140
1.0
102
RTVSPost2010PropOp52
 70
     0
102
RTVSPost2010Prop53
 90
        2
102
RTVSPost2010PropOp53
 70
     1
102
RTVSPost2010Prop54
  1
strokes_ogs.tif
102
RTVSPost2010PropOp54
 70
     1
102
RTVSPost2010Prop55
280
     0
102
RTVSPost2010PropOp55
 70
     1
102
RTVSPost2010Prop56
140
1.0
102
RTVSPost2010PropOp56
 70
     1
102
RTVSPost2010Prop57
140
1.0
102
RTVSPost2010PropOp57
 70
     1
102
RTVSPropertyOp0
 70
     1
102
RTVSPropertyOp1
 70
     1
102
RTVSPropertyOp2
 70
     1
102
RTVSPropertyOp3
 70
     1
102
RTVSPropertyOp4
 70
     1
102
RTVSPropertyOp5
 70
     1
102
RTVSPropertyOp6
 70
     1
102
RTVSPropertyOp7
 70
     1
102
RTVSPropertyOp8
 70
     1
102
RTVSPropertyOp9
 70
     1
102
RTVSPropertyOp10
 70
     1
102
RTVSPropertyOp11
 70
     1
102
RTVSPropertyOp12
 70
     1
102
RTVSPropertyOp13
 70
     1
102
RTVSPropertyOp14
 70
     1
102
RTVSPropertyOp15
 70
     1
102
RTVSPropertyOp16
 70
     1
102
RTVSPropertyOp17
 70
     1
102
RTVSPropertyOp18
 70
     1
102
RTVSPropertyOp19
 70
     1
102
RTVSPropertyOp20
 70
     1
102
RTVSPropertyOp21
 70
     1
102
RTVSPropertyOp22
 70
     1
102
RTVSPropertyOp23
 70
     1
102
RTVSPropertyOp24
 70
     1
102
RTVSPropertyOp25
 70
     1
102
RTVSPropertyOp26
 70
     1
102
RTVSPropertyOp27
 70
     1
102
RTVSPropertyOp28
 70
     1
102
RTVSPropertyOp29
 70
     1
102
RTVSPropertyOp30
 70
     1
102
RTVSPropertyOp31
 70
     1
102
RTVSPropertyOp32
 70
     1
102
RTVSPropertyOp33
 70
     1
102
RTVSPropertyOp34
 70
     1
102
RTVSPropertyOp35
 70
     1
102
RTVSPropertyOp36
 70
     1
102
RTVSPropertyOp37
 70
     1
102
RTVSPropertyOp38
 70
     1
102
RTVSPropertyOp39
 70
     1
102
RTVSPropertyOp40
 70
     1
102
RTVSPropertyOp41
 70
     1
102
RTVSPropertyOp42
 70
     1
102
RTVSPropertyOp43
 70
     1
102
RTVSPropertyOp44
 70
     1
102
RTVSPropertyOp45
 70
     1
102
RTVSPropertyOp46
 70
     1
102
RTVSPropertyOp47
 70
     1
102
RTVSPropertyOp48
 70
     1
102
RTVSPropertyOp49
 70
     1
102
RTVSPropertyOp50
 70
     1
102
RTVSPropertyOp51
 70
     0
102
RTVSPropertyOp52
 70
     0
102
RTVSPropertyOp53
 70
     1
102
RTVSPropertyOp54
 70
     1
102
RTVSPropertyOp55
 70
     1
102
RTVSPropertyOp56
 70
     1
102
RTVSPropertyOp57
 70
     1
102
RTVSPropertyOp58
 70
     1
102
RTVSPropertyOp59
 70
     1
102
RTVSPropertyOp60
 70
     1
102
RTVSPropertyOp61
 70
     1
102
RTVSPropertyOp62
 70
     1
  0
XRECORD
  5
9DAE
102
{ACAD_REACTORS
330
9DAD
102
}
330
9DAD
100
AcDbXrecord
280
     1
102
RTVSPost2010Prop28
280
     0
102
RTVSPost2010PropOp28
 70
     0
102
RTVSPost2010Prop29
280
     1
102
RTVSPost2010PropOp29
 70
     0
102
RTVSPost2010Prop30
280
     1
102
RTVSPost2010PropOp30
 70
     0
102
RTVSPost2010Prop31
280
     0
102
RTVSPost2010PropOp31
 70
     0
102
RTVSPost2010Prop32
280
     0
102
RTVSPost2010PropOp32
 70
     0
102
RTVSPost2010Prop33
280
     0
102
RTVSPost2010PropOp33
 70
     0
102
RTVSPost2010Prop34
280
     0
102
RTVSPost2010PropOp34
 70
     0
102
RTVSPost2010Prop35
280
     0
102
RTVSPost2010PropOp35
 70
     0
102
RTVSPost2010Prop36
280
     0
102
RTVSPost2010PropOp36
 70
     0
102
RTVSPost2010Prop37
 90
       50
102
RTVSPost2010PropOp37
 70
     0
102
RTVSPost2010Prop38
140
0.0
102
RTVSPost2010PropOp38
 70
     0
102
RTVSPost2010Prop39
140
1.0
102
RTVSPost2010PropOp39
 70
     0
102
RTVSPost2010Prop40
 90
        0
102
RTVSPost2010PropOp40
 70
     0
102
RTVSPost2010Prop41ColorIndex
 90
       18
102
RTVSPost2010Prop41ColorRGB
 90
        0
102
RTVSPost2010PropOp41
 70
     0
102
RTVSPost2010Prop42
 90
       50
102
RTVSPost2010PropOp42
 70
     0
102
RTVSPost2010Prop43
 90
        3
102
RTVSPost2010PropOp43
 70
     0
102
RTVSPost2010Prop44ColorIndex
 90
        5
102
RTVSPost2010Prop44ColorRGB
 90
      255
102
RTVSPost2010PropOp44
 70
     0
102
RTVSPost2010Prop45
280
     0
102
RTVSPost2010PropOp45
 70
     0
102
RTVSPost2010Prop46
 90
       50
102
RTVSPost2010PropOp46
 70
     0
102
RTVSPost2010Prop47
 90
       50
102
RTVSPost2010PropOp47
 70
     0
102
RTVSPost2010Prop48
 90
       50
102
RTVSPost2010PropOp48
 70
     0
102
RTVSPost2010Prop49
280
     0
102
RTVSPost2010PropOp49
 70
     0
102
RTVSPost2010Prop50
 90
       50
102
RTVSPost2010PropOp50
 70
     0
102
RTVSPost2010Prop51ColorIndex
 90
      256
102
RTVSPost2010Prop51ColorRGB
 90
-16777216
102
RTVSPost2010PropOp51
 70
     0
102
RTVSPost2010Prop52
140
1.0
102
RTVSPost2010PropOp52
 70
     0
102
RTVSPost2010Prop53
 90
        2
102
RTVSPost2010PropOp53
 70
     0
102
RTVSPost2010Prop54
  1
strokes_ogs.tif
102
RTVSPost2010PropOp54
 70
     0
102
RTVSPost2010Prop55
280
     0
102
RTVSPost2010PropOp55
 70
     0
102
RTVSPost2010Prop56
140
1.0
102
RTVSPost2010PropOp56
 70
     0
102
RTVSPost2010Prop57
140
1.0
102
RTVSPost2010PropOp57
 70
     0
102
RTVSPropertyOp0
 70
     0
102
RTVSPropertyOp1
 70
     0
102
RTVSPropertyOp2
 70
     0
102
RTVSPropertyOp3
 70
     0
102
RTVSPropertyOp4
 70
     0
102
RTVSPropertyOp5
 70
     0
102
RTVSPropertyOp6
 70
     0
102
RTVSPropertyOp7
 70
     0
102
RTVSPropertyOp8
 70
     0
102
RTVSPropertyOp9
 70
     0
102
RTVSPropertyOp10
 70
     0
102
RTVSPropertyOp11
 70
     0
102
RTVSPropertyOp12
 70
     0
102
RTVSPropertyOp13
 70
     0
102
RTVSPropertyOp14
 70
     2
102
RTVSPropertyOp15
 70
     0
102
RTVSPropertyOp16
 70
     0
102
RTVSPropertyOp17
 70
     0
102
RTVSPropertyOp18
 70
     0
102
RTVSPropertyOp19
 70
     0
102
RTVSPropertyOp20
 70
     0
102
RTVSPropertyOp21
 70
     0
102
RTVSPropertyOp22
 70
     0
102
RTVSPropertyOp23
 70
     0
102
RTVSPropertyOp24
 70
     0
102
RTVSPropertyOp25
 70
     0
102
RTVSPropertyOp26
 70
     0
102
RTVSPropertyOp27
 70
     0
102
RTVSPropertyOp28
 70
     0
102
RTVSPropertyOp29
 70
     0
102
RTVSPropertyOp30
 70
     0
102
RTVSPropertyOp31
 70
     0
102
RTVSPropertyOp32
 70
     0
102
RTVSPropertyOp33
 70
     0
102
RTVSPropertyOp34
 70
     0
102
RTVSPropertyOp35
 70
     0
102
RTVSPropertyOp36
 70
     0
102
RTVSPropertyOp37
 70
     0
102
RTVSPropertyOp38
 70
     0
102
RTVSPropertyOp39
 70
     0
102
RTVSPropertyOp40
 70
     0
102
RTVSPropertyOp41
 70
     0
102
RTVSPropertyOp42
 70
     0
102
RTVSPropertyOp43
 70
     0
102
RTVSPropertyOp44
 70
     0
102
RTVSPropertyOp45
 70
     0
102
RTVSPropertyOp46
 70
     0
102
RTVSPropertyOp47
 70
     0
102
RTVSPropertyOp48
 70
     0
102
RTVSPropertyOp49
 70
     0
102
RTVSPropertyOp50
 70
     0
102
RTVSPropertyOp51
 70
     0
102
RTVSPropertyOp52
 70
     0
102
RTVSPropertyOp53
 70
     0
102
RTVSPropertyOp54
 70
     0
102
RTVSPropertyOp55
 70
     0
102
RTVSPropertyOp56
 70
     0
102
RTVSPropertyOp57
 70
     0
102
RTVSPropertyOp58
 70
     1
102
RTVSPropertyOp59
 70
     1
102
RTVSPropertyOp60
 70
     1
102
RTVSPropertyOp61
 70
     1
102
RTVSPropertyOp62
 70
     1
  0
XRECORD
  5
9D95
102
{ACAD_REACTORS
330
9D94
102
}
330
9D94
100
AcDbXrecord
280
     1
102
RTVSPost2010Prop28
280
     0
102
RTVSPost2010PropOp28
 70
     1
102
RTVSPost2010Prop29
280
     1
102
RTVSPost2010PropOp29
 70
     1
102
RTVSPost2010Prop30
280
     1
102
RTVSPost2010PropOp30
 70
     1
102
RTVSPost2010Prop31
280
     0
102
RTVSPost2010PropOp31
 70
     1
102
RTVSPost2010Prop32
280
     0
102
RTVSPost2010PropOp32
 70
     1
102
RTVSPost2010Prop33
280
     0
102
RTVSPost2010PropOp33
 70
     1
102
RTVSPost2010Prop34
280
     0
102
RTVSPost2010PropOp34
 70
     1
102
RTVSPost2010Prop35
280
     0
102
RTVSPost2010PropOp35
 70
     1
102
RTVSPost2010Prop36
280
     0
102
RTVSPost2010PropOp36
 70
     1
102
RTVSPost2010Prop37
 90
       50
102
RTVSPost2010PropOp37
 70
     1
102
RTVSPost2010Prop38
140
0.0
102
RTVSPost2010PropOp38
 70
     1
102
RTVSPost2010Prop39
140
1.0
102
RTVSPost2010PropOp39
 70
     1
102
RTVSPost2010Prop40
 90
        0
102
RTVSPost2010PropOp40
 70
     1
102
RTVSPost2010Prop41ColorIndex
 90
       18
102
RTVSPost2010Prop41ColorRGB
 90
        0
102
RTVSPost2010PropOp41
 70
     1
102
RTVSPost2010Prop42
 90
       50
102
RTVSPost2010PropOp42
 70
     1
102
RTVSPost2010Prop43
 90
        3
102
RTVSPost2010PropOp43
 70
     1
102
RTVSPost2010Prop44ColorIndex
 90
        5
102
RTVSPost2010Prop44ColorRGB
 90
      255
102
RTVSPost2010PropOp44
 70
     1
102
RTVSPost2010Prop45
280
     0
102
RTVSPost2010PropOp45
 70
     1
102
RTVSPost2010Prop46
 90
       50
102
RTVSPost2010PropOp46
 70
     1
102
RTVSPost2010Prop47
 90
       50
102
RTVSPost2010PropOp47
 70
     1
102
RTVSPost2010Prop48
 90
       50
102
RTVSPost2010PropOp48
 70
     1
102
RTVSPost2010Prop49
280
     0
102
RTVSPost2010PropOp49
 70
     1
102
RTVSPost2010Prop50
 90
       50
102
RTVSPost2010PropOp50
 70
     1
102
RTVSPost2010Prop51ColorIndex
 90
      256
102
RTVSPost2010Prop51ColorRGB
 90
-16777216
102
RTVSPost2010PropOp51
 70
     0
102
RTVSPost2010Prop52
140
1.0
102
RTVSPost2010PropOp52
 70
     0
102
RTVSPost2010Prop53
 90
        2
102
RTVSPost2010PropOp53
 70
     1
102
RTVSPost2010Prop54
  1
strokes_ogs.tif
102
RTVSPost2010PropOp54
 70
     1
102
RTVSPost2010Prop55
280
     0
102
RTVSPost2010PropOp55
 70
     1
102
RTVSPost2010Prop56
140
1.0
102
RTVSPost2010PropOp56
 70
     1
102
RTVSPost2010Prop57
140
1.0
102
RTVSPost2010PropOp57
 70
     1
102
RTVSPropertyOp0
 70
     1
102
RTVSPropertyOp1
 70
     1
102
RTVSPropertyOp2
 70
     1
102
RTVSPropertyOp3
 70
     1
102
RTVSPropertyOp4
 70
     1
102
RTVSPropertyOp5
 70
     1
102
RTVSPropertyOp6
 70
     1
102
RTVSPropertyOp7
 70
     1
102
RTVSPropertyOp8
 70
     1
102
RTVSPropertyOp9
 70
     1
102
RTVSPropertyOp10
 70
     1
102
RTVSPropertyOp11
 70
     1
102
RTVSPropertyOp12
 70
     1
102
RTVSPropertyOp13
 70
     1
102
RTVSPropertyOp14
 70
     1
102
RTVSPropertyOp15
 70
     1
102
RTVSPropertyOp16
 70
     1
102
RTVSPropertyOp17
 70
     1
102
RTVSPropertyOp18
 70
     1
102
RTVSPropertyOp19
 70
     1
102
RTVSPropertyOp20
 70
     1
102
RTVSPropertyOp21
 70
     1
102
RTVSPropertyOp22
 70
     1
102
RTVSPropertyOp23
 70
     1
102
RTVSPropertyOp24
 70
     1
102
RTVSPropertyOp25
 70
     1
102
RTVSPropertyOp26
 70
     1
102
RTVSPropertyOp27
 70
     1
102
RTVSPropertyOp28
 70
     1
102
RTVSPropertyOp29
 70
     1
102
RTVSPropertyOp30
 70
     1
102
RTVSPropertyOp31
 70
     1
102
RTVSPropertyOp32
 70
     1
102
RTVSPropertyOp33
 70
     1
102
RTVSPropertyOp34
 70
     1
102
RTVSPropertyOp35
 70
     1
102
RTVSPropertyOp36
 70
     1
102
RTVSPropertyOp37
 70
     1
102
RTVSPropertyOp38
 70
     1
102
RTVSPropertyOp39
 70
     1
102
RTVSPropertyOp40
 70
     1
102
RTVSPropertyOp41
 70
     1
102
RTVSPropertyOp42
 70
     1
102
RTVSPropertyOp43
 70
     1
102
RTVSPropertyOp44
 70
     1
102
RTVSPropertyOp45
 70
     1
102
RTVSPropertyOp46
 70
     1
102
RTVSPropertyOp47
 70
     1
102
RTVSPropertyOp48
 70
     1
102
RTVSPropertyOp49
 70
     1
102
RTVSPropertyOp50
 70
     1
102
RTVSPropertyOp51
 70
     0
102
RTVSPropertyOp52
 70
     0
102
RTVSPropertyOp53
 70
     1
102
RTVSPropertyOp54
 70
     1
102
RTVSPropertyOp55
 70
     1
102
RTVSPropertyOp56
 70
     1
102
RTVSPropertyOp57
 70
     1
102
RTVSPropertyOp58
 70
     1
102
RTVSPropertyOp59
 70
     1
102
RTVSPropertyOp60
 70
     1
102
RTVSPropertyOp61
 70
     1
102
RTVSPropertyOp62
 70
     1
  0
XRECORD
  5
9DB0
102
{ACAD_REACTORS
330
9DAF
102
}
330
9DAF
100
AcDbXrecord
280
     1
102
RTVSPost2010Prop28
280
     0
102
RTVSPost2010PropOp28
 70
     0
102
RTVSPost2010Prop29
280
     1
102
RTVSPost2010PropOp29
 70
     0
102
RTVSPost2010Prop30
280
     1
102
RTVSPost2010PropOp30
 70
     0
102
RTVSPost2010Prop31
280
     0
102
RTVSPost2010PropOp31
 70
     0
102
RTVSPost2010Prop32
280
     0
102
RTVSPost2010PropOp32
 70
     0
102
RTVSPost2010Prop33
280
     0
102
RTVSPost2010PropOp33
 70
     0
102
RTVSPost2010Prop34
280
     0
102
RTVSPost2010PropOp34
 70
     0
102
RTVSPost2010Prop35
280
     0
102
RTVSPost2010PropOp35
 70
     0
102
RTVSPost2010Prop36
280
     0
102
RTVSPost2010PropOp36
 70
     0
102
RTVSPost2010Prop37
 90
       50
102
RTVSPost2010PropOp37
 70
     0
102
RTVSPost2010Prop38
140
0.0
102
RTVSPost2010PropOp38
 70
     0
102
RTVSPost2010Prop39
140
1.0
102
RTVSPost2010PropOp39
 70
     0
102
RTVSPost2010Prop40
 90
        0
102
RTVSPost2010PropOp40
 70
     0
102
RTVSPost2010Prop41ColorIndex
 90
       18
102
RTVSPost2010Prop41ColorRGB
 90
        0
102
RTVSPost2010PropOp41
 70
     0
102
RTVSPost2010Prop42
 90
       50
102
RTVSPost2010PropOp42
 70
     0
102
RTVSPost2010Prop43
 90
        3
102
RTVSPost2010PropOp43
 70
     0
102
RTVSPost2010Prop44ColorIndex
 90
        5
102
RTVSPost2010Prop44ColorRGB
 90
      255
102
RTVSPost2010PropOp44
 70
     0
102
RTVSPost2010Prop45
280
     0
102
RTVSPost2010PropOp45
 70
     0
102
RTVSPost2010Prop46
 90
       50
102
RTVSPost2010PropOp46
 70
     0
102
RTVSPost2010Prop47
 90
       50
102
RTVSPost2010PropOp47
 70
     0
102
RTVSPost2010Prop48
 90
       50
102
RTVSPost2010PropOp48
 70
     0
102
RTVSPost2010Prop49
280
     0
102
RTVSPost2010PropOp49
 70
     0
102
RTVSPost2010Prop50
 90
       50
102
RTVSPost2010PropOp50
 70
     0
102
RTVSPost2010Prop51ColorIndex
 90
      256
102
RTVSPost2010Prop51ColorRGB
 90
-16777216
102
RTVSPost2010PropOp51
 70
     0
102
RTVSPost2010Prop52
140
1.0
102
RTVSPost2010PropOp52
 70
     0
102
RTVSPost2010Prop53
 90
        2
102
RTVSPost2010PropOp53
 70
     0
102
RTVSPost2010Prop54
  1
strokes_ogs.tif
102
RTVSPost2010PropOp54
 70
     0
102
RTVSPost2010Prop55
280
     0
102
RTVSPost2010PropOp55
 70
     0
102
RTVSPost2010Prop56
140
1.0
102
RTVSPost2010PropOp56
 70
     0
102
RTVSPost2010Prop57
140
1.0
102
RTVSPost2010PropOp57
 70
     0
102
RTVSPropertyOp0
 70
     0
102
RTVSPropertyOp1
 70
     0
102
RTVSPropertyOp2
 70
     0
102
RTVSPropertyOp3
 70
     0
102
RTVSPropertyOp4
 70
     0
102
RTVSPropertyOp5
 70
     0
102
RTVSPropertyOp6
 70
     0
102
RTVSPropertyOp7
 70
     0
102
RTVSPropertyOp8
 70
     0
102
RTVSPropertyOp9
 70
     0
102
RTVSPropertyOp10
 70
     0
102
RTVSPropertyOp11
 70
     0
102
RTVSPropertyOp12
 70
     0
102
RTVSPropertyOp13
 70
     0
102
RTVSPropertyOp14
 70
     2
102
RTVSPropertyOp15
 70
     0
102
RTVSPropertyOp16
 70
     0
102
RTVSPropertyOp17
 70
     0
102
RTVSPropertyOp18
 70
     0
102
RTVSPropertyOp19
 70
     0
102
RTVSPropertyOp20
 70
     0
102
RTVSPropertyOp21
 70
     0
102
RTVSPropertyOp22
 70
     0
102
RTVSPropertyOp23
 70
     0
102
RTVSPropertyOp24
 70
     0
102
RTVSPropertyOp25
 70
     0
102
RTVSPropertyOp26
 70
     0
102
RTVSPropertyOp27
 70
     0
102
RTVSPropertyOp28
 70
     0
102
RTVSPropertyOp29
 70
     0
102
RTVSPropertyOp30
 70
     0
102
RTVSPropertyOp31
 70
     0
102
RTVSPropertyOp32
 70
     0
102
RTVSPropertyOp33
 70
     0
102
RTVSPropertyOp34
 70
     0
102
RTVSPropertyOp35
 70
     0
102
RTVSPropertyOp36
 70
     0
102
RTVSPropertyOp37
 70
     0
102
RTVSPropertyOp38
 70
     0
102
RTVSPropertyOp39
 70
     0
102
RTVSPropertyOp40
 70
     0
102
RTVSPropertyOp41
 70
     0
102
RTVSPropertyOp42
 70
     0
102
RTVSPropertyOp43
 70
     0
102
RTVSPropertyOp44
 70
     0
102
RTVSPropertyOp45
 70
     0
102
RTVSPropertyOp46
 70
     0
102
RTVSPropertyOp47
 70
     0
102
RTVSPropertyOp48
 70
     0
102
RTVSPropertyOp49
 70
     0
102
RTVSPropertyOp50
 70
     0
102
RTVSPropertyOp51
 70
     0
102
RTVSPropertyOp52
 70
     0
102
RTVSPropertyOp53
 70
     0
102
RTVSPropertyOp54
 70
     0
102
RTVSPropertyOp55
 70
     0
102
RTVSPropertyOp56
 70
     0
102
RTVSPropertyOp57
 70
     0
102
RTVSPropertyOp58
 70
     1
102
RTVSPropertyOp59
 70
     1
102
RTVSPropertyOp60
 70
     1
102
RTVSPropertyOp61
 70
     1
102
RTVSPropertyOp62
 70
     1
  0
XRECORD
  5
9D8D
102
{ACAD_REACTORS
330
9D8C
102
}
330
9D8C
100
AcDbXrecord
280
     1
102
RTVSPost2010Prop28
280
     0
102
RTVSPost2010PropOp28
 70
     1
102
RTVSPost2010Prop29
280
     1
102
RTVSPost2010PropOp29
 70
     1
102
RTVSPost2010Prop30
280
     1
102
RTVSPost2010PropOp30
 70
     1
102
RTVSPost2010Prop31
280
     0
102
RTVSPost2010PropOp31
 70
     1
102
RTVSPost2010Prop32
280
     0
102
RTVSPost2010PropOp32
 70
     1
102
RTVSPost2010Prop33
280
     0
102
RTVSPost2010PropOp33
 70
     1
102
RTVSPost2010Prop34
280
     0
102
RTVSPost2010PropOp34
 70
     1
102
RTVSPost2010Prop35
280
     0
102
RTVSPost2010PropOp35
 70
     1
102
RTVSPost2010Prop36
280
     0
102
RTVSPost2010PropOp36
 70
     1
102
RTVSPost2010Prop37
 90
       50
102
RTVSPost2010PropOp37
 70
     1
102
RTVSPost2010Prop38
140
0.0
102
RTVSPost2010PropOp38
 70
     1
102
RTVSPost2010Prop39
140
1.0
102
RTVSPost2010PropOp39
 70
     1
102
RTVSPost2010Prop40
 90
        0
102
RTVSPost2010PropOp40
 70
     1
102
RTVSPost2010Prop41ColorIndex
 90
       18
102
RTVSPost2010Prop41ColorRGB
 90
        0
102
RTVSPost2010PropOp41
 70
     1
102
RTVSPost2010Prop42
 90
       50
102
RTVSPost2010PropOp42
 70
     1
102
RTVSPost2010Prop43
 90
        3
102
RTVSPost2010PropOp43
 70
     1
102
RTVSPost2010Prop44ColorIndex
 90
        5
102
RTVSPost2010Prop44ColorRGB
 90
      255
102
RTVSPost2010PropOp44
 70
     1
102
RTVSPost2010Prop45
280
     0
102
RTVSPost2010PropOp45
 70
     1
102
RTVSPost2010Prop46
 90
       50
102
RTVSPost2010PropOp46
 70
     1
102
RTVSPost2010Prop47
 90
       50
102
RTVSPost2010PropOp47
 70
     1
102
RTVSPost2010Prop48
 90
       50
102
RTVSPost2010PropOp48
 70
     1
102
RTVSPost2010Prop49
280
     0
102
RTVSPost2010PropOp49
 70
     1
102
RTVSPost2010Prop50
 90
       50
102
RTVSPost2010PropOp50
 70
     1
102
RTVSPost2010Prop51ColorIndex
 90
      256
102
RTVSPost2010Prop51ColorRGB
 90
-16777216
102
RTVSPost2010PropOp51
 70
     0
102
RTVSPost2010Prop52
140
1.0
102
RTVSPost2010PropOp52
 70
     0
102
RTVSPost2010Prop53
 90
        2
102
RTVSPost2010PropOp53
 70
     1
102
RTVSPost2010Prop54
  1
strokes_ogs.tif
102
RTVSPost2010PropOp54
 70
     1
102
RTVSPost2010Prop55
280
     0
102
RTVSPost2010PropOp55
 70
     1
102
RTVSPost2010Prop56
140
1.0
102
RTVSPost2010PropOp56
 70
     1
102
RTVSPost2010Prop57
140
1.0
102
RTVSPost2010PropOp57
 70
     1
102
RTVSPropertyOp0
 70
     1
102
RTVSPropertyOp1
 70
     1
102
RTVSPropertyOp2
 70
     1
102
RTVSPropertyOp3
 70
     1
102
RTVSPropertyOp4
 70
     1
102
RTVSPropertyOp5
 70
     1
102
RTVSPropertyOp6
 70
     1
102
RTVSPropertyOp7
 70
     1
102
RTVSPropertyOp8
 70
     1
102
RTVSPropertyOp9
 70
     1
102
RTVSPropertyOp10
 70
     1
102
RTVSPropertyOp11
 70
     1
102
RTVSPropertyOp12
 70
     1
102
RTVSPropertyOp13
 70
     1
102
RTVSPropertyOp14
 70
     1
102
RTVSPropertyOp15
 70
     1
102
RTVSPropertyOp16
 70
     1
102
RTVSPropertyOp17
 70
     1
102
RTVSPropertyOp18
 70
     1
102
RTVSPropertyOp19
 70
     1
102
RTVSPropertyOp20
 70
     1
102
RTVSPropertyOp21
 70
     1
102
RTVSPropertyOp22
 70
     1
102
RTVSPropertyOp23
 70
     1
102
RTVSPropertyOp24
 70
     1
102
RTVSPropertyOp25
 70
     1
102
RTVSPropertyOp26
 70
     1
102
RTVSPropertyOp27
 70
     1
102
RTVSPropertyOp28
 70
     1
102
RTVSPropertyOp29
 70
     1
102
RTVSPropertyOp30
 70
     1
102
RTVSPropertyOp31
 70
     1
102
RTVSPropertyOp32
 70
     1
102
RTVSPropertyOp33
 70
     1
102
RTVSPropertyOp34
 70
     1
102
RTVSPropertyOp35
 70
     1
102
RTVSPropertyOp36
 70
     1
102
RTVSPropertyOp37
 70
     1
102
RTVSPropertyOp38
 70
     1
102
RTVSPropertyOp39
 70
     1
102
RTVSPropertyOp40
 70
     1
102
RTVSPropertyOp41
 70
     1
102
RTVSPropertyOp42
 70
     1
102
RTVSPropertyOp43
 70
     1
102
RTVSPropertyOp44
 70
     1
102
RTVSPropertyOp45
 70
     1
102
RTVSPropertyOp46
 70
     1
102
RTVSPropertyOp47
 70
     1
102
RTVSPropertyOp48
 70
     1
102
RTVSPropertyOp49
 70
     1
102
RTVSPropertyOp50
 70
     1
102
RTVSPropertyOp51
 70
     0
102
RTVSPropertyOp52
 70
     0
102
RTVSPropertyOp53
 70
     1
102
RTVSPropertyOp54
 70
     1
102
RTVSPropertyOp55
 70
     1
102
RTVSPropertyOp56
 70
     1
102
RTVSPropertyOp57
 70
     1
102
RTVSPropertyOp58
 70
     1
102
RTVSPropertyOp59
 70
     1
102
RTVSPropertyOp60
 70
     1
102
RTVSPropertyOp61
 70
     1
102
RTVSPropertyOp62
 70
     1
  0
XRECORD
  5
9DAC
102
{ACAD_REACTORS
330
9DAB
102
}
330
9DAB
100
AcDbXrecord
280
     1
102
RTVSPost2010Prop28
280
     0
102
RTVSPost2010PropOp28
 70
     1
102
RTVSPost2010Prop29
280
     1
102
RTVSPost2010PropOp29
 70
     1
102
RTVSPost2010Prop30
280
     1
102
RTVSPost2010PropOp30
 70
     1
102
RTVSPost2010Prop31
280
     0
102
RTVSPost2010PropOp31
 70
     1
102
RTVSPost2010Prop32
280
     0
102
RTVSPost2010PropOp32
 70
     1
102
RTVSPost2010Prop33
280
     0
102
RTVSPost2010PropOp33
 70
     1
102
RTVSPost2010Prop34
280
     0
102
RTVSPost2010PropOp34
 70
     1
102
RTVSPost2010Prop35
280
     0
102
RTVSPost2010PropOp35
 70
     1
102
RTVSPost2010Prop36
280
     0
102
RTVSPost2010PropOp36
 70
     1
102
RTVSPost2010Prop37
 90
       50
102
RTVSPost2010PropOp37
 70
     1
102
RTVSPost2010Prop38
140
0.0
102
RTVSPost2010PropOp38
 70
     1
102
RTVSPost2010Prop39
140
1.0
102
RTVSPost2010PropOp39
 70
     1
102
RTVSPost2010Prop40
 90
        0
102
RTVSPost2010PropOp40
 70
     1
102
RTVSPost2010Prop41ColorIndex
 90
       18
102
RTVSPost2010Prop41ColorRGB
 90
        0
102
RTVSPost2010PropOp41
 70
     1
102
RTVSPost2010Prop42
 90
       50
102
RTVSPost2010PropOp42
 70
     1
102
RTVSPost2010Prop43
 90
        3
102
RTVSPost2010PropOp43
 70
     1
102
RTVSPost2010Prop44ColorIndex
 90
        5
102
RTVSPost2010Prop44ColorRGB
 90
      255
102
RTVSPost2010PropOp44
 70
     1
102
RTVSPost2010Prop45
280
     0
102
RTVSPost2010PropOp45
 70
     1
102
RTVSPost2010Prop46
 90
       50
102
RTVSPost2010PropOp46
 70
     1
102
RTVSPost2010Prop47
 90
       50
102
RTVSPost2010PropOp47
 70
     1
102
RTVSPost2010Prop48
 90
       50
102
RTVSPost2010PropOp48
 70
     1
102
RTVSPost2010Prop49
280
     0
102
RTVSPost2010PropOp49
 70
     1
102
RTVSPost2010Prop50
 90
       50
102
RTVSPost2010PropOp50
 70
     1
102
RTVSPost2010Prop51ColorIndex
 90
      256
102
RTVSPost2010Prop51ColorRGB
 90
-16777216
102
RTVSPost2010PropOp51
 70
     0
102
RTVSPost2010Prop52
140
1.0
102
RTVSPost2010PropOp52
 70
     0
102
RTVSPost2010Prop53
 90
        2
102
RTVSPost2010PropOp53
 70
     1
102
RTVSPost2010Prop54
  1
strokes_ogs.tif
102
RTVSPost2010PropOp54
 70
     1
102
RTVSPost2010Prop55
280
     0
102
RTVSPost2010PropOp55
 70
     1
102
RTVSPost2010Prop56
140
1.0
102
RTVSPost2010PropOp56
 70
     1
102
RTVSPost2010Prop57
140
1.0
102
RTVSPost2010PropOp57
 70
     1
102
RTVSPropertyOp0
 70
     1
102
RTVSPropertyOp1
 70
     1
102
RTVSPropertyOp2
 70
     1
102
RTVSPropertyOp3
 70
     1
102
RTVSPropertyOp4
 70
     1
102
RTVSPropertyOp5
 70
     1
102
RTVSPropertyOp6
 70
     1
102
RTVSPropertyOp7
 70
     1
102
RTVSPropertyOp8
 70
     1
102
RTVSPropertyOp9
 70
     1
102
RTVSPropertyOp10
 70
     1
102
RTVSPropertyOp11
 70
     1
102
RTVSPropertyOp12
 70
     1
102
RTVSPropertyOp13
 70
     1
102
RTVSPropertyOp14
 70
     1
102
RTVSPropertyOp15
 70
     1
102
RTVSPropertyOp16
 70
     1
102
RTVSPropertyOp17
 70
     1
102
RTVSPropertyOp18
 70
     1
102
RTVSPropertyOp19
 70
     1
102
RTVSPropertyOp20
 70
     1
102
RTVSPropertyOp21
 70
     1
102
RTVSPropertyOp22
 70
     1
102
RTVSPropertyOp23
 70
     1
102
RTVSPropertyOp24
 70
     1
102
RTVSPropertyOp25
 70
     1
102
RTVSPropertyOp26
 70
     1
102
RTVSPropertyOp27
 70
     1
102
RTVSPropertyOp28
 70
     1
102
RTVSPropertyOp29
 70
     1
102
RTVSPropertyOp30
 70
     1
102
RTVSPropertyOp31
 70
     1
102
RTVSPropertyOp32
 70
     1
102
RTVSPropertyOp33
 70
     1
102
RTVSPropertyOp34
 70
     1
102
RTVSPropertyOp35
 70
     1
102
RTVSPropertyOp36
 70
     1
102
RTVSPropertyOp37
 70
     1
102
RTVSPropertyOp38
 70
     1
102
RTVSPropertyOp39
 70
     1
102
RTVSPropertyOp40
 70
     1
102
RTVSPropertyOp41
 70
     1
102
RTVSPropertyOp42
 70
     1
102
RTVSPropertyOp43
 70
     1
102
RTVSPropertyOp44
 70
     1
102
RTVSPropertyOp45
 70
     1
102
RTVSPropertyOp46
 70
     1
102
RTVSPropertyOp47
 70
     1
102
RTVSPropertyOp48
 70
     1
102
RTVSPropertyOp49
 70
     1
102
RTVSPropertyOp50
 70
     1
102
RTVSPropertyOp51
 70
     0
102
RTVSPropertyOp52
 70
     0
102
RTVSPropertyOp53
 70
     1
102
RTVSPropertyOp54
 70
     1
102
RTVSPropertyOp55
 70
     1
102
RTVSPropertyOp56
 70
     1
102
RTVSPropertyOp57
 70
     1
102
RTVSPropertyOp58
 70
     1
102
RTVSPropertyOp59
 70
     1
102
RTVSPropertyOp60
 70
     1
102
RTVSPropertyOp61
 70
     1
102
RTVSPropertyOp62
 70
     1
  0
XRECORD
  5
9DAA
102
{ACAD_REACTORS
330
9DA9
102
}
330
9DA9
100
AcDbXrecord
280
     1
102
RTVSPost2010Prop28
280
     0
102
RTVSPost2010PropOp28
 70
     1
102
RTVSPost2010Prop29
280
     1
102
RTVSPost2010PropOp29
 70
     1
102
RTVSPost2010Prop30
280
     1
102
RTVSPost2010PropOp30
 70
     1
102
RTVSPost2010Prop31
280
     0
102
RTVSPost2010PropOp31
 70
     1
102
RTVSPost2010Prop32
280
     0
102
RTVSPost2010PropOp32
 70
     1
102
RTVSPost2010Prop33
280
     0
102
RTVSPost2010PropOp33
 70
     1
102
RTVSPost2010Prop34
280
     0
102
RTVSPost2010PropOp34
 70
     1
102
RTVSPost2010Prop35
280
     0
102
RTVSPost2010PropOp35
 70
     1
102
RTVSPost2010Prop36
280
     0
102
RTVSPost2010PropOp36
 70
     1
102
RTVSPost2010Prop37
 90
       50
102
RTVSPost2010PropOp37
 70
     1
102
RTVSPost2010Prop38
140
0.0
102
RTVSPost2010PropOp38
 70
     1
102
RTVSPost2010Prop39
140
1.0
102
RTVSPost2010PropOp39
 70
     1
102
RTVSPost2010Prop40
 90
        0
102
RTVSPost2010PropOp40
 70
     1
102
RTVSPost2010Prop41ColorIndex
 90
       18
102
RTVSPost2010Prop41ColorRGB
 90
        0
102
RTVSPost2010PropOp41
 70
     1
102
RTVSPost2010Prop42
 90
       50
102
RTVSPost2010PropOp42
 70
     1
102
RTVSPost2010Prop43
 90
        3
102
RTVSPost2010PropOp43
 70
     1
102
RTVSPost2010Prop44ColorIndex
 90
        5
102
RTVSPost2010Prop44ColorRGB
 90
      255
102
RTVSPost2010PropOp44
 70
     1
102
RTVSPost2010Prop45
280
     0
102
RTVSPost2010PropOp45
 70
     1
102
RTVSPost2010Prop46
 90
       50
102
RTVSPost2010PropOp46
 70
     1
102
RTVSPost2010Prop47
 90
       50
102
RTVSPost2010PropOp47
 70
     1
102
RTVSPost2010Prop48
 90
       50
102
RTVSPost2010PropOp48
 70
     1
102
RTVSPost2010Prop49
280
     0
102
RTVSPost2010PropOp49
 70
     1
102
RTVSPost2010Prop50
 90
       50
102
RTVSPost2010PropOp50
 70
     1
102
RTVSPost2010Prop51ColorIndex
 90
      256
102
RTVSPost2010Prop51ColorRGB
 90
-16777216
102
RTVSPost2010PropOp51
 70
     0
102
RTVSPost2010Prop52
140
1.0
102
RTVSPost2010PropOp52
 70
     0
102
RTVSPost2010Prop53
 90
        2
102
RTVSPost2010PropOp53
 70
     1
102
RTVSPost2010Prop54
  1
strokes_ogs.tif
102
RTVSPost2010PropOp54
 70
     1
102
RTVSPost2010Prop55
280
     0
102
RTVSPost2010PropOp55
 70
     1
102
RTVSPost2010Prop56
140
1.0
102
RTVSPost2010PropOp56
 70
     1
102
RTVSPost2010Prop57
140
1.0
102
RTVSPost2010PropOp57
 70
     1
102
RTVSPropertyOp0
 70
     1
102
RTVSPropertyOp1
 70
     1
102
RTVSPropertyOp2
 70
     1
102
RTVSPropertyOp3
 70
     1
102
RTVSPropertyOp4
 70
     1
102
RTVSPropertyOp5
 70
     1
102
RTVSPropertyOp6
 70
     1
102
RTVSPropertyOp7
 70
     1
102
RTVSPropertyOp8
 70
     1
102
RTVSPropertyOp9
 70
     1
102
RTVSPropertyOp10
 70
     1
102
RTVSPropertyOp11
 70
     1
102
RTVSPropertyOp12
 70
     1
102
RTVSPropertyOp13
 70
     1
102
RTVSPropertyOp14
 70
     1
102
RTVSPropertyOp15
 70
     1
102
RTVSPropertyOp16
 70
     1
102
RTVSPropertyOp17
 70
     1
102
RTVSPropertyOp18
 70
     1
102
RTVSPropertyOp19
 70
     1
102
RTVSPropertyOp20
 70
     1
102
RTVSPropertyOp21
 70
     1
102
RTVSPropertyOp22
 70
     1
102
RTVSPropertyOp23
 70
     1
102
RTVSPropertyOp24
 70
     1
102
RTVSPropertyOp25
 70
     1
102
RTVSPropertyOp26
 70
     1
102
RTVSPropertyOp27
 70
     1
102
RTVSPropertyOp28
 70
     1
102
RTVSPropertyOp29
 70
     1
102
RTVSPropertyOp30
 70
     1
102
RTVSPropertyOp31
 70
     1
102
RTVSPropertyOp32
 70
     1
102
RTVSPropertyOp33
 70
     1
102
RTVSPropertyOp34
 70
     1
102
RTVSPropertyOp35
 70
     1
102
RTVSPropertyOp36
 70
     1
102
RTVSPropertyOp37
 70
     1
102
RTVSPropertyOp38
 70
     1
102
RTVSPropertyOp39
 70
     1
102
RTVSPropertyOp40
 70
     1
102
RTVSPropertyOp41
 70
     1
102
RTVSPropertyOp42
 70
     1
102
RTVSPropertyOp43
 70
     1
102
RTVSPropertyOp44
 70
     1
102
RTVSPropertyOp45
 70
     1
102
RTVSPropertyOp46
 70
     1
102
RTVSPropertyOp47
 70
     1
102
RTVSPropertyOp48
 70
     1
102
RTVSPropertyOp49
 70
     1
102
RTVSPropertyOp50
 70
     1
102
RTVSPropertyOp51
 70
     0
102
RTVSPropertyOp52
 70
     0
102
RTVSPropertyOp53
 70
     1
102
RTVSPropertyOp54
 70
     1
102
RTVSPropertyOp55
 70
     1
102
RTVSPropertyOp56
 70
     1
102
RTVSPropertyOp57
 70
     1
102
RTVSPropertyOp58
 70
     1
102
RTVSPropertyOp59
 70
     1
102
RTVSPropertyOp60
 70
     1
102
RTVSPropertyOp61
 70
     1
102
RTVSPropertyOp62
 70
     1
  0
XRECORD
  5
9DA4
102
{ACAD_REACTORS
330
9DA3
102
}
330
9DA3
100
AcDbXrecord
280
     1
102
RTVSPost2010Prop28
280
     0
102
RTVSPost2010PropOp28
 70
     1
102
RTVSPost2010Prop29
280
     1
102
RTVSPost2010PropOp29
 70
     1
102
RTVSPost2010Prop30
280
     1
102
RTVSPost2010PropOp30
 70
     1
102
RTVSPost2010Prop31
280
     0
102
RTVSPost2010PropOp31
 70
     1
102
RTVSPost2010Prop32
280
     0
102
RTVSPost2010PropOp32
 70
     1
102
RTVSPost2010Prop33
280
     0
102
RTVSPost2010PropOp33
 70
     1
102
RTVSPost2010Prop34
280
     0
102
RTVSPost2010PropOp34
 70
     1
102
RTVSPost2010Prop35
280
     0
102
RTVSPost2010PropOp35
 70
     1
102
RTVSPost2010Prop36
280
     0
102
RTVSPost2010PropOp36
 70
     1
102
RTVSPost2010Prop37
 90
       50
102
RTVSPost2010PropOp37
 70
     1
102
RTVSPost2010Prop38
140
0.0
102
RTVSPost2010PropOp38
 70
     1
102
RTVSPost2010Prop39
140
1.0
102
RTVSPost2010PropOp39
 70
     1
102
RTVSPost2010Prop40
 90
        0
102
RTVSPost2010PropOp40
 70
     1
102
RTVSPost2010Prop41ColorIndex
 90
       18
102
RTVSPost2010Prop41ColorRGB
 90
        0
102
RTVSPost2010PropOp41
 70
     1
102
RTVSPost2010Prop42
 90
       50
102
RTVSPost2010PropOp42
 70
     1
102
RTVSPost2010Prop43
 90
        3
102
RTVSPost2010PropOp43
 70
     1
102
RTVSPost2010Prop44ColorIndex
 90
        5
102
RTVSPost2010Prop44ColorRGB
 90
      255
102
RTVSPost2010PropOp44
 70
     1
102
RTVSPost2010Prop45
280
     0
102
RTVSPost2010PropOp45
 70
     1
102
RTVSPost2010Prop46
 90
       50
102
RTVSPost2010PropOp46
 70
     1
102
RTVSPost2010Prop47
 90
       50
102
RTVSPost2010PropOp47
 70
     1
102
RTVSPost2010Prop48
 90
       50
102
RTVSPost2010PropOp48
 70
     1
102
RTVSPost2010Prop49
280
     0
102
RTVSPost2010PropOp49
 70
     1
102
RTVSPost2010Prop50
 90
       50
102
RTVSPost2010PropOp50
 70
     1
102
RTVSPost2010Prop51ColorIndex
 90
      256
102
RTVSPost2010Prop51ColorRGB
 90
-16777216
102
RTVSPost2010PropOp51
 70
     0
102
RTVSPost2010Prop52
140
1.0
102
RTVSPost2010PropOp52
 70
     0
102
RTVSPost2010Prop53
 90
        2
102
RTVSPost2010PropOp53
 70
     1
102
RTVSPost2010Prop54
  1
strokes_ogs.tif
102
RTVSPost2010PropOp54
 70
     1
102
RTVSPost2010Prop55
280
     0
102
RTVSPost2010PropOp55
 70
     1
102
RTVSPost2010Prop56
140
1.0
102
RTVSPost2010PropOp56
 70
     1
102
RTVSPost2010Prop57
140
1.0
102
RTVSPost2010PropOp57
 70
     1
102
RTVSPropertyOp0
 70
     1
102
RTVSPropertyOp1
 70
     1
102
RTVSPropertyOp2
 70
     1
102
RTVSPropertyOp3
 70
     1
102
RTVSPropertyOp4
 70
     1
102
RTVSPropertyOp5
 70
     1
102
RTVSPropertyOp6
 70
     1
102
RTVSPropertyOp7
 70
     1
102
RTVSPropertyOp8
 70
     1
102
RTVSPropertyOp9
 70
     1
102
RTVSPropertyOp10
 70
     1
102
RTVSPropertyOp11
 70
     1
102
RTVSPropertyOp12
 70
     1
102
RTVSPropertyOp13
 70
     1
102
RTVSPropertyOp14
 70
     1
102
RTVSPropertyOp15
 70
     1
102
RTVSPropertyOp16
 70
     1
102
RTVSPropertyOp17
 70
     1
102
RTVSPropertyOp18
 70
     1
102
RTVSPropertyOp19
 70
     1
102
RTVSPropertyOp20
 70
     1
102
RTVSPropertyOp21
 70
     1
102
RTVSPropertyOp22
 70
     1
102
RTVSPropertyOp23
 70
     1
102
RTVSPropertyOp24
 70
     1
102
RTVSPropertyOp25
 70
     1
102
RTVSPropertyOp26
 70
     1
102
RTVSPropertyOp27
 70
     1
102
RTVSPropertyOp28
 70
     1
102
RTVSPropertyOp29
 70
     1
102
RTVSPropertyOp30
 70
     1
102
RTVSPropertyOp31
 70
     1
102
RTVSPropertyOp32
 70
     1
102
RTVSPropertyOp33
 70
     1
102
RTVSPropertyOp34
 70
     1
102
RTVSPropertyOp35
 70
     1
102
RTVSPropertyOp36
 70
     1
102
RTVSPropertyOp37
 70
     1
102
RTVSPropertyOp38
 70
     1
102
RTVSPropertyOp39
 70
     1
102
RTVSPropertyOp40
 70
     1
102
RTVSPropertyOp41
 70
     1
102
RTVSPropertyOp42
 70
     1
102
RTVSPropertyOp43
 70
     1
102
RTVSPropertyOp44
 70
     1
102
RTVSPropertyOp45
 70
     1
102
RTVSPropertyOp46
 70
     1
102
RTVSPropertyOp47
 70
     1
102
RTVSPropertyOp48
 70
     1
102
RTVSPropertyOp49
 70
     1
102
RTVSPropertyOp50
 70
     1
102
RTVSPropertyOp51
 70
     0
102
RTVSPropertyOp52
 70
     0
102
RTVSPropertyOp53
 70
     1
102
RTVSPropertyOp54
 70
     1
102
RTVSPropertyOp55
 70
     1
102
RTVSPropertyOp56
 70
     1
102
RTVSPropertyOp57
 70
     1
102
RTVSPropertyOp58
 70
     1
102
RTVSPropertyOp59
 70
     1
102
RTVSPropertyOp60
 70
     1
102
RTVSPropertyOp61
 70
     1
102
RTVSPropertyOp62
 70
     1
  0
XRECORD
  5
9DA6
102
{ACAD_REACTORS
330
9DA5
102
}
330
9DA5
100
AcDbXrecord
280
     1
102
RTVSPost2010Prop28
280
     0
102
RTVSPost2010PropOp28
 70
     1
102
RTVSPost2010Prop29
280
     1
102
RTVSPost2010PropOp29
 70
     1
102
RTVSPost2010Prop30
280
     1
102
RTVSPost2010PropOp30
 70
     1
102
RTVSPost2010Prop31
280
     0
102
RTVSPost2010PropOp31
 70
     1
102
RTVSPost2010Prop32
280
     0
102
RTVSPost2010PropOp32
 70
     1
102
RTVSPost2010Prop33
280
     0
102
RTVSPost2010PropOp33
 70
     1
102
RTVSPost2010Prop34
280
     0
102
RTVSPost2010PropOp34
 70
     1
102
RTVSPost2010Prop35
280
     0
102
RTVSPost2010PropOp35
 70
     1
102
RTVSPost2010Prop36
280
     0
102
RTVSPost2010PropOp36
 70
     1
102
RTVSPost2010Prop37
 90
       50
102
RTVSPost2010PropOp37
 70
     1
102
RTVSPost2010Prop38
140
0.0
102
RTVSPost2010PropOp38
 70
     1
102
RTVSPost2010Prop39
140
1.0
102
RTVSPost2010PropOp39
 70
     1
102
RTVSPost2010Prop40
 90
        0
102
RTVSPost2010PropOp40
 70
     1
102
RTVSPost2010Prop41ColorIndex
 90
       18
102
RTVSPost2010Prop41ColorRGB
 90
        0
102
RTVSPost2010PropOp41
 70
     1
102
RTVSPost2010Prop42
 90
       50
102
RTVSPost2010PropOp42
 70
     1
102
RTVSPost2010Prop43
 90
        3
102
RTVSPost2010PropOp43
 70
     1
102
RTVSPost2010Prop44ColorIndex
 90
        5
102
RTVSPost2010Prop44ColorRGB
 90
      255
102
RTVSPost2010PropOp44
 70
     1
102
RTVSPost2010Prop45
280
     0
102
RTVSPost2010PropOp45
 70
     1
102
RTVSPost2010Prop46
 90
       50
102
RTVSPost2010PropOp46
 70
     1
102
RTVSPost2010Prop47
 90
       50
102
RTVSPost2010PropOp47
 70
     1
102
RTVSPost2010Prop48
 90
       50
102
RTVSPost2010PropOp48
 70
     1
102
RTVSPost2010Prop49
280
     0
102
RTVSPost2010PropOp49
 70
     1
102
RTVSPost2010Prop50
 90
       50
102
RTVSPost2010PropOp50
 70
     1
102
RTVSPost2010Prop51ColorIndex
 90
      256
102
RTVSPost2010Prop51ColorRGB
 90
-16777216
102
RTVSPost2010PropOp51
 70
     0
102
RTVSPost2010Prop52
140
1.0
102
RTVSPost2010PropOp52
 70
     0
102
RTVSPost2010Prop53
 90
        2
102
RTVSPost2010PropOp53
 70
     1
102
RTVSPost2010Prop54
  1
strokes_ogs.tif
102
RTVSPost2010PropOp54
 70
     1
102
RTVSPost2010Prop55
280
     0
102
RTVSPost2010PropOp55
 70
     1
102
RTVSPost2010Prop56
140
1.0
102
RTVSPost2010PropOp56
 70
     1
102
RTVSPost2010Prop57
140
1.0
102
RTVSPost2010PropOp57
 70
     1
102
RTVSPropertyOp0
 70
     1
102
RTVSPropertyOp1
 70
     1
102
RTVSPropertyOp2
 70
     1
102
RTVSPropertyOp3
 70
     1
102
RTVSPropertyOp4
 70
     1
102
RTVSPropertyOp5
 70
     1
102
RTVSPropertyOp6
 70
     1
102
RTVSPropertyOp7
 70
     1
102
RTVSPropertyOp8
 70
     1
102
RTVSPropertyOp9
 70
     1
102
RTVSPropertyOp10
 70
     1
102
RTVSPropertyOp11
 70
     1
102
RTVSPropertyOp12
 70
     1
102
RTVSPropertyOp13
 70
     1
102
RTVSPropertyOp14
 70
     1
102
RTVSPropertyOp15
 70
     1
102
RTVSPropertyOp16
 70
     1
102
RTVSPropertyOp17
 70
     1
102
RTVSPropertyOp18
 70
     1
102
RTVSPropertyOp19
 70
     1
102
RTVSPropertyOp20
 70
     1
102
RTVSPropertyOp21
 70
     1
102
RTVSPropertyOp22
 70
     1
102
RTVSPropertyOp23
 70
     1
102
RTVSPropertyOp24
 70
     1
102
RTVSPropertyOp25
 70
     1
102
RTVSPropertyOp26
 70
     1
102
RTVSPropertyOp27
 70
     1
102
RTVSPropertyOp28
 70
     1
102
RTVSPropertyOp29
 70
     1
102
RTVSPropertyOp30
 70
     1
102
RTVSPropertyOp31
 70
     1
102
RTVSPropertyOp32
 70
     1
102
RTVSPropertyOp33
 70
     1
102
RTVSPropertyOp34
 70
     1
102
RTVSPropertyOp35
 70
     1
102
RTVSPropertyOp36
 70
     1
102
RTVSPropertyOp37
 70
     1
102
RTVSPropertyOp38
 70
     1
102
RTVSPropertyOp39
 70
     1
102
RTVSPropertyOp40
 70
     1
102
RTVSPropertyOp41
 70
     1
102
RTVSPropertyOp42
 70
     1
102
RTVSPropertyOp43
 70
     1
102
RTVSPropertyOp44
 70
     1
102
RTVSPropertyOp45
 70
     1
102
RTVSPropertyOp46
 70
     1
102
RTVSPropertyOp47
 70
     1
102
RTVSPropertyOp48
 70
     1
102
RTVSPropertyOp49
 70
     1
102
RTVSPropertyOp50
 70
     1
102
RTVSPropertyOp51
 70
     0
102
RTVSPropertyOp52
 70
     0
102
RTVSPropertyOp53
 70
     1
102
RTVSPropertyOp54
 70
     1
102
RTVSPropertyOp55
 70
     1
102
RTVSPropertyOp56
 70
     1
102
RTVSPropertyOp57
 70
     1
102
RTVSPropertyOp58
 70
     1
102
RTVSPropertyOp59
 70
     1
102
RTVSPropertyOp60
 70
     1
102
RTVSPropertyOp61
 70
     1
102
RTVSPropertyOp62
 70
     1
  0
XRECORD
  5
9D93
102
{ACAD_REACTORS
330
9D92
102
}
330
9D92
100
AcDbXrecord
280
     1
102
RTVSPost2010Prop28
280
     0
102
RTVSPost2010PropOp28
 70
     1
102
RTVSPost2010Prop29
280
     1
102
RTVSPost2010PropOp29
 70
     1
102
RTVSPost2010Prop30
280
     1
102
RTVSPost2010PropOp30
 70
     1
102
RTVSPost2010Prop31
280
     0
102
RTVSPost2010PropOp31
 70
     1
102
RTVSPost2010Prop32
280
     0
102
RTVSPost2010PropOp32
 70
     1
102
RTVSPost2010Prop33
280
     0
102
RTVSPost2010PropOp33
 70
     1
102
RTVSPost2010Prop34
280
     0
102
RTVSPost2010PropOp34
 70
     1
102
RTVSPost2010Prop35
280
     0
102
RTVSPost2010PropOp35
 70
     1
102
RTVSPost2010Prop36
280
     0
102
RTVSPost2010PropOp36
 70
     1
102
RTVSPost2010Prop37
 90
       50
102
RTVSPost2010PropOp37
 70
     1
102
RTVSPost2010Prop38
140
0.0
102
RTVSPost2010PropOp38
 70
     1
102
RTVSPost2010Prop39
140
1.0
102
RTVSPost2010PropOp39
 70
     1
102
RTVSPost2010Prop40
 90
        0
102
RTVSPost2010PropOp40
 70
     1
102
RTVSPost2010Prop41ColorIndex
 90
       18
102
RTVSPost2010Prop41ColorRGB
 90
        0
102
RTVSPost2010PropOp41
 70
     1
102
RTVSPost2010Prop42
 90
       50
102
RTVSPost2010PropOp42
 70
     1
102
RTVSPost2010Prop43
 90
        3
102
RTVSPost2010PropOp43
 70
     1
102
RTVSPost2010Prop44ColorIndex
 90
        5
102
RTVSPost2010Prop44ColorRGB
 90
      255
102
RTVSPost2010PropOp44
 70
     1
102
RTVSPost2010Prop45
280
     0
102
RTVSPost2010PropOp45
 70
     1
102
RTVSPost2010Prop46
 90
       50
102
RTVSPost2010PropOp46
 70
     1
102
RTVSPost2010Prop47
 90
       50
102
RTVSPost2010PropOp47
 70
     1
102
RTVSPost2010Prop48
 90
       50
102
RTVSPost2010PropOp48
 70
     1
102
RTVSPost2010Prop49
280
     0
102
RTVSPost2010PropOp49
 70
     1
102
RTVSPost2010Prop50
 90
       50
102
RTVSPost2010PropOp50
 70
     1
102
RTVSPost2010Prop51ColorIndex
 90
      256
102
RTVSPost2010Prop51ColorRGB
 90
-16777216
102
RTVSPost2010PropOp51
 70
     0
102
RTVSPost2010Prop52
140
1.0
102
RTVSPost2010PropOp52
 70
     0
102
RTVSPost2010Prop53
 90
        2
102
RTVSPost2010PropOp53
 70
     1
102
RTVSPost2010Prop54
  1
strokes_ogs.tif
102
RTVSPost2010PropOp54
 70
     1
102
RTVSPost2010Prop55
280
     0
102
RTVSPost2010PropOp55
 70
     1
102
RTVSPost2010Prop56
140
1.0
102
RTVSPost2010PropOp56
 70
     1
102
RTVSPost2010Prop57
140
1.0
102
RTVSPost2010PropOp57
 70
     1
102
RTVSPropertyOp0
 70
     1
102
RTVSPropertyOp1
 70
     1
102
RTVSPropertyOp2
 70
     1
102
RTVSPropertyOp3
 70
     1
102
RTVSPropertyOp4
 70
     1
102
RTVSPropertyOp5
 70
     1
102
RTVSPropertyOp6
 70
     1
102
RTVSPropertyOp7
 70
     1
102
RTVSPropertyOp8
 70
     1
102
RTVSPropertyOp9
 70
     1
102
RTVSPropertyOp10
 70
     1
102
RTVSPropertyOp11
 70
     1
102
RTVSPropertyOp12
 70
     1
102
RTVSPropertyOp13
 70
     1
102
RTVSPropertyOp14
 70
     1
102
RTVSPropertyOp15
 70
     1
102
RTVSPropertyOp16
 70
     1
102
RTVSPropertyOp17
 70
     1
102
RTVSPropertyOp18
 70
     1
102
RTVSPropertyOp19
 70
     1
102
RTVSPropertyOp20
 70
     1
102
RTVSPropertyOp21
 70
     1
102
RTVSPropertyOp22
 70
     1
102
RTVSPropertyOp23
 70
     1
102
RTVSPropertyOp24
 70
     1
102
RTVSPropertyOp25
 70
     1
102
RTVSPropertyOp26
 70
     1
102
RTVSPropertyOp27
 70
     1
102
RTVSPropertyOp28
 70
     1
102
RTVSPropertyOp29
 70
     1
102
RTVSPropertyOp30
 70
     1
102
RTVSPropertyOp31
 70
     1
102
RTVSPropertyOp32
 70
     1
102
RTVSPropertyOp33
 70
     1
102
RTVSPropertyOp34
 70
     1
102
RTVSPropertyOp35
 70
     1
102
RTVSPropertyOp36
 70
     1
102
RTVSPropertyOp37
 70
     1
102
RTVSPropertyOp38
 70
     1
102
RTVSPropertyOp39
 70
     1
102
RTVSPropertyOp40
 70
     1
102
RTVSPropertyOp41
 70
     1
102
RTVSPropertyOp42
 70
     1
102
RTVSPropertyOp43
 70
     1
102
RTVSPropertyOp44
 70
     1
102
RTVSPropertyOp45
 70
     1
102
RTVSPropertyOp46
 70
     1
102
RTVSPropertyOp47
 70
     1
102
RTVSPropertyOp48
 70
     1
102
RTVSPropertyOp49
 70
     1
102
RTVSPropertyOp50
 70
     1
102
RTVSPropertyOp51
 70
     0
102
RTVSPropertyOp52
 70
     0
102
RTVSPropertyOp53
 70
     1
102
RTVSPropertyOp54
 70
     1
102
RTVSPropertyOp55
 70
     1
102
RTVSPropertyOp56
 70
     1
102
RTVSPropertyOp57
 70
     1
102
RTVSPropertyOp58
 70
     1
102
RTVSPropertyOp59
 70
     1
102
RTVSPropertyOp60
 70
     1
102
RTVSPropertyOp61
 70
     1
102
RTVSPropertyOp62
 70
     1
  0
XRECORD
  5
9DA0
102
{ACAD_REACTORS
330
9D9F
102
}
330
9D9F
100
AcDbXrecord
280
     1
102
RTVSPost2010Prop28
280
     0
102
RTVSPost2010PropOp28
 70
     1
102
RTVSPost2010Prop29
280
     1
102
RTVSPost2010PropOp29
 70
     1
102
RTVSPost2010Prop30
280
     1
102
RTVSPost2010PropOp30
 70
     1
102
RTVSPost2010Prop31
280
     0
102
RTVSPost2010PropOp31
 70
     1
102
RTVSPost2010Prop32
280
     0
102
RTVSPost2010PropOp32
 70
     1
102
RTVSPost2010Prop33
280
     0
102
RTVSPost2010PropOp33
 70
     1
102
RTVSPost2010Prop34
280
     0
102
RTVSPost2010PropOp34
 70
     1
102
RTVSPost2010Prop35
280
     0
102
RTVSPost2010PropOp35
 70
     1
102
RTVSPost2010Prop36
280
     0
102
RTVSPost2010PropOp36
 70
     1
102
RTVSPost2010Prop37
 90
       50
102
RTVSPost2010PropOp37
 70
     1
102
RTVSPost2010Prop38
140
0.0
102
RTVSPost2010PropOp38
 70
     1
102
RTVSPost2010Prop39
140
1.0
102
RTVSPost2010PropOp39
 70
     1
102
RTVSPost2010Prop40
 90
        0
102
RTVSPost2010PropOp40
 70
     1
102
RTVSPost2010Prop41ColorIndex
 90
       18
102
RTVSPost2010Prop41ColorRGB
 90
        0
102
RTVSPost2010PropOp41
 70
     1
102
RTVSPost2010Prop42
 90
       50
102
RTVSPost2010PropOp42
 70
     1
102
RTVSPost2010Prop43
 90
        3
102
RTVSPost2010PropOp43
 70
     1
102
RTVSPost2010Prop44ColorIndex
 90
        5
102
RTVSPost2010Prop44ColorRGB
 90
      255
102
RTVSPost2010PropOp44
 70
     1
102
RTVSPost2010Prop45
280
     0
102
RTVSPost2010PropOp45
 70
     1
102
RTVSPost2010Prop46
 90
       50
102
RTVSPost2010PropOp46
 70
     1
102
RTVSPost2010Prop47
 90
       50
102
RTVSPost2010PropOp47
 70
     1
102
RTVSPost2010Prop48
 90
       50
102
RTVSPost2010PropOp48
 70
     1
102
RTVSPost2010Prop49
280
     0
102
RTVSPost2010PropOp49
 70
     1
102
RTVSPost2010Prop50
 90
       50
102
RTVSPost2010PropOp50
 70
     1
102
RTVSPost2010Prop51ColorIndex
 90
      256
102
RTVSPost2010Prop51ColorRGB
 90
-16777216
102
RTVSPost2010PropOp51
 70
     0
102
RTVSPost2010Prop52
140
1.0
102
RTVSPost2010PropOp52
 70
     0
102
RTVSPost2010Prop53
 90
        2
102
RTVSPost2010PropOp53
 70
     1
102
RTVSPost2010Prop54
  1
strokes_ogs.tif
102
RTVSPost2010PropOp54
 70
     1
102
RTVSPost2010Prop55
280
     0
102
RTVSPost2010PropOp55
 70
     1
102
RTVSPost2010Prop56
140
1.0
102
RTVSPost2010PropOp56
 70
     1
102
RTVSPost2010Prop57
140
1.0
102
RTVSPost2010PropOp57
 70
     1
102
RTVSPropertyOp0
 70
     1
102
RTVSPropertyOp1
 70
     1
102
RTVSPropertyOp2
 70
     1
102
RTVSPropertyOp3
 70
     1
102
RTVSPropertyOp4
 70
     1
102
RTVSPropertyOp5
 70
     1
102
RTVSPropertyOp6
 70
     1
102
RTVSPropertyOp7
 70
     1
102
RTVSPropertyOp8
 70
     1
102
RTVSPropertyOp9
 70
     1
102
RTVSPropertyOp10
 70
     1
102
RTVSPropertyOp11
 70
     1
102
RTVSPropertyOp12
 70
     1
102
RTVSPropertyOp13
 70
     1
102
RTVSPropertyOp14
 70
     1
102
RTVSPropertyOp15
 70
     1
102
RTVSPropertyOp16
 70
     1
102
RTVSPropertyOp17
 70
     1
102
RTVSPropertyOp18
 70
     1
102
RTVSPropertyOp19
 70
     1
102
RTVSPropertyOp20
 70
     1
102
RTVSPropertyOp21
 70
     1
102
RTVSPropertyOp22
 70
     1
102
RTVSPropertyOp23
 70
     1
102
RTVSPropertyOp24
 70
     1
102
RTVSPropertyOp25
 70
     1
102
RTVSPropertyOp26
 70
     1
102
RTVSPropertyOp27
 70
     1
102
RTVSPropertyOp28
 70
     1
102
RTVSPropertyOp29
 70
     1
102
RTVSPropertyOp30
 70
     1
102
RTVSPropertyOp31
 70
     1
102
RTVSPropertyOp32
 70
     1
102
RTVSPropertyOp33
 70
     1
102
RTVSPropertyOp34
 70
     1
102
RTVSPropertyOp35
 70
     1
102
RTVSPropertyOp36
 70
     1
102
RTVSPropertyOp37
 70
     1
102
RTVSPropertyOp38
 70
     1
102
RTVSPropertyOp39
 70
     1
102
RTVSPropertyOp40
 70
     1
102
RTVSPropertyOp41
 70
     1
102
RTVSPropertyOp42
 70
     1
102
RTVSPropertyOp43
 70
     1
102
RTVSPropertyOp44
 70
     1
102
RTVSPropertyOp45
 70
     1
102
RTVSPropertyOp46
 70
     1
102
RTVSPropertyOp47
 70
     1
102
RTVSPropertyOp48
 70
     1
102
RTVSPropertyOp49
 70
     1
102
RTVSPropertyOp50
 70
     1
102
RTVSPropertyOp51
 70
     0
102
RTVSPropertyOp52
 70
     0
102
RTVSPropertyOp53
 70
     1
102
RTVSPropertyOp54
 70
     1
102
RTVSPropertyOp55
 70
     1
102
RTVSPropertyOp56
 70
     1
102
RTVSPropertyOp57
 70
     1
102
RTVSPropertyOp58
 70
     1
102
RTVSPropertyOp59
 70
     1
102
RTVSPropertyOp60
 70
     1
102
RTVSPropertyOp61
 70
     1
102
RTVSPropertyOp62
 70
     1
  0
XRECORD
  5
9DA8
102
{ACAD_REACTORS
330
9DA7
102
}
330
9DA7
100
AcDbXrecord
280
     1
102
RTVSPost2010Prop28
280
     0
102
RTVSPost2010PropOp28
 70
     1
102
RTVSPost2010Prop29
280
     1
102
RTVSPost2010PropOp29
 70
     1
102
RTVSPost2010Prop30
280
     1
102
RTVSPost2010PropOp30
 70
     1
102
RTVSPost2010Prop31
280
     0
102
RTVSPost2010PropOp31
 70
     1
102
RTVSPost2010Prop32
280
     0
102
RTVSPost2010PropOp32
 70
     1
102
RTVSPost2010Prop33
280
     0
102
RTVSPost2010PropOp33
 70
     1
102
RTVSPost2010Prop34
280
     0
102
RTVSPost2010PropOp34
 70
     1
102
RTVSPost2010Prop35
280
     0
102
RTVSPost2010PropOp35
 70
     1
102
RTVSPost2010Prop36
280
     0
102
RTVSPost2010PropOp36
 70
     1
102
RTVSPost2010Prop37
 90
       50
102
RTVSPost2010PropOp37
 70
     1
102
RTVSPost2010Prop38
140
0.0
102
RTVSPost2010PropOp38
 70
     1
102
RTVSPost2010Prop39
140
1.0
102
RTVSPost2010PropOp39
 70
     1
102
RTVSPost2010Prop40
 90
        0
102
RTVSPost2010PropOp40
 70
     1
102
RTVSPost2010Prop41ColorIndex
 90
       18
102
RTVSPost2010Prop41ColorRGB
 90
        0
102
RTVSPost2010PropOp41
 70
     1
102
RTVSPost2010Prop42
 90
       50
102
RTVSPost2010PropOp42
 70
     1
102
RTVSPost2010Prop43
 90
        3
102
RTVSPost2010PropOp43
 70
     1
102
RTVSPost2010Prop44ColorIndex
 90
        5
102
RTVSPost2010Prop44ColorRGB
 90
      255
102
RTVSPost2010PropOp44
 70
     1
102
RTVSPost2010Prop45
280
     0
102
RTVSPost2010PropOp45
 70
     1
102
RTVSPost2010Prop46
 90
       50
102
RTVSPost2010PropOp46
 70
     1
102
RTVSPost2010Prop47
 90
       50
102
RTVSPost2010PropOp47
 70
     1
102
RTVSPost2010Prop48
 90
       50
102
RTVSPost2010PropOp48
 70
     1
102
RTVSPost2010Prop49
280
     0
102
RTVSPost2010PropOp49
 70
     1
102
RTVSPost2010Prop50
 90
       50
102
RTVSPost2010PropOp50
 70
     1
102
RTVSPost2010Prop51ColorIndex
 90
      256
102
RTVSPost2010Prop51ColorRGB
 90
-16777216
102
RTVSPost2010PropOp51
 70
     0
102
RTVSPost2010Prop52
140
1.0
102
RTVSPost2010PropOp52
 70
     0
102
RTVSPost2010Prop53
 90
        2
102
RTVSPost2010PropOp53
 70
     1
102
RTVSPost2010Prop54
  1
strokes_ogs.tif
102
RTVSPost2010PropOp54
 70
     1
102
RTVSPost2010Prop55
280
     0
102
RTVSPost2010PropOp55
 70
     1
102
RTVSPost2010Prop56
140
1.0
102
RTVSPost2010PropOp56
 70
     1
102
RTVSPost2010Prop57
140
1.0
102
RTVSPost2010PropOp57
 70
     1
102
RTVSPropertyOp0
 70
     1
102
RTVSPropertyOp1
 70
     1
102
RTVSPropertyOp2
 70
     1
102
RTVSPropertyOp3
 70
     1
102
RTVSPropertyOp4
 70
     1
102
RTVSPropertyOp5
 70
     1
102
RTVSPropertyOp6
 70
     1
102
RTVSPropertyOp7
 70
     1
102
RTVSPropertyOp8
 70
     1
102
RTVSPropertyOp9
 70
     1
102
RTVSPropertyOp10
 70
     1
102
RTVSPropertyOp11
 70
     1
102
RTVSPropertyOp12
 70
     1
102
RTVSPropertyOp13
 70
     1
102
RTVSPropertyOp14
 70
     1
102
RTVSPropertyOp15
 70
     1
102
RTVSPropertyOp16
 70
     1
102
RTVSPropertyOp17
 70
     1
102
RTVSPropertyOp18
 70
     1
102
RTVSPropertyOp19
 70
     1
102
RTVSPropertyOp20
 70
     1
102
RTVSPropertyOp21
 70
     1
102
RTVSPropertyOp22
 70
     1
102
RTVSPropertyOp23
 70
     1
102
RTVSPropertyOp24
 70
     1
102
RTVSPropertyOp25
 70
     1
102
RTVSPropertyOp26
 70
     1
102
RTVSPropertyOp27
 70
     1
102
RTVSPropertyOp28
 70
     1
102
RTVSPropertyOp29
 70
     1
102
RTVSPropertyOp30
 70
     1
102
RTVSPropertyOp31
 70
     1
102
RTVSPropertyOp32
 70
     1
102
RTVSPropertyOp33
 70
     1
102
RTVSPropertyOp34
 70
     1
102
RTVSPropertyOp35
 70
     1
102
RTVSPropertyOp36
 70
     1
102
RTVSPropertyOp37
 70
     1
102
RTVSPropertyOp38
 70
     1
102
RTVSPropertyOp39
 70
     1
102
RTVSPropertyOp40
 70
     1
102
RTVSPropertyOp41
 70
     1
102
RTVSPropertyOp42
 70
     1
102
RTVSPropertyOp43
 70
     1
102
RTVSPropertyOp44
 70
     1
102
RTVSPropertyOp45
 70
     1
102
RTVSPropertyOp46
 70
     1
102
RTVSPropertyOp47
 70
     1
102
RTVSPropertyOp48
 70
     1
102
RTVSPropertyOp49
 70
     1
102
RTVSPropertyOp50
 70
     1
102
RTVSPropertyOp51
 70
     0
102
RTVSPropertyOp52
 70
     0
102
RTVSPropertyOp53
 70
     1
102
RTVSPropertyOp54
 70
     1
102
RTVSPropertyOp55
 70
     1
102
RTVSPropertyOp56
 70
     1
102
RTVSPropertyOp57
 70
     1
102
RTVSPropertyOp58
 70
     1
102
RTVSPropertyOp59
 70
     1
102
RTVSPropertyOp60
 70
     1
102
RTVSPropertyOp61
 70
     1
102
RTVSPropertyOp62
 70
     1
  0
XRECORD
  5
487A
102
{ACAD_REACTORS
330
4879
102
}
330
4879
100
AcDbXrecord
280
     1
330
1736
  0
ENDSEC
  0
EOF
