  0
SECTION
  2
HEADER
  9
$ACADVER
  1
AC1015
  9
$ACADMAINTVER
 70
    20
  9
$DWGCODEPAGE
  3
ANSI_932
  9
$INSBASE
 10
0.0
 20
0.0
 30
0.0
  9
$EXTMIN
 10
-192.4408603006057
 20
-629.4156964330866
 30
0.0
  9
$EXTMAX
 10
1393.159139699394
 20
1651.268452197598
 30
0.0
  9
$LIMMIN
 10
0.0
 20
0.0
  9
$LIMMAX
 10
420.0
 20
297.0
  9
$ORTHOMODE
 70
     0
  9
$REGENMODE
 70
     1
  9
$FILLMODE
 70
     1
  9
$QTEXTMODE
 70
     0
  9
$MIRRTEXT
 70
     0
  9
$LTSCALE
 40
1.0
  9
$ATTMODE
 70
     1
  9
$TEXTSIZE
 40
2.5
  9
$TRACEWID
 40
1.0
  9
$TEXTSTYLE
  7
STANDARD
  9
$CLAYER
  8
0
  9
$CELTYPE
  6
ByLayer
  9
$CECOLOR
 62
   256
  9
$CELTSCALE
 40
1.0
  9
$DISPSILH
 70
     0
  9
$DIMSCALE
 40
1.0
  9
$DIMASZ
 40
0.18
  9
$DIMEXO
 40
0.0625
  9
$DIMDLI
 40
0.38
  9
$DIMRND
 40
0.0
  9
$DIMDLE
 40
0.0
  9
$DIMEXE
 40
0.18
  9
$DIMTP
 40
0.0
  9
$DIMTM
 40
0.0
  9
$DIMTXT
 40
0.18
  9
$DIMCEN
 40
0.09
  9
$DIMTSZ
 40
0.0
  9
$DIMTOL
 70
     0
  9
$DIMLIM
 70
     0
  9
$DIMTIH
 70
     1
  9
$DIMTOH
 70
     1
  9
$DIMSE1
 70
     0
  9
$DIMSE2
 70
     0
  9
$DIMTAD
 70
     0
  9
$DIMZIN
 70
     0
  9
$DIMBLK
  1

  9
$DIMASO
 70
     1
  9
$DIMSHO
 70
     1
  9
$DIMPOST
  1

  9
$DIMAPOST
  1

  9
$DIMALT
 70
     0
  9
$DIMALTD
 70
     2
  9
$DIMALTF
 40
25.4
  9
$DIMLFAC
 40
1.0
  9
$DIMTOFL
 70
     0
  9
$DIMTVP
 40
0.0
  9
$DIMTIX
 70
     0
  9
$DIMSOXD
 70
     0
  9
$DIMSAH
 70
     0
  9
$DIMBLK1
  1

  9
$DIMBLK2
  1

  9
$DIMSTYLE
  2
Standard
  9
$DIMCLRD
 70
     0
  9
$DIMCLRE
 70
     0
  9
$DIMCLRT
 70
     0
  9
$DIMTFAC
 40
1.0
  9
$DIMGAP
 40
0.09
  9
$DIMJUST
 70
     0
  9
$DIMSD1
 70
     0
  9
$DIMSD2
 70
     0
  9
$DIMTOLJ
 70
     1
  9
$DIMTZIN
 70
     0
  9
$DIMALTZ
 70
     0
  9
$DIMALTTZ
 70
     0
  9
$DIMUPT
 70
     0
  9
$DIMDEC
 70
     4
  9
$DIMTDEC
 70
     4
  9
$DIMALTU
 70
     2
  9
$DIMALTTD
 70
     2
  9
$DIMTXSTY
  7
STANDARD
  9
$DIMAUNIT
 70
     0
  9
$DIMADEC
 70
     0
  9
$DIMALTRND
 40
0.0
  9
$DIMAZIN
 70
     0
  9
$DIMDSEP
 70
    46
  9
$DIMATFIT
 70
     3
  9
$DIMFRAC
 70
     0
  9
$DIMLDRBLK
  1

  9
$DIMLUNIT
 70
     2
  9
$DIMLWD
 70
    -2
  9
$DIMLWE
 70
    -2
  9
$DIMTMOVE
 70
     0
  9
$LUNITS
 70
     2
  9
$LUPREC
 70
     2
  9
$SKETCHINC
 40
1.0
  9
$FILLETRAD
 40
0.0
  9
$AUNITS
 70
     0
  9
$AUPREC
 70
     0
  9
$MENU
  1
.
  9
$ELEVATION
 40
0.0
  9
$PELEVATION
 40
0.0
  9
$THICKNESS
 40
0.0
  9
$LIMCHECK
 70
     0
  9
$CHAMFERA
 40
1.0
  9
$CHAMFERB
 40
1.0
  9
$CHAMFERC
 40
0.0
  9
$CHAMFERD
 40
0.0
  9
$SKPOLY
 70
     0
  9
$TDCREATE
 40
2456378.668266783
  9
$TDUCREATE
 40
2456378.293266783
  9
$TDUPDATE
 40
2456675.758090799
  9
$TDUUPDATE
 40
2456675.383090799
  9
$TDINDWG
 40
0.2043433912
  9
$TDUSRTIMER
 40
0.2043431597
  9
$USRTIMER
 70
     1
  9
$ANGBASE
 50
0.0
  9
$ANGDIR
 70
     0
  9
$PDMODE
 70
    35
  9
$PDSIZE
 40
3.0
  9
$PLINEWID
 40
0.0
  9
$SPLFRAME
 70
     0
  9
$SPLINETYPE
 70
     6
  9
$SPLINESEGS
 70
     8
  9
$HANDSEED
  5
93BF
  9
$SURFTAB1
 70
     6
  9
$SURFTAB2
 70
     6
  9
$SURFTYPE
 70
     6
  9
$SURFU
 70
     6
  9
$SURFV
 70
     6
  9
$UCSBASE
  2

  9
$UCSNAME
  2

  9
$UCSORG
 10
0.0
 20
0.0
 30
0.0
  9
$UCSXDIR
 10
1.0
 20
0.0
 30
0.0
  9
$UCSYDIR
 10
0.0
 20
1.0
 30
0.0
  9
$UCSORTHOREF
  2

  9
$UCSORTHOVIEW
 70
     0
  9
$UCSORGTOP
 10
0.0
 20
0.0
 30
0.0
  9
$UCSORGBOTTOM
 10
0.0
 20
0.0
 30
0.0
  9
$UCSORGLEFT
 10
0.0
 20
0.0
 30
0.0
  9
$UCSORGRIGHT
 10
0.0
 20
0.0
 30
0.0
  9
$UCSORGFRONT
 10
0.0
 20
0.0
 30
0.0
  9
$UCSORGBACK
 10
0.0
 20
0.0
 30
0.0
  9
$PUCSBASE
  2

  9
$PUCSNAME
  2

  9
$PUCSORG
 10
0.0
 20
0.0
 30
0.0
  9
$PUCSXDIR
 10
1.0
 20
0.0
 30
0.0
  9
$PUCSYDIR
 10
0.0
 20
1.0
 30
0.0
  9
$PUCSORTHOREF
  2

  9
$PUCSORTHOVIEW
 70
     0
  9
$PUCSORGTOP
 10
0.0
 20
0.0
 30
0.0
  9
$PUCSORGBOTTOM
 10
0.0
 20
0.0
 30
0.0
  9
$PUCSORGLEFT
 10
0.0
 20
0.0
 30
0.0
  9
$PUCSORGRIGHT
 10
0.0
 20
0.0
 30
0.0
  9
$PUCSORGFRONT
 10
0.0
 20
0.0
 30
0.0
  9
$PUCSORGBACK
 10
0.0
 20
0.0
 30
0.0
  9
$USERI1
 70
     0
  9
$USERI2
 70
     0
  9
$USERI3
 70
     0
  9
$USERI4
 70
     0
  9
$USERI5
 70
     0
  9
$USERR1
 40
0.0
  9
$USERR2
 40
0.0
  9
$USERR3
 40
0.0
  9
$USERR4
 40
0.0
  9
$USERR5
 40
0.0
  9
$WORLDVIEW
 70
     1
  9
$SHADEDGE
 70
     3
  9
$SHADEDIF
 70
    70
  9
$TILEMODE
 70
     1
  9
$MAXACTVP
 70
    64
  9
$PINSBASE
 10
0.0
 20
0.0
 30
0.0
  9
$PLIMCHECK
 70
     0
  9
$PEXTMIN
 10
0.0
 20
0.0
 30
0.0
  9
$PEXTMAX
 10
0.0
 20
0.0
 30
0.0
  9
$PLIMMIN
 10
0.0
 20
0.0
  9
$PLIMMAX
 10
12.0
 20
9.0
  9
$UNITMODE
 70
     0
  9
$VISRETAIN
 70
     1
  9
$PLINEGEN
 70
     0
  9
$PSLTSCALE
 70
     1
  9
$TREEDEPTH
 70
  3020
  9
$CMLSTYLE
  2
Standard
  9
$CMLJUST
 70
     0
  9
$CMLSCALE
 40
20.0
  9
$PROXYGRAPHICS
 70
     1
  9
$MEASUREMENT
 70
     1
  9
$CELWEIGHT
370
    -1
  9
$ENDCAPS
280
     0
  9
$JOINSTYLE
280
     0
  9
$LWDISPLAY
290
     0
  9
$INSUNITS
 70
     4
  9
$HYPERLINKBASE
  1

  9
$STYLESHEET
  1

  9
$XEDIT
290
     1
  9
$CEPSNTYPE
380
     0
  9
$PSTYLEMODE
290
     1
  9
$FINGERPRINTGUID
  2
{E4F9DD01-ACE4-4B91-9975-AE34AC232BA2}
  9
$VERSIONGUID
  2
{ECB408E1-3A53-4715-872A-24E1FA58FF99}
  9
$EXTNAMES
290
     1
  9
$PSVPSCALE
 40
0.0
  9
$OLESTARTUP
290
     0
  0
ENDSEC
  0
SECTION
  2
CLASSES
  0
CLASS
  1
ACDBDICTIONARYWDFLT
  2
AcDbDictionaryWithDefault
  3
ObjectDBX Classes
 90
        0
280
     0
281
     0
  0
CLASS
  1
MATERIAL
  2
AcDbMaterial
  3
ObjectDBX Classes
 90
     1153
280
     0
281
     0
  0
CLASS
  1
VISUALSTYLE
  2
AcDbVisualStyle
  3
ObjectDBX Classes
 90
     4095
280
     0
281
     0
  0
CLASS
  1
TABLESTYLE
  2
AcDbTableStyle
  3
ObjectDBX Classes
 90
     4095
280
     0
281
     0
  0
CLASS
  1
AMGSETTINGSOBJ
  2
AmgSettingsObj
  3
"AcadM|Product Description: AutoCAD Mechanical|Company: Autodesk, Inc."
 90
     1024
280
     0
281
     0
  0
CLASS
  1
ACME_DOCUMENT
  2
AcMeDbDoc
  3
AcMeServices
 90
     1024
280
     0
281
     0
  0
CLASS
  1
ACMESCOPE
  2
AcMeScope
  3
AcMeServices
 90
     1024
280
     0
281
     0
  0
CLASS
  1
ACMECOMMANDHISTORY
  2
AcMeCommandHistory
  3
AcMeServices
 90
     1024
280
     0
281
     0
  0
CLASS
  1
ACIMSYSVARMAN
  2
AcImSysVarManager
  3
AcMeServices
 90
     1024
280
     0
281
     0
  0
CLASS
  1
ACIMINTSYSVAR
  2
AcImIntSysVar
  3
AcMeServices
 90
     1024
280
     0
281
     0
  0
CLASS
  1
ACMEDRAWINGMAN
  2
AcMeDrawingMan
  3
AcMeServices
 90
    33792
280
     0
281
     0
  0
CLASS
  1
ACMEVIEW
  2
AcMeView
  3
AcMeServices
 90
    33792
280
     0
281
     0
  0
CLASS
  1
ACDBENTITYCACHE
  2
AcMeEntityCache
  3
AcMeServices
 90
     1024
280
     0
281
     0
  0
CLASS
  1
GSMANAGER
  2
AcMeGSManager
  3
AcMeServices
 90
    33792
280
     0
281
     0
  0
CLASS
  1
AMDTINTERNALREACTOR
  2
AmdtInternalReactor
  3
AcMeServices
 90
    33792
280
     0
281
     0
  0
CLASS
  1
ACMESTATEMGR
  2
AcMeStateMgr
  3
AcMeServices
 90
     1024
280
     0
281
     0
  0
CLASS
  1
ACGREFMASTER
  2
AcGrefMaster
  3
AcAttribServices
 90
     1024
280
     0
281
     0
  0
CLASS
  1
AM_DRAWING_MGR
  2
AcDmDwgMgr
  3
AcMechDwgViewMgmt
 90
    33792
280
     0
281
     0
  0
CLASS
  1
AM_DWG_DOCUMENT
  2
AcDmDwgDocument
  3
AcMechDwgViewMgmt
 90
    33792
280
     0
281
     0
  0
CLASS
  1
AM_DWG_SHEET
  2
AcDmSheet
  3
AcMechDwgViewMgmt
 90
    33792
280
     0
281
     0
  0
CLASS
  1
AM_VIEWDIMPARMAP
  2
AcDmViewDimParMap
  3
AcMechDwgViewMgmt
 90
    33792
280
     0
281
     0
  0
CLASS
  1
ACIMREALSYSVAR
  2
AcImRealSysVar
  3
AcMeServices
 90
    33792
280
     0
281
     0
  0
CLASS
  1
AM_DWGMGR_NAME
  2
AcDmDwgMgrName
  3
AcMechDwgViewMgmt
 90
    33792
280
     0
281
     0
  0
CLASS
  1
ACME_DATABASE
  2
AcMeDbDatabase
  3
AcMeServices
 90
     1024
280
     0
281
     0
  0
CLASS
  1
ACRFINSADJUSTERMGR
  2
AcRfInsAdjusterMgr
  3
AcMeServices
 90
     1024
280
     0
281
     0
  0
CLASS
  1
ACGREFACADMASTER
  2
AcGrefacadMaster
  3
AcGrefServices
 90
     1024
280
     0
281
     0
  0
CLASS
  1
AMDTMENUSTATEMGR
  2
AmdtMenuStateMgr
  3
McadcomServices
 90
     1024
280
     0
281
     0
  0
CLASS
  1
AMDTMCOMMENUSTATE
  2
AmdtMcomMenuState
  3
McadcomServices
 90
     1024
280
     0
281
     0
  0
CLASS
  1
AMIMASTER
  2
AmiMaster
  3
AmiServices
 90
     1024
280
     0
281
     0
  0
CLASS
  1
MAPIAMMOUDLE
  2
MApiAmModule
  3
MApiAmServices
 90
     1024
280
     0
281
     0
  0
CLASS
  1
ACIMSTRSYSVAR
  2
AcImStrSysVar
  3
AcMeServices
 90
     1024
280
     0
281
     0
  0
CLASS
  1
AMDTADMENUSTATE
  2
AmdtAdMenuState
  3
DesignerServices
 90
    33792
280
     0
281
     0
  0
CLASS
  1
ADAPPL
  2
AcAdAppl
  3
DesignerAssemblies
 90
    33792
280
     0
281
     0
  0
CLASS
  1
DEPMGR
  2
AcAdDepMgr
  3
DesignerAssemblies
 90
    33792
280
     0
281
     0
  0
CLASS
  1
PARAMMGR
  2
AcAdParamMgr
  3
DesignerAssemblies
 90
    33792
280
     0
281
     0
  0
CLASS
  1
PARAMSCOPE
  2
AcAdParamScope
  3
DesignerAssemblies
 90
    33792
280
     0
281
     0
  0
CLASS
  1
NAMEDAPPL
  2
AcAdNamedAppl
  3
DesignerAssemblies
 90
    33792
280
     0
281
     0
  0
CLASS
  1
AMDTDMMENUSTATE
  2
AmdtDmMenuState
  3
AcMechDwgViewMgmt
 90
    33792
280
     0
281
     0
  0
CLASS
  1
AMDTAMMENUSTATE
  2
AmdtAmMenuState
  3
DesignerAssemblies
 90
     1024
280
     0
281
     0
  0
CLASS
  1
ACAMPROJECT
  2
AcAmProject
  3
DesignerAssemblies
 90
     1024
280
     0
281
     0
  0
CLASS
  1
ACAMGRCOMPDEF
  2
AcAmGrCompDef
  3
DesignerAssemblies
 90
     1024
280
     0
281
     0
  0
CLASS
  1
ACCMCONTEXT
  2
AcCmContext
  3
DesignerAssemblies
 90
    33792
280
     0
281
     0
  0
CLASS
  1
ACAMCOMPDEF
  2
AcAmCompDef
  3
DesignerAssemblies
 90
     1024
280
     0
281
     0
  0
CLASS
  1
ACAMCOMPDEFMGR
  2
AcAmCompDefMgr
  3
DesignerAssemblies
 90
     1024
280
     0
281
     0
  0
CLASS
  1
AMCONTEXTMGR
  2
AcAmContextMgr
  3
DesignerAssemblies
 90
     1024
280
     0
281
     0
  0
CLASS
  1
ACAMCONTEXTMODELER
  2
AcAmContextModeler
  3
DesignerAssemblies
 90
     1024
280
     0
281
     0
  0
CLASS
  1
ACMDATADICTIONARY
  2
AcmDataDictionary
  3
"AcmSymBB|Product Description: AutoCAD Mechanical|Company: Autodesk, Inc."
 90
     1024
280
     0
281
     0
  0
CLASS
  1
ACMSTANDARDISO
  2
AcmStandardISO
  3
"Amdt_StdImp|Product Description: AutoCAD Mechanical|Company: Autodesk, Inc."
 90
     1024
280
     0
281
     0
  0
CLASS
  1
AMGOBJPROPCFG
  2
AmgObjPropCfg
  3
"AmgLay|Product Description: AutoCAD Mechanical|Company: Autodesk, Inc."
 90
     1024
280
     0
281
     0
  0
CLASS
  1
AMDTEDGESTANDARDISO13715
  2
AmdtEdgeStdISO13715
  3
"Amdt_StdImp|Product Description: AutoCAD Mechanical|Company: Autodesk, Inc."
 90
     1024
280
     0
281
     0
  0
CLASS
  1
ACMSURFSTANDARDISO
  2
AcmSurfTextStdISO
  3
"Amdt_StdImp|Product Description: AutoCAD Mechanical|Company: Autodesk, Inc."
 90
    33792
280
     0
281
     0
  0
CLASS
  1
ACMFCFSTANDARDISO
  2
AcmFCFStdISO
  3
"Amdt_StdImp|Product Description: AutoCAD Mechanical|Company: Autodesk, Inc."
 90
    33792
280
     0
281
     0
  0
CLASS
  1
ACMWELDSTANDARDISO
  2
AcmWeldingStdISO
  3
"Amdt_StdImp|Product Description: AutoCAD Mechanical|Company: Autodesk, Inc."
 90
     1024
280
     0
281
     0
  0
CLASS
  1
ACMIDSTANDARDISO
  2
AcmIdStdISO
  3
"Amdt_StdImp|Product Description: AutoCAD Mechanical|Company: Autodesk, Inc."
 90
    33792
280
     0
281
     0
  0
CLASS
  1
ACMDATUMSTANDARDISO
  2
AcmDatumStdISO
  3
"Amdt_StdImp|Product Description: AutoCAD Mechanical|Company: Autodesk, Inc."
 90
     1024
280
     0
281
     0
  0
CLASS
  1
ACMBOMSTANDARDISO
  2
AcmBOMStdISO
  3
"Amdt_StdImp|Product Description: AutoCAD Mechanical|Company: Autodesk, Inc."
 90
     1024
280
     0
281
     0
  0
CLASS
  1
ACMDETAILSTANDARDISO
  2
AmdtDetailSymStdISO
  3
"Amdt_StdImp|Product Description: AutoCAD Mechanical|Company: Autodesk, Inc."
 90
     1024
280
     0
281
     0
  0
CLASS
  1
ACMSECTIONSTANDARDISO
  2
AmdtSectionSymStdISO
  3
"Amdt_StdImp|Product Description: AutoCAD Mechanical|Company: Autodesk, Inc."
 90
    33792
280
     0
281
     0
  0
CLASS
  1
ACMCENTERLINESTANDARDISO
  2
AmdtCenterLineStdISO
  3
"Amdt_StdImp|Product Description: AutoCAD Mechanical|Company: Autodesk, Inc."
 90
     1024
280
     0
281
     0
  0
CLASS
  1
ACMTHREADLINESTANDARDISO
  2
AmdtThreadLineStdISO
  3
"Amdt_StdImp|Product Description: AutoCAD Mechanical|Company: Autodesk, Inc."
 90
     1024
280
     0
281
     0
  0
CLASS
  1
ACMNOTESTANDARDISO
  2
AmdtNoteStdISO
  3
"Amdt_StdImp|Product Description: AutoCAD Mechanical|Company: Autodesk, Inc."
 90
     1024
280
     0
281
     0
  0
CLASS
  1
ACMTAPERSTANDARDISO
  2
AcmTaperStdISO
  3
"Amdt_StdImp|Product Description: AutoCAD Mechanical|Company: Autodesk, Inc."
 90
     1024
280
     0
281
     0
  0
CLASS
  1
AMDTNOTETEMPLATEDB
  2
AmdtNoteTemplateDB
  3
AcmSymBB|Product Description: AutoCAD Mechanical|Company: Autodesk, Inc.
 90
     1024
280
     0
281
     0
  0
CLASS
  1
ACAMGLAYSTD
  2
AcAmgLayStd
  3
"AmgLay|Product Description: AutoCAD Mechanical|Company: Autodesk, Inc."
 90
     1024
280
     0
281
     0
  0
CLASS
  1
ACAMGDIMSTD
  2
AcAmgDimStd
  3
"AmgDim|Product Description: AutoCAD Mechanical|Company: Autodesk, Inc."
 90
     1024
280
     0
281
     0
  0
CLASS
  1
ACAMGHOLECHARTSTDISO
  2
AcAmgHoleChartStdISO
  3
AmgDim|Product Description: AutoCAD Mechanical|Company: Autodesk, Inc.
 90
     1024
280
     0
281
     0
  0
CLASS
  1
ACAMGTITLESTD
  2
AcAmgTitleStd
  3
"AmgTitle|Product Description: AutoCAD Mechanical|Company: Autodesk, Inc."
 90
     1024
280
     0
281
     0
  0
CLASS
  1
CATALOGSTATE
  2
AcAmCatalogState
  3
DesignerAssemblies
 90
    33792
280
     0
281
     0
  0
CLASS
  1
ACAMGRCOMPDEFSET
  2
AcAmGrCompDefSet
  3
DesignerAssemblies
 90
     1024
280
     0
281
     0
  0
CLASS
  1
AMDTBROWSERDBTAB
  2
AmdtBrowserDbTab
  3
McadcomServices
 90
     1024
280
     0
281
     0
  0
CLASS
  1
CBROWSERAPPOBJECT
  2
CBrowserAppObject
  3
McadcomServices
 90
     1024
280
     0
281
     0
  0
CLASS
  1
DM_PLACEHOLDER
  2
AcDmSelsetPlaceholder
  3
McadcomServices
 90
     1024
280
     0
281
     0
  0
CLASS
  1
ACAMGFILTERDAT
  2
AcAmgFilterDat
  3
"AcadM|Product Description: AutoCAD Mechanical|Company: Autodesk, Inc."
 90
    33792
280
     0
281
     0
  0
CLASS
  1
CAMSSTRUCTBTNSTATE
  2
StructBtnState
  3
DesignerAssemblies
 90
    33792
280
     0
281
     0
  0
CLASS
  1
DICTIONARYVAR
  2
AcDbDictionaryVar
  3
ObjectDBX Classes
 90
        0
280
     0
281
     0
  0
CLASS
  1
SORTENTSTABLE
  2
AcDbSortentsTable
  3
ObjectDBX Classes
 90
        0
280
     0
281
     0
  0
CLASS
  1
DIMASSOC
  2
AcDbDimAssoc
  3
"AcDbDimAssoc|Product Desc:     AcDim ARX App For Dimension|Company:          Autodesk, Inc.|WEB Address:      www.autodesk.com"
 90
    32768
280
     0
281
     0
  0
CLASS
  1
SCALE
  2
AcDbScale
  3
ObjectDBX Classes
 90
     1153
280
     0
281
     0
  0
CLASS
  1
MLEADERSTYLE
  2
AcDbMLeaderStyle
  3
ACDB_MLEADERSTYLE_CLASS
 90
     4095
280
     0
281
     0
  0
CLASS
  1
ACMANOOTATIONVIEWSTANDARDISO
  2
AmdtAnViewStdISO
  3
"Amdt_StdImp|Product Description: AutoCAD Mechanical|Company: Autodesk, Inc."
 90
     1024
280
     0
281
     0
  0
CLASS
  1
CELLSTYLEMAP
  2
AcDbCellStyleMap
  3
ObjectDBX Classes
 90
     1152
280
     0
281
     0
  0
CLASS
  1
STDPART2D
  2
AmgStdPart
  3
AmgStdPart|Product Description: AutoCAD Mechanical|Company: Autodesk, Inc.
 90
    33792
280
     0
281
     1
  0
CLASS
  1
SUN
  2
AcDbSun
  3
SCENEOE
 90
    33921
280
     0
281
     0
  0
CLASS
  1
MULTILEADER
  2
AcDbMLeader
  3
ACDB_MLEADER_CLASS
 90
    33793
280
     0
281
     1
  0
CLASS
  1
EXACXREFPANELOBJECT
  2
ExAcXREFPanelObject
  3
EXAC_ESW
 90
     1025
280
     0
281
     0
  0
CLASS
  1
NPOCOLLECTION
  2
AcDbImpNonPersistentObjectsCollection
  3
ObjectDBX Classes
 90
     1153
280
     0
281
     0
  0
CLASS
  1
PLOTSETTINGS
  2
AcDbPlotSettings
  3
ObjectDBX Classes
 90
        0
280
     0
281
     0
  0
CLASS
  1
ACDBSECTIONVIEWSTYLE
  2
AcDbSectionViewStyle
  3
ObjectDBX Classes
 90
     1025
280
     0
281
     0
  0
CLASS
  1
ACDBDETAILVIEWSTYLE
  2
AcDbDetailViewStyle
  3
ObjectDBX Classes
 90
     1025
280
     0
281
     0
  0
CLASS
  1
ACDBPLACEHOLDER
  2
AcDbPlaceHolder
  3
ObjectDBX Classes
 90
        0
280
     0
281
     0
  0
CLASS
  1
LAYOUT
  2
AcDbLayout
  3
ObjectDBX Classes
 90
        0
280
     0
281
     0
  0
CLASS
  1
ACMSURFSTANDARDISO2002
  2
AcmSurfTextStdISO2002
  3
"Amdt_StdImp|Product Description: AutoCAD Mechanical|Company: Autodesk, Inc."
 90
     1024
280
     0
281
     0
  0
CLASS
  1
ACMFCFSTANDARDISO2004
  2
AcmFCFStdISO2004
  3
"Amdt_StdImp|Product Description: AutoCAD Mechanical|Company: Autodesk, Inc."
 90
     1024
280
     0
281
     0
  0
CLASS
  1
ACMIDSTANDARDISO2004
  2
AcmIdStdISO2004
  3
"Amdt_StdImp|Product Description: AutoCAD Mechanical|Company: Autodesk, Inc."
 90
     1024
280
     0
281
     0
  0
CLASS
  1
ACMSECTIONSTANDARDISO2001
  2
AmdtSectionSymStdISO2001
  3
"Amdt_StdImp|Product Description: AutoCAD Mechanical|Company: Autodesk, Inc."
 90
     1024
280
     0
281
     0
  0
CLASS
  1
AEC_REFEDIT_STATUS_TRACKER
  2
AecDbRefEditStatusTracker
  3
AecArchBase70|Product Desc: Autodesk Architectural Desktop 2007 |Company: Autodesk,Inc. |WEB Address: www.autodesk.com
 90
    32897
280
     0
281
     0
  0
CLASS
  1
ACMSECTIONSTANDARDCUSTOM
  2
AmdtSectionSymStdCustom
  3
"Amdt_StdImp|Product Description: AutoCAD Mechanical|Company: Autodesk, Inc."
 90
     1024
280
     0
281
     0
  0
CLASS
  1
ACMDETAILTANDARDCUSTOM
  2
AmdtDetailSymStdCustom
  3
"Amdt_StdImp|Product Description: AutoCAD Mechanical|Company: Autodesk, Inc."
 90
     1024
280
     0
281
     0
  0
CLASS
  1
FIELD
  2
AcDbField
  3
ObjectDBX Classes
 90
     1152
280
     0
281
     0
  0
CLASS
  1
FIELDLIST
  2
AcDbFieldList
  3
ObjectDBX Classes
 90
     1152
280
     0
281
     0
  0
ENDSEC
  0
SECTION
  2
TABLES
  0
TABLE
  2
VPORT
  5
8
330
0
100
AcDbSymbolTable
 70
     1
  0
VPORT
  5
28
330
8
100
AcDbSymbolTableRecord
100
AcDbViewportTableRecord
  2
*Active
 70
     0
 10
0.0
 20
0.0
 11
1.0
 21
1.0
 12
600.3591433911569
 22
510.9263831923867
 13
0.0
 23
0.0
 14
2.5
 24
2.5
 15
10.0
 25
10.0
 16
0.0
 26
0.0
 36
1.0
 17
0.0
 27
0.0
 37
0.0
 40
2298.938838028044
 41
2.026448362720402
 42
50.0
 43
0.0
 44
0.0
 50
0.0
 51
0.0
 71
     0
 72
  1000
 73
     1
 74
     3
 75
     0
 76
     0
 77
     0
 78
     0
281
     0
 65
     0
110
0.0
120
0.0
130
0.0
111
1.0
121
0.0
131
0.0
112
0.0
122
1.0
132
0.0
 79
     0
146
0.0
1001
ACAD_NAV_VCDISPLAY
1070
     3
  0
ENDTAB
  0
TABLE
  2
LTYPE
  5
5
330
0
100
AcDbSymbolTable
 70
    14
  0
LTYPE
  5
29
330
5
100
AcDbSymbolTableRecord
100
AcDbLinetypeTableRecord
  2
ByBlock
 70
     0
  3

 72
    65
 73
     0
 40
0.0
  0
LTYPE
  5
2A
330
5
100
AcDbSymbolTableRecord
100
AcDbLinetypeTableRecord
  2
ByLayer
 70
     0
  3

 72
    65
 73
     0
 40
0.0
  0
LTYPE
  5
2B
330
5
100
AcDbSymbolTableRecord
100
AcDbLinetypeTableRecord
  2
Continuous
 70
     0
  3
Solid line
 72
    65
 73
     0
 40
0.0
  0
LTYPE
  5
A4
330
5
100
AcDbSymbolTableRecord
100
AcDbLinetypeTableRecord
  2
AM_ISO02W050
 70
     0
  3
__ __ __ __ __ __ __ __ __ __ __ __ __ __ __
 72
    65
 73
     2
 40
7.5
 49
6.0
 74
     0
 49
-1.5
 74
     0
  0
LTYPE
  5
A5
330
5
100
AcDbSymbolTableRecord
100
AcDbLinetypeTableRecord
  2
AM_ISO08W050
 70
     0
  3
____ . ____ . ____ . ____ . ____ . ____ . ____
 72
    65
 73
     4
 40
18.0
 49
12.0
 74
     0
 49
-1.5
 74
     0
 49
3.0
 74
     0
 49
-1.5
 74
     0
  0
LTYPE
  5
A6
330
5
100
AcDbSymbolTableRecord
100
AcDbLinetypeTableRecord
  2
AM_ISO09W050
 70
     0
  3
_____ . . _____ . . _____ . . ____ .. ____
 72
    65
 73
     6
 40
22.5
 49
12.0
 74
     0
 49
-1.5
 74
     0
 49
3.0
 74
     0
 49
-1.5
 74
     0
 49
3.0
 74
     0
 49
-1.5
 74
     0
  0
LTYPE
  5
A7
330
5
100
AcDbSymbolTableRecord
100
AcDbLinetypeTableRecord
  2
Amconstr
 70
     0
  3
_______________________
 72
    65
 73
     2
 40
9999.0
 49
9999.0
 74
     0
 49
0.0
 74
     0
  0
LTYPE
  5
A8
330
5
100
AcDbSymbolTableRecord
100
AcDbLinetypeTableRecord
  2
AM_ISO08W050x2
 70
     0
  3
__ . __ . __ . __ . __ . __
 72
    65
 73
     4
 40
9.0
 49
6.0
 74
     0
 49
-0.75
 74
     0
 49
1.5
 74
     0
 49
-0.75
 74
     0
  0
LTYPE
  5
A9
330
5
100
AcDbSymbolTableRecord
100
AcDbLinetypeTableRecord
  2
AM_ISO02W050x2
 70
     0
  3
 _ _ _ _ _ _ _ _ _ _ _ _
 72
    65
 73
     2
 40
3.75
 49
3.0
 74
     0
 49
-0.75
 74
     0
  0
LTYPE
  5
AC
330
5
100
AcDbSymbolTableRecord
100
AcDbLinetypeTableRecord
  2
Amzigzag
 70
     0
  3
/\/-/\/-/\/-/\/-/\/-/\/
 72
    65
 73
     2
 40
11.0001
 49
0.0001
 74
     4
 75
   136
340
AB
 46
0.04
 50
0.0
 44
0.0
 45
0.0
 49
-11.0
 74
     0
  0
LTYPE
  5
BC
330
5
100
AcDbSymbolTableRecord
100
AcDbLinetypeTableRecord
  2
ACISOWELD
 70
     0
  3
_ _ _ _ _
 72
    65
 73
     2
 40
2.0
 49
2.0
 74
     0
 49
-1.0
 74
     0
  0
LTYPE
  5
BD
330
5
100
AcDbSymbolTableRecord
100
AcDbLinetypeTableRecord
  2
ACISOTGB
 70
     0
  3
__ . . __ . .
 72
    65
 73
     6
 40
9.0
 49
4.0
 74
     0
 49
-1.0
 74
     0
 49
1.0
 74
     0
 49
-1.0
 74
     0
 49
1.0
 74
     0
 49
-1.0
 74
     0
  0
LTYPE
  5
BE
330
5
100
AcDbSymbolTableRecord
100
AcDbLinetypeTableRecord
  2
ACISOTGL
 70
     0
  3
_ _ _ _ _
 72
    65
 73
     2
 40
3.0
 49
2.0
 74
     0
 49
-1.0
 74
     0
  0
ENDTAB
  0
TABLE
  2
LAYER
  5
2
102
{ACAD_XDICTIONARY
360
104
102
}
330
0
100
AcDbSymbolTable
 70
     6
  0
LAYER
  5
25
102
{ACAD_XDICTIONARY
360
2025
102
}
330
2
100
AcDbSymbolTableRecord
100
AcDbLayerTableRecord
  2
0
 70
     0
 62
     7
  6
Continuous
370
    18
390
F
  0
LAYER
  5
ED
330
2
100
AcDbSymbolTableRecord
100
AcDbLayerTableRecord
  2
Defpoints
 70
     0
 62
     7
  6
Continuous
290
     0
370
    15
390
F
  0
LAYER
  5
52A2
102
{ACAD_XDICTIONARY
360
52A3
102
}
330
2
100
AcDbSymbolTableRecord
100
AcDbLayerTableRecord
  2
AM_5
 70
     0
 62
    51
  6
Continuous
370
    18
390
F
  0
LAYER
  5
52A8
102
{ACAD_XDICTIONARY
360
52A9
102
}
330
2
100
AcDbSymbolTableRecord
100
AcDbLayerTableRecord
  2
図面枠
 70
     0
 62
   111
  6
Continuous
370
    15
390
F
  0
LAYER
  5
52AC
102
{ACAD_XDICTIONARY
360
52AD
102
}
330
2
100
AcDbSymbolTableRecord
100
AcDbLayerTableRecord
  2
弱線
 70
     0
 62
   133
  6
Continuous
370
     9
390
F
  0
LAYER
  5
5DA1
102
{ACAD_XDICTIONARY
360
78F7
102
}
330
2
100
AcDbSymbolTableRecord
100
AcDbLayerTableRecord
  2
文字
 70
     0
 62
    31
  6
Continuous
370
    18
390
F
1001
AcAecLayerStandard
1000

1000

  0
ENDTAB
  0
TABLE
  2
STYLE
  5
3
330
0
100
AcDbSymbolTable
 70
     7
  0
STYLE
  5
26
330
3
100
AcDbSymbolTableRecord
100
AcDbTextStyleTableRecord
  2
STANDARD
 70
     0
 40
0.0
 41
1.0
 50
0.0
 71
     0
 42
2.5
  3
simplex.shx
  4
bigfont.shx
  0
STYLE
  5
AB
330
3
100
AcDbSymbolTableRecord
100
AcDbTextStyleTableRecord
  2

 70
     1
 40
0.0
 41
1.0
 50
0.0
 71
     0
 42
2.5
  3
genltshp.shx
  4

  0
STYLE
  5
BB
330
3
100
AcDbSymbolTableRecord
100
AcDbTextStyleTableRecord
  2
ACISOGDT
 70
     0
 40
0.0
 41
1.0
 50
0.0
 71
     0
 42
2.5
  3
amgdt.shx
  4

  0
STYLE
  5
158
330
3
100
AcDbSymbolTableRecord
100
AcDbTextStyleTableRecord
  2
0.9横
 70
     0
 40
0.0
 41
0.9
 50
0.0
 71
     0
 42
2.5
  3
simplex.shx
  4
bigfont.shx
  0
STYLE
  5
671D
330
3
100
AcDbSymbolTableRecord
100
AcDbTextStyleTableRecord
  2
0.8横
 70
     0
 40
0.0
 41
0.8
 50
0.0
 71
     0
 42
2.5
  3
simplex.shx
  4
bigfont.shx
  0
STYLE
  5
6F50
330
3
100
AcDbSymbolTableRecord
100
AcDbTextStyleTableRecord
  2
承認
 70
     0
 40
0.0
 41
0.9
 50
0.0
 71
     0
 42
2.5
  3
simplex.shx
  4
bigfont.shx
  0
ENDTAB
  0
TABLE
  2
VIEW
  5
6
330
0
100
AcDbSymbolTable
 70
     1
  0
VIEW
  5
4873
102
{ACAD_XDICTIONARY
360
4874
102
}
330
6
100
AcDbSymbolTableRecord
100
AcDbViewTableRecord
  2
セッティングイメージ
 70
     0
 40
558.0899368771736
 10
256.1153347947321
 20
8.07330766061932
 41
910.4716963666867
 11
0.4698463103929544
 21
-0.8137976813493736
 31
0.3420201433256687
 12
0.0
 22
0.0
 32
0.0
 42
50.0
 43
0.0
 44
0.0
 50
0.0
 71
     0
281
     0
 72
     1
110
0.0
120
0.0
130
0.0
111
1.0
121
0.0
131
0.0
112
0.0
122
1.0
132
0.0
 79
     0
146
0.0
  0
ENDTAB
  0
TABLE
  2
UCS
  5
7
330
0
100
AcDbSymbolTable
 70
     0
  0
ENDTAB
  0
TABLE
  2
APPID
  5
9
330
0
100
AcDbSymbolTable
 70
   104
  0
APPID
  5
27
330
9
100
AcDbSymbolTableRecord
100
AcDbRegAppTableRecord
  2
ACAD
 70
     0
  0
APPID
  5
47
330
9
100
AcDbSymbolTableRecord
100
AcDbRegAppTableRecord
  2
MCAD_NO_VIS
 70
     0
  0
APPID
  5
48
330
9
100
AcDbSymbolTableRecord
100
AcDbRegAppTableRecord
  2
ACAD_TEMP_GRAPHIC
 70
     0
  0
APPID
  5
7A
330
9
100
AcDbSymbolTableRecord
100
AcDbRegAppTableRecord
  2
AD_DRAW
 70
     0
  0
APPID
  5
7D
330
9
100
AcDbSymbolTableRecord
100
AcDbRegAppTableRecord
  2
ACATTRIBSERVICES
 70
     0
  0
APPID
  5
9E
330
9
100
AcDbSymbolTableRecord
100
AcDbRegAppTableRecord
  2
DESIGNERASSEMBLIES
 70
     0
  0
APPID
  5
DA
330
9
100
AcDbSymbolTableRecord
100
AcDbRegAppTableRecord
  2
ACADM_DIM_EDIT
 70
     0
  0
APPID
  5
DB
330
9
100
AcDbSymbolTableRecord
100
AcDbRegAppTableRecord
  2
AMDT_DM_ADJ
 70
     0
  0
APPID
  5
148
330
9
100
AcDbSymbolTableRecord
100
AcDbRegAppTableRecord
  2
ACAD_PSEXT
 70
     0
  0
APPID
  5
152
330
9
100
AcDbSymbolTableRecord
100
AcDbRegAppTableRecord
  2
GENIUS_GENREC_14
 70
     0
  0
APPID
  5
153
330
9
100
AcDbSymbolTableRecord
100
AcDbRegAppTableRecord
  2
GENIUS_GENODEF_13
 70
     0
  0
APPID
  5
154
330
9
100
AcDbSymbolTableRecord
100
AcDbRegAppTableRecord
  2
GENIUS_GENOBJ-N-REC_13
 70
     0
  0
APPID
  5
637
330
9
100
AcDbSymbolTableRecord
100
AcDbRegAppTableRecord
  2
DCO15
 70
     0
  0
APPID
  5
69B
330
9
100
AcDbSymbolTableRecord
100
AcDbRegAppTableRecord
  2
AcAecLayerStandard
 70
     0
  0
APPID
  5
6FD
330
9
100
AcDbSymbolTableRecord
100
AcDbRegAppTableRecord
  2
GENIUS_GENOBJ-N-CEN_13
 70
     0
  0
APPID
  5
6FE
330
9
100
AcDbSymbolTableRecord
100
AcDbRegAppTableRecord
  2
GENIUS_GENCEN_19
 70
     0
  0
APPID
  5
7B4
330
9
100
AcDbSymbolTableRecord
100
AcDbRegAppTableRecord
  2
GENIUS_GENTRA_14
 70
     0
  0
APPID
  5
7B5
330
9
100
AcDbSymbolTableRecord
100
AcDbRegAppTableRecord
  2
GENIUS_GENSCREG_15
 70
     0
  0
APPID
  5
7B6
330
9
100
AcDbSymbolTableRecord
100
AcDbRegAppTableRecord
  2
GENIUS_GENOBJ-N-SDF_13
 70
     0
  0
APPID
  5
7B7
330
9
100
AcDbSymbolTableRecord
100
AcDbRegAppTableRecord
  2
GENIUS_GENOENT_13
 70
     0
  0
APPID
  5
7B8
330
9
100
AcDbSymbolTableRecord
100
AcDbRegAppTableRecord
  2
GENIUS_GENOREF_13
 70
     0
  0
APPID
  5
7B9
330
9
100
AcDbSymbolTableRecord
100
AcDbRegAppTableRecord
  2
GENIUS_GENOLIS_13
 70
     0
  0
APPID
  5
7BA
330
9
100
AcDbSymbolTableRecord
100
AcDbRegAppTableRecord
  2
GENIUS_GENDTOL_13
 70
     0
  0
APPID
  5
7BB
330
9
100
AcDbSymbolTableRecord
100
AcDbRegAppTableRecord
  2
GENIUS_GENDIMSH_14
 70
     0
  0
APPID
  5
7BC
330
9
100
AcDbSymbolTableRecord
100
AcDbRegAppTableRecord
  2
GENIUS_GENOBJ-N-FIL_13
 70
     0
  0
APPID
  5
7BD
330
9
100
AcDbSymbolTableRecord
100
AcDbRegAppTableRecord
  2
GENIUS_GENHINW_13
 70
     0
  0
APPID
  5
7BE
330
9
100
AcDbSymbolTableRecord
100
AcDbRegAppTableRecord
  2
GENIUS_GENFIL_13
 70
     0
  0
APPID
  5
7BF
330
9
100
AcDbSymbolTableRecord
100
AcDbRegAppTableRecord
  2
GENIUS_GENBH_13
 70
     0
  0
APPID
  5
7C0
330
9
100
AcDbSymbolTableRecord
100
AcDbRegAppTableRecord
  2
GENIUS_GENOBJ-NBEHI-BHF_13
 70
     0
  0
APPID
  5
7C1
330
9
100
AcDbSymbolTableRecord
100
AcDbRegAppTableRecord
  2
GENIUS_GENOBJ-NBEHI-BHB_13
 70
     0
  0
APPID
  5
7C2
330
9
100
AcDbSymbolTableRecord
100
AcDbRegAppTableRecord
  2
GENIUS_GENREC_13
 70
     0
  0
APPID
  5
7C3
330
9
100
AcDbSymbolTableRecord
100
AcDbRegAppTableRecord
  2
GENIUS_GENOBJ-N-CHA_13
 70
     0
  0
APPID
  5
7C4
330
9
100
AcDbSymbolTableRecord
100
AcDbRegAppTableRecord
  2
GENIUS_GENIUS_GENBHEDTMP_13
 70
     0
  0
APPID
  5
7C5
330
9
100
AcDbSymbolTableRecord
100
AcDbRegAppTableRecord
  2
GENIUS_GENOBJ-N-HTC_13
 70
     0
  0
APPID
  5
7C6
330
9
100
AcDbSymbolTableRecord
100
AcDbRegAppTableRecord
  2
GENIUS_GENHATCH_13
 70
     0
  0
APPID
  5
7C7
330
9
100
AcDbSymbolTableRecord
100
AcDbRegAppTableRecord
  2
GENIUS_GENOBJ-N-CRS_13
 70
     0
  0
APPID
  5
7C8
330
9
100
AcDbSymbolTableRecord
100
AcDbRegAppTableRecord
  2
GENIUS_GENOBJ-N-RSBK_13
 70
     0
  0
APPID
  5
7C9
330
9
100
AcDbSymbolTableRecord
100
AcDbRegAppTableRecord
  2
GENIUS_GENOBJ-N-LIB_13
 70
     0
  0
APPID
  5
7CA
330
9
100
AcDbSymbolTableRecord
100
AcDbRegAppTableRecord
  2
GENIUS_GENSCALE_13
 70
     0
  0
APPID
  5
DCB
330
9
100
AcDbSymbolTableRecord
100
AcDbRegAppTableRecord
  2
ACAD_EXEMPT_FROM_CAD_STANDARDS
 70
     0
  0
APPID
  5
1759
330
9
100
AcDbSymbolTableRecord
100
AcDbRegAppTableRecord
  2
ACAD_MLEADERVER
 70
     0
  0
APPID
  5
17C0
330
9
100
AcDbSymbolTableRecord
100
AcDbRegAppTableRecord
  2
ACAD_DSTYLE_DIMJAG
 70
     0
  0
APPID
  5
17C1
330
9
100
AcDbSymbolTableRecord
100
AcDbRegAppTableRecord
  2
ACAD_DSTYLE_DIMTALN
 70
     0
  0
APPID
  5
1803
330
9
100
AcDbSymbolTableRecord
100
AcDbRegAppTableRecord
  2
ACAD_DSTYLE_DIMBREAK
 70
     0
  0
APPID
  5
1957
330
9
100
AcDbSymbolTableRecord
100
AcDbRegAppTableRecord
  2
GEVID1181262513
 70
     0
  0
APPID
  5
1958
330
9
100
AcDbSymbolTableRecord
100
AcDbRegAppTableRecord
  2
GEVDC
 70
     0
  0
APPID
  5
2011
330
9
100
AcDbSymbolTableRecord
100
AcDbRegAppTableRecord
  2
GEVID1194413920
 70
     0
  0
APPID
  5
2016
330
9
100
AcDbSymbolTableRecord
100
AcDbRegAppTableRecord
  2
GEVID1194413921
 70
     0
  0
APPID
  5
206C
330
9
100
AcDbSymbolTableRecord
100
AcDbRegAppTableRecord
  2
GEVID1194480096
 70
     0
  0
APPID
  5
2081
330
9
100
AcDbSymbolTableRecord
100
AcDbRegAppTableRecord
  2
GEVID1194480097
 70
     0
  0
APPID
  5
2085
330
9
100
AcDbSymbolTableRecord
100
AcDbRegAppTableRecord
  2
GEVID1194480098
 70
     0
  0
APPID
  5
2104
330
9
100
AcDbSymbolTableRecord
100
AcDbRegAppTableRecord
  2
ACAD_DIMASSOC_CALC_DIMLFAC
 70
     0
  0
APPID
  5
2105
330
9
100
AcDbSymbolTableRecord
100
AcDbRegAppTableRecord
  2
ACAD_DIMASSOC_DIMLFAC
 70
     0
  0
APPID
  5
2106
330
9
100
AcDbSymbolTableRecord
100
AcDbRegAppTableRecord
  2
ACAD_DIMASSOC_OVERRIDDEN_DIMLFAC
 70
     0
  0
APPID
  5
211B
330
9
100
AcDbSymbolTableRecord
100
AcDbRegAppTableRecord
  2
ACAD_DSTYLE_DIMINSPECT
 70
     0
  0
APPID
  5
2AD4
330
9
100
AcDbSymbolTableRecord
100
AcDbRegAppTableRecord
  2
ACAD_DSTYLE_DIMRADIAL_EXTENSION
 70
     0
  0
APPID
  5
2CFE
330
9
100
AcDbSymbolTableRecord
100
AcDbRegAppTableRecord
  2
AcadAnnotative
 70
     0
  0
APPID
  5
2CFF
330
9
100
AcDbSymbolTableRecord
100
AcDbRegAppTableRecord
  2
GEVID1183531517
 70
     0
  0
APPID
  5
2D00
330
9
100
AcDbSymbolTableRecord
100
AcDbRegAppTableRecord
  2
GEVID1183531518
 70
     0
  0
APPID
  5
2D1F
330
9
100
AcDbSymbolTableRecord
100
AcDbRegAppTableRecord
  2
GEVID1194480099
 70
     0
  0
APPID
  5
2D23
330
9
100
AcDbSymbolTableRecord
100
AcDbRegAppTableRecord
  2
GEVID1194480100
 70
     0
  0
APPID
  5
3DC6
330
9
100
AcDbSymbolTableRecord
100
AcDbRegAppTableRecord
  2
GEVID1194480101
 70
     0
  0
APPID
  5
4E55
330
9
100
AcDbSymbolTableRecord
100
AcDbRegAppTableRecord
  2
AcadAnnoPO
 70
     0
  0
APPID
  5
502A
330
9
100
AcDbSymbolTableRecord
100
AcDbRegAppTableRecord
  2
GEVID1195605042
 70
     0
  0
APPID
  5
502B
330
9
100
AcDbSymbolTableRecord
100
AcDbRegAppTableRecord
  2
GEVID1195605043
 70
     0
  0
APPID
  5
502C
330
9
100
AcDbSymbolTableRecord
100
AcDbRegAppTableRecord
  2
GEVID1195605044
 70
     0
  0
APPID
  5
798C
330
9
100
AcDbSymbolTableRecord
100
AcDbRegAppTableRecord
  2
ACAD_NAV_VCDISPLAY
 70
     0
  0
APPID
  5
79C4
330
9
100
AcDbSymbolTableRecord
100
AcDbRegAppTableRecord
  2
ACAD_DSTYLE_DIMARC_LENGTH_SYMBOL
 70
     0
  0
APPID
  5
7AD7
330
9
100
AcDbSymbolTableRecord
100
AcDbRegAppTableRecord
  2
GENIUS_GENBHRL_14
 70
     0
  0
APPID
  5
8404
330
9
100
AcDbSymbolTableRecord
100
AcDbRegAppTableRecord
  2
AcadAnnoMonitorAlertIconDisabled
 70
     0
  0
APPID
  5
8642
330
9
100
AcDbSymbolTableRecord
100
AcDbRegAppTableRecord
  2
AcDbDynamicBlockGUID
 70
     0
  0
APPID
  5
8643
330
9
100
AcDbSymbolTableRecord
100
AcDbRegAppTableRecord
  2
ACAUTHENVIRON
 70
     0
  0
APPID
  5
8644
330
9
100
AcDbSymbolTableRecord
100
AcDbRegAppTableRecord
  2
AcDbDynamicBlockTrueName
 70
     0
  0
APPID
  5
88FB
330
9
100
AcDbSymbolTableRecord
100
AcDbRegAppTableRecord
  2
GEVID1223428646
 70
     0
  0
APPID
  5
88FC
330
9
100
AcDbSymbolTableRecord
100
AcDbRegAppTableRecord
  2
GEVID1223428647
 70
     0
  0
APPID
  5
88FD
330
9
100
AcDbSymbolTableRecord
100
AcDbRegAppTableRecord
  2
GEVID1228357859
 70
     0
  0
APPID
  5
88FE
330
9
100
AcDbSymbolTableRecord
100
AcDbRegAppTableRecord
  2
GENIUS_GEFSHP_13
 70
     0
  0
APPID
  5
88FF
330
9
100
AcDbSymbolTableRecord
100
AcDbRegAppTableRecord
  2
GENIUS_GEFSH_13
 70
     0
  0
APPID
  5
8900
330
9
100
AcDbSymbolTableRecord
100
AcDbRegAppTableRecord
  2
GENIUS_AMGTXT_16
 70
     0
  0
APPID
  5
8901
330
9
100
AcDbSymbolTableRecord
100
AcDbRegAppTableRecord
  2
ACAD_DSTYLE_DIMJOGGED_JOGANGLE_SYMBOL
 70
     0
  0
APPID
  5
8902
330
9
100
AcDbSymbolTableRecord
100
AcDbRegAppTableRecord
  2
GEVID1206088229
 70
     0
  0
APPID
  5
8903
330
9
100
AcDbSymbolTableRecord
100
AcDbRegAppTableRecord
  2
GEVID1206088231
 70
     0
  0
APPID
  5
8904
330
9
100
AcDbSymbolTableRecord
100
AcDbRegAppTableRecord
  2
GEVID1206088232
 70
     0
  0
APPID
  5
8905
330
9
100
AcDbSymbolTableRecord
100
AcDbRegAppTableRecord
  2
GEVID1206088233
 70
     0
  0
APPID
  5
8906
330
9
100
AcDbSymbolTableRecord
100
AcDbRegAppTableRecord
  2
GEVID1206088234
 70
     0
  0
APPID
  5
8907
330
9
100
AcDbSymbolTableRecord
100
AcDbRegAppTableRecord
  2
MACHINERY
 70
     0
  0
APPID
  5
8908
330
9
100
AcDbSymbolTableRecord
100
AcDbRegAppTableRecord
  2
USERREMARKS
 70
     0
  0
APPID
  5
8909
330
9
100
AcDbSymbolTableRecord
100
AcDbRegAppTableRecord
  2
SYURUI
 70
     0
  0
APPID
  5
890A
330
9
100
AcDbSymbolTableRecord
100
AcDbRegAppTableRecord
  2
FORMERDRAWING
 70
     0
  0
APPID
  5
890B
330
9
100
AcDbSymbolTableRecord
100
AcDbRegAppTableRecord
  2
NUMBERING
 70
     0
  0
APPID
  5
890C
330
9
100
AcDbSymbolTableRecord
100
AcDbRegAppTableRecord
  2
GEVID1324008112
 70
     0
  0
APPID
  5
890D
330
9
100
AcDbSymbolTableRecord
100
AcDbRegAppTableRecord
  2
GEVCON
 70
     0
  0
APPID
  5
890E
330
9
100
AcDbSymbolTableRecord
100
AcDbRegAppTableRecord
  2
GENIUS_GENOBJ-F-SCPASSM_13
 70
     0
  0
APPID
  5
890F
330
9
100
AcDbSymbolTableRecord
100
AcDbRegAppTableRecord
  2
GEVID1324008113
 70
     0
  0
APPID
  5
8910
330
9
100
AcDbSymbolTableRecord
100
AcDbRegAppTableRecord
  2
GEVID1324008114
 70
     0
  0
APPID
  5
8911
330
9
100
AcDbSymbolTableRecord
100
AcDbRegAppTableRecord
  2
GEVID1324008115
 70
     0
  0
APPID
  5
8912
330
9
100
AcDbSymbolTableRecord
100
AcDbRegAppTableRecord
  2
GEVID1324008116
 70
     0
  0
APPID
  5
8913
330
9
100
AcDbSymbolTableRecord
100
AcDbRegAppTableRecord
  2
GEVID1324008117
 70
     0
  0
APPID
  5
8914
330
9
100
AcDbSymbolTableRecord
100
AcDbRegAppTableRecord
  2
GEVID1324008118
 70
     0
  0
APPID
  5
8915
330
9
100
AcDbSymbolTableRecord
100
AcDbRegAppTableRecord
  2
GEVMK
 70
     0
  0
APPID
  5
8916
330
9
100
AcDbSymbolTableRecord
100
AcDbRegAppTableRecord
  2
GEVID1324008119
 70
     0
  0
APPID
  5
8917
330
9
100
AcDbSymbolTableRecord
100
AcDbRegAppTableRecord
  2
ACDBBLOCKREPETAG
 70
     0
  0
APPID
  5
8918
330
9
100
AcDbSymbolTableRecord
100
AcDbRegAppTableRecord
  2
GEVID1341370643
 70
     0
  0
APPID
  5
8919
330
9
100
AcDbSymbolTableRecord
100
AcDbRegAppTableRecord
  2
GEVID1341370644
 70
     0
  0
ENDTAB
  0
TABLE
  2
DIMSTYLE
  5
A
330
0
100
AcDbSymbolTable
 70
     8
100
AcDbDimStyleTable
 71
     2
340
639
340
CA
  0
DIMSTYLE
105
639
330
A
100
AcDbSymbolTableRecord
100
AcDbDimStyleTableRecord
  2
Standard
 70
     0
340
26
  0
DIMSTYLE
105
CA
102
{ACAD_REACTORS
330
934E
102
}
330
A
100
AcDbSymbolTableRecord
100
AcDbDimStyleTableRecord
  2
AM_ISO
 70
     0
  4
"
 41
2.5
 42
1.0
 43
10.0
 44
1.0
 47
0.1
 48
0.1
 73
     0
 74
     0
 77
     1
 78
     8
 79
     2
140
3.5
141
0.0
143
0.0393701
146
0.71
147
1.5
172
     1
176
   256
177
   256
178
     2
271
     2
272
     3
274
     4
283
     0
284
     8
340
26
371
    -1
372
    -1
1001
ACAD_DSTYLE_DIMARC_LENGTH_SYMBOL
1070
   379
1070
     1
  0
DIMSTYLE
105
CC
330
A
100
AcDbSymbolTableRecord
100
AcDbDimStyleTableRecord
  2
AM_ISO$4
 70
     0
  4
"
 41
2.5
 42
1.0
 43
10.0
 44
1.0
 47
0.1
 48
0.1
 73
     0
 77
     1
 78
     8
 79
     2
140
3.5
141
0.0
143
0.0393701
146
0.71
147
1.5
176
   256
177
   256
178
     2
271
     2
272
     3
274
     4
283
     0
284
     8
288
     1
289
     0
340
26
371
    -1
372
    -1
1001
ACAD_DSTYLE_DIMARC_LENGTH_SYMBOL
1070
   379
1070
     1
  0
DIMSTYLE
105
CD
330
A
100
AcDbSymbolTableRecord
100
AcDbDimStyleTableRecord
  2
AM_ISO$6
 70
     0
  4
"
 41
2.5
 42
1.0
 43
10.0
 44
1.0
 47
0.1
 48
0.1
 73
     0
 74
     0
 78
     8
 79
     2
140
3.5
141
0.0
143
0.0393701
146
0.71
147
1.5
172
     1
176
   256
177
   256
178
     2
271
     2
272
     3
274
     4
283
     0
284
     8
340
26
371
    -1
372
    -1
1001
ACAD_DSTYLE_DIMARC_LENGTH_SYMBOL
1070
   379
1070
     1
  0
DIMSTYLE
105
CE
330
A
100
AcDbSymbolTableRecord
100
AcDbDimStyleTableRecord
  2
AM_ISO$7
 70
     0
  4
"
 41
2.5
 42
1.0
 43
10.0
 44
1.0
 47
0.1
 48
0.1
 73
     0
 74
     0
 77
     1
 78
     8
 79
     2
140
5.0
141
0.0
143
0.0393701
146
0.71
147
1.5
172
     1
176
   256
177
   256
178
     2
271
     2
272
     3
274
     4
283
     0
284
     8
340
26
371
    -1
372
    -1
1001
ACAD_DSTYLE_DIMARC_LENGTH_SYMBOL
1070
   379
1070
     1
  0
DIMSTYLE
105
CF
330
A
100
AcDbSymbolTableRecord
100
AcDbDimStyleTableRecord
  2
AM_ISO$SF
 70
     0
  4
"
 41
2.5
 42
1.0
 43
10.0
 44
1.0
 47
0.1
 48
0.1
 73
     0
 74
     0
 75
     1
 76
     1
 77
     1
 78
     8
 79
     2
140
3.5
141
0.0
143
0.0393701
146
0.71
147
1.5
172
     1
176
   256
177
   256
178
     2
271
     2
272
     3
274
     4
283
     0
284
     8
340
26
371
    -1
372
    -1
1001
ACAD_DSTYLE_DIMARC_LENGTH_SYMBOL
1070
   379
1070
     1
  0
DIMSTYLE
105
D4
330
A
100
AcDbSymbolTableRecord
100
AcDbDimStyleTableRecord
  2
AM_ISO$SH
 70
     0
  4
"
 41
2.5
 42
1.0
 43
10.0
 44
1.0
 47
0.1
 48
0.1
 73
     0
 74
     0
 75
     1
 76
     1
 77
     1
 78
     8
 79
     2
140
3.5
141
0.0
143
0.0393701
144
2.0
146
0.71
147
1.5
172
     1
173
     1
176
   256
177
   256
178
     2
271
     2
272
     3
274
     4
283
     0
284
     8
340
26
343
D0
371
    -1
372
    -1
1001
ACAD_DSTYLE_DIMARC_LENGTH_SYMBOL
1070
   379
1070
     1
  0
DIMSTYLE
105
5C34
330
A
100
AcDbSymbolTableRecord
100
AcDbDimStyleTableRecord
  2
AM_ISO$3
 70
     0
  4
"
 41
2.5
 42
1.0
 43
10.0
 44
1.0
 47
0.1
 48
0.1
 73
     0
 77
     1
 78
     8
 79
     2
140
3.5
141
0.0
143
0.0393701
146
0.71
147
1.5
176
   256
177
   256
178
     2
271
     2
272
     3
274
     4
283
     0
284
     8
288
     1
289
     0
340
26
371
    -1
372
    -1
  0
ENDTAB
  0
TABLE
  2
BLOCK_RECORD
  5
1
330
0
100
AcDbSymbolTable
 70
     3
  0
BLOCK_RECORD
  5
37
102
{ACAD_XDICTIONARY
360
946
102
}
330
1
100
AcDbSymbolTableRecord
100
AcDbBlockTableRecord
  2
*Model_Space
340
3A
  0
BLOCK_RECORD
  5
9004
330
1
100
AcDbSymbolTableRecord
100
AcDbBlockTableRecord
  2
*Paper_Space
340
9005
  0
BLOCK_RECORD
  5
D0
330
1
100
AcDbSymbolTableRecord
100
AcDbBlockTableRecord
  2
GENAXEH
340
0
  0
BLOCK_RECORD
  5
8F68
102
{ACAD_XDICTIONARY
360
8FFF
102
}
330
1
100
AcDbSymbolTableRecord
100
AcDbBlockTableRecord
  2
A$C6AC2299F
340
0
102
{BLKREFS
331
9003
102
}
1001
ACAD
1000
DesignCenter Data
1002
{
1070
     1
1070
     4
1002
}
  0
ENDTAB
  0
ENDSEC
  0
SECTION
  2
BLOCKS
  0
BLOCK
  5
38
330
37
100
AcDbEntity
  8
0
100
AcDbBlockBegin
  2
*Model_Space
 70
     0
 10
0.0
 20
0.0
 30
0.0
  3
*Model_Space
  1

  0
ENDBLK
  5
39
330
37
100
AcDbEntity
  8
0
100
AcDbBlockEnd
  0
BLOCK
  5
9006
330
9004
100
AcDbEntity
 67
     1
  8
0
100
AcDbBlockBegin
  2
*Paper_Space
 70
     0
 10
0.0
 20
0.0
 30
0.0
  3
*Paper_Space
  1

  0
ENDBLK
  5
9007
330
9004
100
AcDbEntity
 67
     1
  8
0
100
AcDbBlockEnd
  0
BLOCK
  5
D2
330
D0
100
AcDbEntity
  8
0
100
AcDbBlockBegin
  2
GENAXEH
 70
     0
 10
0.0
 20
0.0
 30
0.0
  3
GENAXEH
  1

  0
LINE
  5
D1
330
D0
100
AcDbEntity
  8
0
100
AcDbLine
 10
-1.0
 20
0.0
 30
0.0
 11
1.0
 21
0.0
 31
0.0
  0
ENDBLK
  5
D3
330
D0
100
AcDbEntity
  8
0
100
AcDbBlockEnd
  0
BLOCK
  5
9001
330
8F68
100
AcDbEntity
  8
0
100
AcDbBlockBegin
  2
A$C6AC2299F
 70
     0
 10
0.0
 20
0.0
 30
0.0
  3
A$C6AC2299F
  1

  0
LINE
  5
8F69
330
8F68
100
AcDbEntity
  8
図面枠
100
AcDbLine
 10
-34.51033935419263
 20
204.191166067649
 30
0.0
 11
163.6896606458073
 21
204.191166067649
 31
0.0
1001
GENIUS_GENREC_14
1002
{
1000
PYDIR
1011
-34.51033935419264
1021
-80.89435251118635
1031
0.0
1002
}
1002
{
1000
PXDIR
1011
163.6896606458073
1021
204.191166067649
1031
0.0
1002
}
1002
{
1000
PORI
1011
-34.51033935419263
1021
204.191166067649
1031
0.0
1002
}
1002
{
1000
PINS
1011
-34.51033935419263
1021
204.191166067649
1031
0.0
1002
}
1002
{
1000
PINS2
1011
163.6896606458073
1021
-80.89435251118642
1031
0.0
1002
}
1002
{
1000
C
1070
     1
1002
}
1001
GENIUS_GENOBJ-N-REC_13
1002
{
1000
OWNER
1000
GEN
1002
}
1001
GENIUS_GENODEF_13
1002
{
1000
HIER
1070
     0
1002
}
1002
{
1000
MANEDIT
1070
     0
1002
}
1002
{
1000
NOSEL
1070
     0
1002
}
1002
{
1000
BEHIND
1070
     0
1002
}
1002
{
1000
OTHER
1070
     0
1002
}
1002
{
1000
REACTOR
1002
}
  0
LINE
  5
8F6A
330
8F68
100
AcDbEntity
  8
図面枠
100
AcDbLine
 10
163.6896606458073
 20
204.191166067649
 30
0.0
 11
163.6896606458073
 21
-80.89435251118635
 31
0.0
1001
GENIUS_GENREC_14
1002
{
1000
PYDIR
1011
-34.51033935419264
1021
-80.89435251118635
1031
0.0
1002
}
1002
{
1000
PXDIR
1011
163.6896606458073
1021
204.191166067649
1031
0.0
1002
}
1002
{
1000
PORI
1011
-34.51033935419263
1021
204.191166067649
1031
0.0
1002
}
1002
{
1000
PINS
1011
-34.51033935419263
1021
204.191166067649
1031
0.0
1002
}
1002
{
1000
PINS2
1011
163.6896606458073
1021
-80.89435251118642
1031
0.0
1002
}
1002
{
1000
C
1070
     1
1002
}
1001
GENIUS_GENOBJ-N-REC_13
1002
{
1000
OWNER
1000
GEN
1002
}
1001
GENIUS_GENODEF_13
1002
{
1000
HIER
1070
     0
1002
}
1002
{
1000
MANEDIT
1070
     0
1002
}
1002
{
1000
NOSEL
1070
     0
1002
}
1002
{
1000
BEHIND
1070
     0
1002
}
1002
{
1000
OTHER
1070
     0
1002
}
1002
{
1000
REACTOR
1002
}
  0
LINE
  5
8F6B
330
8F68
100
AcDbEntity
  8
図面枠
100
AcDbLine
 10
163.6896606458073
 20
-80.89435251118635
 30
0.0
 11
-34.51033935419264
 21
-80.89435251118635
 31
0.0
1001
GENIUS_GENREC_14
1002
{
1000
PYDIR
1011
-34.51033935419264
1021
-80.89435251118635
1031
0.0
1002
}
1002
{
1000
PXDIR
1011
163.6896606458073
1021
204.191166067649
1031
0.0
1002
}
1002
{
1000
PORI
1011
-34.51033935419263
1021
204.191166067649
1031
0.0
1002
}
1002
{
1000
PINS
1011
-34.51033935419263
1021
204.191166067649
1031
0.0
1002
}
1002
{
1000
PINS2
1011
163.6896606458073
1021
-80.89435251118642
1031
0.0
1002
}
1002
{
1000
C
1070
     1
1002
}
1001
GENIUS_GENOBJ-N-REC_13
1002
{
1000
OWNER
1000
GEN
1002
}
1001
GENIUS_GENODEF_13
1002
{
1000
HIER
1070
     0
1002
}
1002
{
1000
MANEDIT
1070
     0
1002
}
1002
{
1000
NOSEL
1070
     0
1002
}
1002
{
1000
BEHIND
1070
     0
1002
}
1002
{
1000
OTHER
1070
     0
1002
}
1002
{
1000
REACTOR
1002
}
  0
LINE
  5
8F6C
330
8F68
100
AcDbEntity
  8
図面枠
100
AcDbLine
 10
-34.51033935419264
 20
-80.89435251118635
 30
0.0
 11
-34.51033935419263
 21
204.191166067649
 31
0.0
1001
GENIUS_GENREC_14
1002
{
1000
PYDIR
1011
-34.51033935419264
1021
-80.89435251118635
1031
0.0
1002
}
1002
{
1000
PXDIR
1011
163.6896606458073
1021
204.191166067649
1031
0.0
1002
}
1002
{
1000
PORI
1011
-34.51033935419263
1021
204.191166067649
1031
0.0
1002
}
1002
{
1000
PINS
1011
-34.51033935419263
1021
204.191166067649
1031
0.0
1002
}
1002
{
1000
PINS2
1011
163.6896606458073
1021
-80.89435251118642
1031
0.0
1002
}
1002
{
1000
C
1070
     1
1002
}
1001
GENIUS_GENOBJ-N-REC_13
1002
{
1000
OWNER
1000
GEN
1002
}
1001
GENIUS_GENODEF_13
1002
{
1000
HIER
1070
     0
1002
}
1002
{
1000
MANEDIT
1070
     0
1002
}
1002
{
1000
NOSEL
1070
     0
1002
}
1002
{
1000
BEHIND
1070
     0
1002
}
1002
{
1000
OTHER
1070
     0
1002
}
1002
{
1000
REACTOR
1002
}
  0
TEXT
  5
8F6D
330
8F68
100
AcDbEntity
  8
図面枠
100
AcDbText
 10
95.51537493152167
 20
-54.68006679690073
 30
0.0
 40
3.0
  1
15.5kg（本体重量）/18.5kg（氷込み重量）
 41
0.8
  7
0.8横
100
AcDbText
  0
TEXT
  5
8F6E
330
8F68
100
AcDbEntity
  8
図面枠
100
AcDbText
 10
88.68966064580739
 20
-72.39435251118648
 30
0.0
 40
3.0
  1
 ・ビール用
 41
0.8
  7
0.9横
100
AcDbText
  0
TEXT
  5
8F6F
330
8F68
100
AcDbEntity
  8
図面枠
100
AcDbText
 10
88.68966064580739
 20
-77.39435251118648
 30
0.0
 40
3.0
  1
 ・氷込み重量は氷の量（形状）により異なります。
 41
0.8
  7
0.9横
100
AcDbText
  0
TEXT
  5
8F70
330
8F68
100
AcDbEntity
  8
図面枠
100
AcDbText
 10
-31.70960720309837
 20
-77.09435251118637
 30
0.0
 40
3.0
  1
%%U※改良の為、予告なく仕様・デザインを変更することがあります。ご了承ください。
 41
0.6
100
AcDbText
  0
TEXT
  5
8F71
330
8F68
100
AcDbEntity
  8
文字
100
AcDbText
 10
61.12966064580739
 20
-34.89435251118654
 30
0.0
 40
3.0
  1
樽型ディスペンサー
 41
0.8
  7
承認
100
AcDbText
1001
ACAD
1000
ACAD_MTEXT_DEFINED_HEIGHT_BEGIN
1070
    46
1040
9.5
1000
ACAD_MTEXT_DEFINED_HEIGHT_END
  0
TEXT
  5
8F72
330
8F68
100
AcDbEntity
  8
文字
100
AcDbText
 10
68.32966064580737
 20
-39.89435251118654
 30
0.0
 40
3.0
  1
［木製］
 41
0.8
  7
承認
100
AcDbText
1001
ACAD
1000
ACAD_MTEXT_DEFINED_HEIGHT_BEGIN
1070
    46
1040
9.5
1000
ACAD_MTEXT_DEFINED_HEIGHT_END
  0
LINE
  5
8F73
330
8F68
100
AcDbEntity
  8
図面枠
100
AcDbLine
 10
58.68966064580741
 20
-30.89435251118637
 30
0.0
 11
163.6896606458073
 21
-30.8943525111863
 31
0.0
  0
TEXT
  5
8F74
330
8F68
100
AcDbEntity
  8
図面枠
100
AcDbText
 10
67.56966064580741
 20
-47.39435251118667
 30
0.0
 40
3.0
  1
外形寸法
 41
0.9
  7
承認
100
AcDbText
1001
ACAD
1000
ACAD_MTEXT_DEFINED_HEIGHT_BEGIN
1070
    46
1040
9.999999999999907
1000
ACAD_MTEXT_DEFINED_HEIGHT_END
  0
LINE
  5
8F75
330
8F68
100
AcDbEntity
  8
図面枠
100
AcDbLine
 10
58.68966064580742
 20
-55.89435251118668
 30
0.0
 11
163.6896606458073
 21
-55.89435251118645
 31
0.0
  0
LINE
  5
8F76
330
8F68
100
AcDbEntity
  8
図面枠
100
AcDbLine
 10
88.68966064580739
 20
-30.89435251118634
 30
0.0
 11
88.68966064580739
 21
-80.89435251118635
 31
0.0
  0
LINE
  5
8F77
330
8F68
100
AcDbEntity
  8
図面枠
100
AcDbLine
 10
58.68966064580746
 20
-50.89435251118668
 30
0.0
 11
163.6896606458073
 21
-50.89435251118645
 31
0.0
  0
LINE
  5
8F78
330
8F68
100
AcDbEntity
  8
図面枠
100
AcDbLine
 10
163.6896606458073
 20
-40.89435251118675
 30
0.0
 11
58.68966064580739
 21
-40.89435251118671
 31
0.0
  0
TEXT
  5
8F79
330
8F68
100
AcDbEntity
  8
図面枠
100
AcDbText
 10
70.80966064580739
 20
-54.89435251118663
 30
0.0
 40
3.0
  1
重量
 41
0.9
  7
承認
100
AcDbText
1001
ACAD
1000
ACAD_MTEXT_DEFINED_HEIGHT_BEGIN
1070
    46
1040
5.000000000000063
1000
ACAD_MTEXT_DEFINED_HEIGHT_END
  0
LINE
  5
8F7A
330
8F68
100
AcDbEntity
  8
図面枠
100
AcDbLine
 10
58.68966064580739
 20
-60.89435251118668
 30
0.0
 11
163.6896606458073
 21
-60.89435251118645
 31
0.0
  0
TEXT
  5
8F7B
330
8F68
100
AcDbEntity
  8
図面枠
100
AcDbText
 10
95.99537493152167
 20
-44.89435251118659
 30
0.0
 40
3.0
  1
幅330mm\U+00D7奥行485mm\U+00D7高さ420mm
 41
0.8
  7
承認
100
AcDbText
1001
ACAD
1000
ACAD_MTEXT_DEFINED_HEIGHT_BEGIN
1070
    46
1040
9.999999999999744
1000
ACAD_MTEXT_DEFINED_HEIGHT_END
  0
TEXT
  5
8F7C
330
8F68
100
AcDbEntity
  8
図面枠
100
AcDbText
 10
116.5096606458073
 20
-49.89435251118659
 30
0.0
 40
3.0
  1
（ノズル含む）
 41
0.8
  7
承認
100
AcDbText
1001
ACAD
1000
ACAD_MTEXT_DEFINED_HEIGHT_BEGIN
1070
    46
1040
9.999999999999744
1000
ACAD_MTEXT_DEFINED_HEIGHT_END
  0
LINE
  5
8F7D
330
8F68
100
AcDbEntity
  8
図面枠
100
AcDbLine
 10
58.68966064580741
 20
-30.89435251118637
 30
0.0
 11
58.68966064580741
 21
-80.8943525111866
 31
0.0
  0
TEXT
  5
8F7E
330
8F68
100
AcDbEntity
  8
図面枠
100
AcDbText
 10
70.80966064580739
 20
-74.89435251118648
 30
0.0
 40
3.0
  1
備考
 41
0.9
  7
0.8横
100
AcDbText
1001
ACAD
1000
ACAD_MTEXT_DEFINED_HEIGHT_BEGIN
1070
    46
1040
15.49999999999985
1000
ACAD_MTEXT_DEFINED_HEIGHT_END
  0
TEXT
  5
8F7F
330
8F68
100
AcDbEntity
  8
図面枠
100
AcDbText
 10
64.5996606458074
 20
-59.89435251118663
 30
0.0
 40
3.0
  1
使用プレート
 41
0.9
  7
0.9横
100
AcDbText
1001
ACAD
1000
ACAD_MTEXT_DEFINED_HEIGHT_BEGIN
1070
    46
1040
5.000000000000049
1000
ACAD_MTEXT_DEFINED_HEIGHT_END
  0
TEXT
  5
8F80
330
8F68
100
AcDbEntity
  8
図面枠
100
AcDbText
 10
116.8296606458073
 20
-59.89435251118653
 30
0.0
 40
3.0
  1
ミニコールド
 41
0.9
  7
承認
100
AcDbText
1001
ACAD
1000
ACAD_MTEXT_DEFINED_HEIGHT_BEGIN
1070
    46
1040
4.99999999999982
1000
ACAD_MTEXT_DEFINED_HEIGHT_END
  0
LINE
  5
8F81
330
8F68
100
AcDbEntity
  8
図面枠
100
AcDbLine
 10
58.68966064580739
 20
-65.89435251118668
 30
0.0
 11
163.6896606458073
 21
-65.89435251118645
 31
0.0
  0
TEXT
  5
8F82
330
8F68
100
AcDbEntity
  8
図面枠
100
AcDbText
 10
67.56966064580739
 20
-64.89435251118663
 30
0.0
 40
3.0
  1
排水設備
 41
0.9
  7
0.9横
100
AcDbText
1001
ACAD
1000
ACAD_MTEXT_DEFINED_HEIGHT_BEGIN
1070
    46
1040
4.999999999999993
1000
ACAD_MTEXT_DEFINED_HEIGHT_END
  0
TEXT
  5
8F83
330
8F68
100
AcDbEntity
  8
図面枠
100
AcDbText
 10
124.9296606458073
 20
-64.89435251118644
 30
0.0
 40
3.0
  1
要
 41
0.9
  7
承認
100
AcDbText
1001
ACAD
1000
ACAD_MTEXT_DEFINED_HEIGHT_BEGIN
1070
    46
1040
4.999999999999992
1000
ACAD_MTEXT_DEFINED_HEIGHT_END
  0
LINE
  5
8F84
330
8F68
100
AcDbEntity
  8
AM_5
 62
     4
370
     9
100
AcDbLine
 10
0.0
 20
-1.5
 30
0.0
 11
0.0
 21
-13.00000000000001
 31
0.0
  0
LINE
  5
8F85
330
8F68
100
AcDbEntity
  8
AM_5
 62
     4
370
     9
100
AcDbLine
 10
31.25
 20
-1.5
 30
0.0
 11
31.25
 21
-13.00000000000001
 31
0.0
  0
LINE
  5
8F86
330
8F68
100
AcDbEntity
  8
AM_5
 62
     4
370
     9
100
AcDbLine
 10
1.5
 20
-12.00000000000001
 30
0.0
 11
29.75
 21
-12.00000000000001
 31
0.0
  0
LINE
  5
8F87
330
8F68
100
AcDbEntity
  8
0
  6
ByBlock
 62
     0
370
    -2
100
AcDbLine
 10
1.5
 20
-12.25000000000001
 30
0.0
 11
0.0
 21
-12.00000000000001
 31
0.0
  0
LINE
  5
8F88
330
8F68
100
AcDbEntity
  8
0
  6
ByBlock
 62
     0
370
    -2
100
AcDbLine
 10
1.5
 20
-11.75000000000001
 30
0.0
 11
0.0
 21
-12.00000000000001
 31
0.0
  0
LINE
  5
8F89
330
8F68
100
AcDbEntity
  8
0
  6
ByBlock
 62
     0
370
    -2
100
AcDbLine
 10
0.0
 20
-12.00000000000001
 30
0.0
 11
1.5
 21
-12.00000000000001
 31
0.0
  0
LINE
  5
8F8A
330
8F68
100
AcDbEntity
  8
0
  6
ByBlock
 62
     0
370
    -2
100
AcDbLine
 10
29.75
 20
-11.75000000000001
 30
0.0
 11
31.25
 21
-12.00000000000001
 31
0.0
  0
LINE
  5
8F8B
330
8F68
100
AcDbEntity
  8
0
  6
ByBlock
 62
     0
370
    -2
100
AcDbLine
 10
29.75
 20
-12.25000000000001
 30
0.0
 11
31.25
 21
-12.00000000000001
 31
0.0
  0
LINE
  5
8F8C
330
8F68
100
AcDbEntity
  8
0
  6
ByBlock
 62
     0
370
    -2
100
AcDbLine
 10
31.25
 20
-12.00000000000001
 30
0.0
 11
29.75
 21
-12.00000000000001
 31
0.0
  0
TEXT
  5
8F8D
330
8F68
100
AcDbEntity
  8
AM_5
100
AcDbText
 10
11.125
 20
-11.00000000000001
 30
0.0
 40
3.5
  1
250
100
AcDbText
  0
LINE
  5
8F8E
330
8F68
100
AcDbEntity
  8
AM_5
 62
     4
370
     9
100
AcDbLine
 10
89.76442822044372
 20
-1.5
 30
0.0
 11
89.76442822044372
 21
-13.00000000000001
 31
0.0
  0
LINE
  5
8F8F
330
8F68
100
AcDbEntity
  8
AM_5
 62
     4
370
     9
100
AcDbLine
 10
126.2644282204437
 20
-1.5
 30
0.0
 11
126.2644282204437
 21
-13.00000000000001
 31
0.0
  0
LINE
  5
8F90
330
8F68
100
AcDbEntity
  8
AM_5
 62
     4
370
     9
100
AcDbLine
 10
91.26442822044372
 20
-12.00000000000001
 30
0.0
 11
124.7644282204437
 21
-12.00000000000001
 31
0.0
  0
LINE
  5
8F91
330
8F68
100
AcDbEntity
  8
0
  6
ByBlock
 62
     0
370
    -2
100
AcDbLine
 10
91.26442822044372
 20
-12.25000000000001
 30
0.0
 11
89.76442822044372
 21
-12.00000000000001
 31
0.0
  0
LINE
  5
8F92
330
8F68
100
AcDbEntity
  8
0
  6
ByBlock
 62
     0
370
    -2
100
AcDbLine
 10
91.26442822044372
 20
-11.75000000000001
 30
0.0
 11
89.76442822044372
 21
-12.00000000000001
 31
0.0
  0
LINE
  5
8F93
330
8F68
100
AcDbEntity
  8
0
  6
ByBlock
 62
     0
370
    -2
100
AcDbLine
 10
89.76442822044372
 20
-12.00000000000001
 30
0.0
 11
91.26442822044372
 21
-12.00000000000001
 31
0.0
  0
LINE
  5
8F94
330
8F68
100
AcDbEntity
  8
0
  6
ByBlock
 62
     0
370
    -2
100
AcDbLine
 10
124.7644282204437
 20
-11.75000000000001
 30
0.0
 11
126.2644282204437
 21
-12.00000000000001
 31
0.0
  0
LINE
  5
8F95
330
8F68
100
AcDbEntity
  8
0
  6
ByBlock
 62
     0
370
    -2
100
AcDbLine
 10
124.7644282204437
 20
-12.25000000000001
 30
0.0
 11
126.2644282204437
 21
-12.00000000000001
 31
0.0
  0
LINE
  5
8F96
330
8F68
100
AcDbEntity
  8
0
  6
ByBlock
 62
     0
370
    -2
100
AcDbLine
 10
126.2644282204437
 20
-12.00000000000001
 30
0.0
 11
124.7644282204437
 21
-12.00000000000001
 31
0.0
  0
TEXT
  5
8F97
330
8F68
100
AcDbEntity
  8
AM_5
100
AcDbText
 10
103.5144282204437
 20
-11.00000000000001
 30
0.0
 40
3.5
  1
292
100
AcDbText
  0
LINE
  5
8F98
330
8F68
100
AcDbEntity
  8
AM_5
 62
     4
370
     9
100
AcDbLine
 10
-4.999999999999983
 20
29.31249999999998
 30
0.0
 11
-4.999999999999981
 21
61.3873443289736
 31
0.0
  0
LINE
  5
8F99
330
8F68
100
AcDbEntity
  8
AM_5
 62
     4
370
     9
100
AcDbLine
 10
36.25
 20
29.31249999999998
 30
0.0
 11
36.25
 21
61.3873443289736
 31
0.0
  0
LINE
  5
8F9A
330
8F68
100
AcDbEntity
  8
AM_5
 62
     4
370
     9
100
AcDbLine
 10
-3.499999999999982
 20
60.38734432897364
 30
0.0
 11
34.75
 21
60.38734432897364
 31
0.0
  0
LINE
  5
8F9B
330
8F68
100
AcDbEntity
  8
0
  6
ByBlock
 62
     0
370
    -2
100
AcDbLine
 10
-3.499999999999982
 20
60.1373443289736
 30
0.0
 11
-4.999999999999981
 21
60.38734432897364
 31
0.0
  0
LINE
  5
8F9C
330
8F68
100
AcDbEntity
  8
0
  6
ByBlock
 62
     0
370
    -2
100
AcDbLine
 10
-3.499999999999982
 20
60.63734432897362
 30
0.0
 11
-4.999999999999981
 21
60.38734432897364
 31
0.0
  0
LINE
  5
8F9D
330
8F68
100
AcDbEntity
  8
0
  6
ByBlock
 62
     0
370
    -2
100
AcDbLine
 10
-4.999999999999981
 20
60.38734432897364
 30
0.0
 11
-3.499999999999982
 21
60.38734432897364
 31
0.0
  0
LINE
  5
8F9E
330
8F68
100
AcDbEntity
  8
0
  6
ByBlock
 62
     0
370
    -2
100
AcDbLine
 10
34.75
 20
60.63734432897362
 30
0.0
 11
36.25
 21
60.38734432897364
 31
0.0
  0
LINE
  5
8F9F
330
8F68
100
AcDbEntity
  8
0
  6
ByBlock
 62
     0
370
    -2
100
AcDbLine
 10
34.75
 20
60.1373443289736
 30
0.0
 11
36.25
 21
60.38734432897364
 31
0.0
  0
LINE
  5
8FA0
330
8F68
100
AcDbEntity
  8
0
  6
ByBlock
 62
     0
370
    -2
100
AcDbLine
 10
36.25
 20
60.38734432897364
 30
0.0
 11
34.75
 21
60.38734432897364
 31
0.0
  0
TEXT
  5
8FA1
330
8F68
100
AcDbEntity
  8
AM_5
100
AcDbText
 10
11.125
 20
61.3873443289736
 30
0.0
 40
3.5
  1
330
100
AcDbText
  0
LINE
  5
8FA2
330
8F68
100
AcDbEntity
  8
AM_5
 62
     4
370
     9
100
AcDbLine
 10
82.13942822044606
 20
45.69438598343565
 30
0.0
 11
82.13942822044606
 21
61.38734432897379
 31
0.0
  0
LINE
  5
8FA3
330
8F68
100
AcDbEntity
  8
AM_5
 62
     4
370
     9
100
AcDbLine
 10
134.1394282204437
 20
45.69438598343547
 30
0.0
 11
134.1394282204437
 21
61.38734432897379
 31
0.0
  0
LINE
  5
8FA4
330
8F68
100
AcDbEntity
  8
AM_5
 62
     4
370
     9
100
AcDbLine
 10
83.63942822044604
 20
60.38734432897379
 30
0.0
 11
132.6394282204437
 21
60.38734432897379
 31
0.0
  0
LINE
  5
8FA5
330
8F68
100
AcDbEntity
  8
0
  6
ByBlock
 62
     0
370
    -2
100
AcDbLine
 10
83.63942822044604
 20
60.13734432897379
 30
0.0
 11
82.13942822044606
 21
60.38734432897379
 31
0.0
  0
LINE
  5
8FA6
330
8F68
100
AcDbEntity
  8
0
  6
ByBlock
 62
     0
370
    -2
100
AcDbLine
 10
83.63942822044604
 20
60.6373443289738
 30
0.0
 11
82.13942822044606
 21
60.38734432897379
 31
0.0
  0
LINE
  5
8FA7
330
8F68
100
AcDbEntity
  8
0
  6
ByBlock
 62
     0
370
    -2
100
AcDbLine
 10
82.13942822044606
 20
60.38734432897379
 30
0.0
 11
83.63942822044604
 21
60.38734432897379
 31
0.0
  0
LINE
  5
8FA8
330
8F68
100
AcDbEntity
  8
0
  6
ByBlock
 62
     0
370
    -2
100
AcDbLine
 10
132.6394282204437
 20
60.6373443289738
 30
0.0
 11
134.1394282204437
 21
60.38734432897379
 31
0.0
  0
LINE
  5
8FA9
330
8F68
100
AcDbEntity
  8
0
  6
ByBlock
 62
     0
370
    -2
100
AcDbLine
 10
132.6394282204437
 20
60.13734432897379
 30
0.0
 11
134.1394282204437
 21
60.38734432897379
 31
0.0
  0
LINE
  5
8FAA
330
8F68
100
AcDbEntity
  8
0
  6
ByBlock
 62
     0
370
    -2
100
AcDbLine
 10
134.1394282204437
 20
60.38734432897379
 30
0.0
 11
132.6394282204437
 21
60.38734432897379
 31
0.0
  0
TEXT
  5
8FAB
330
8F68
100
AcDbEntity
  8
AM_5
100
AcDbText
 10
104.0560948871115
 20
61.38734432897379
 30
0.0
 40
3.5
  1
416
100
AcDbText
  0
LINE
  5
8FAC
330
8F68
100
AcDbEntity
  8
AM_5
 62
     4
370
     9
100
AcDbLine
 10
88.26442822044372
 20
0.0
 30
0.0
 11
61.94813801585123
 21
0.0
 31
0.0
  0
LINE
  5
8FAD
330
8F68
100
AcDbEntity
  8
AM_5
 62
     4
370
     9
100
AcDbLine
 10
73.44813801585122
 20
29.45536392143429
 30
0.0
 11
61.94813801585124
 21
29.45536392143429
 31
0.0
  0
LINE
  5
8FAE
330
8F68
100
AcDbEntity
  8
AM_5
 62
     4
370
     9
100
AcDbLine
 10
62.94813801585123
 20
1.5
 30
0.0
 11
62.94813801585124
 21
27.95536392143429
 31
0.0
  0
LINE
  5
8FAF
330
8F68
100
AcDbEntity
  8
0
  6
ByBlock
 62
     0
370
    -2
100
AcDbLine
 10
63.19813801585123
 20
1.5
 30
0.0
 11
62.94813801585123
 21
0.0
 31
0.0
  0
LINE
  5
8FB0
330
8F68
100
AcDbEntity
  8
0
  6
ByBlock
 62
     0
370
    -2
100
AcDbLine
 10
62.69813801585121
 20
1.5
 30
0.0
 11
62.94813801585123
 21
0.0
 31
0.0
  0
LINE
  5
8FB1
330
8F68
100
AcDbEntity
  8
0
  6
ByBlock
 62
     0
370
    -2
100
AcDbLine
 10
62.94813801585123
 20
0.0
 30
0.0
 11
62.94813801585123
 21
1.5
 31
0.0
  0
LINE
  5
8FB2
330
8F68
100
AcDbEntity
  8
0
  6
ByBlock
 62
     0
370
    -2
100
AcDbLine
 10
62.69813801585124
 20
27.95536392143429
 30
0.0
 11
62.94813801585124
 21
29.45536392143429
 31
0.0
  0
LINE
  5
8FB3
330
8F68
100
AcDbEntity
  8
0
  6
ByBlock
 62
     0
370
    -2
100
AcDbLine
 10
63.19813801585124
 20
27.95536392143429
 30
0.0
 11
62.94813801585124
 21
29.45536392143429
 31
0.0
  0
LINE
  5
8FB4
330
8F68
100
AcDbEntity
  8
0
  6
ByBlock
 62
     0
370
    -2
100
AcDbLine
 10
62.94813801585124
 20
29.45536392143429
 30
0.0
 11
62.94813801585124
 21
27.95536392143429
 31
0.0
  0
TEXT
  5
8FB5
330
8F68
100
AcDbEntity
  8
AM_5
100
AcDbText
 10
61.94813801585121
 20
10.22768196071718
 30
0.0
 40
3.5
  1
235
 50
90.0
100
AcDbText
  0
LINE
  5
8FB6
330
8F68
100
AcDbEntity
  8
AM_5
 62
     4
370
     9
100
AcDbLine
 10
32.75
 20
0.0
 30
0.0
 11
50.84514479386129
 21
0.0
 31
0.0
  0
LINE
  5
8FB7
330
8F68
100
AcDbEntity
  8
AM_5
 62
     4
370
     9
100
AcDbLine
 10
18.17955987554524
 20
52.34999999999989
 30
0.0
 11
50.84514479386132
 21
52.34999999999988
 31
0.0
  0
LINE
  5
8FB8
330
8F68
100
AcDbEntity
  8
AM_5
 62
     4
370
     9
100
AcDbLine
 10
49.84514479386129
 20
1.5
 30
0.0
 11
49.84514479386131
 21
50.8499999999999
 31
0.0
  0
LINE
  5
8FB9
330
8F68
100
AcDbEntity
  8
0
  6
ByBlock
 62
     0
370
    -2
100
AcDbLine
 10
50.0951447938613
 20
1.5
 30
0.0
 11
49.84514479386129
 21
0.0
 31
0.0
  0
LINE
  5
8FBA
330
8F68
100
AcDbEntity
  8
0
  6
ByBlock
 62
     0
370
    -2
100
AcDbLine
 10
49.59514479386129
 20
1.5
 30
0.0
 11
49.84514479386129
 21
0.0
 31
0.0
  0
LINE
  5
8FBB
330
8F68
100
AcDbEntity
  8
0
  6
ByBlock
 62
     0
370
    -2
100
AcDbLine
 10
49.84514479386129
 20
0.0
 30
0.0
 11
49.84514479386129
 21
1.5
 31
0.0
  0
LINE
  5
8FBC
330
8F68
100
AcDbEntity
  8
0
  6
ByBlock
 62
     0
370
    -2
100
AcDbLine
 10
49.59514479386132
 20
50.8499999999999
 30
0.0
 11
49.84514479386131
 21
52.34999999999988
 31
0.0
  0
LINE
  5
8FBD
330
8F68
100
AcDbEntity
  8
0
  6
ByBlock
 62
     0
370
    -2
100
AcDbLine
 10
50.09514479386131
 20
50.8499999999999
 30
0.0
 11
49.84514479386131
 21
52.34999999999988
 31
0.0
  0
LINE
  5
8FBE
330
8F68
100
AcDbEntity
  8
0
  6
ByBlock
 62
     0
370
    -2
100
AcDbLine
 10
49.84514479386131
 20
52.34999999999988
 30
0.0
 11
49.84514479386131
 21
50.8499999999999
 31
0.0
  0
TEXT
  5
8FBF
330
8F68
100
AcDbEntity
  8
AM_5
100
AcDbText
 10
48.8451447938613
 20
21.67499999999995
 30
0.0
 40
3.5
  1
420
 50
90.0
100
AcDbText
  0
LINE
  5
8FC0
330
8F68
100
AcDbEntity
  8
AM_5
 62
     4
370
     9
100
AcDbLine
 10
127.7644282204437
 20
0.0
 30
0.0
 11
147.8284416961736
 21
0.0
 31
0.0
  0
LINE
  5
8FC1
330
8F68
100
AcDbEntity
  8
AM_5
 62
     4
370
     9
100
AcDbLine
 10
112.1394282204437
 20
50.8125
 30
0.0
 11
147.8284416961736
 21
50.8125
 31
0.0
  0
LINE
  5
8FC2
330
8F68
100
AcDbEntity
  8
AM_5
 62
     4
370
     9
100
AcDbLine
 10
146.8284416961736
 20
1.5
 30
0.0
 11
146.8284416961736
 21
49.3125
 31
0.0
  0
LINE
  5
8FC3
330
8F68
100
AcDbEntity
  8
0
  6
ByBlock
 62
     0
370
    -2
100
AcDbLine
 10
147.0784416961736
 20
1.5
 30
0.0
 11
146.8284416961736
 21
0.0
 31
0.0
  0
LINE
  5
8FC4
330
8F68
100
AcDbEntity
  8
0
  6
ByBlock
 62
     0
370
    -2
100
AcDbLine
 10
146.5784416961736
 20
1.5
 30
0.0
 11
146.8284416961736
 21
0.0
 31
0.0
  0
LINE
  5
8FC5
330
8F68
100
AcDbEntity
  8
0
  6
ByBlock
 62
     0
370
    -2
100
AcDbLine
 10
146.8284416961736
 20
0.0
 30
0.0
 11
146.8284416961736
 21
1.5
 31
0.0
  0
LINE
  5
8FC6
330
8F68
100
AcDbEntity
  8
0
  6
ByBlock
 62
     0
370
    -2
100
AcDbLine
 10
146.5784416961736
 20
49.3125
 30
0.0
 11
146.8284416961736
 21
50.8125
 31
0.0
  0
LINE
  5
8FC7
330
8F68
100
AcDbEntity
  8
0
  6
ByBlock
 62
     0
370
    -2
100
AcDbLine
 10
147.0784416961736
 20
49.3125
 30
0.0
 11
146.8284416961736
 21
50.8125
 31
0.0
  0
LINE
  5
8FC8
330
8F68
100
AcDbEntity
  8
0
  6
ByBlock
 62
     0
370
    -2
100
AcDbLine
 10
146.8284416961736
 20
50.8125
 30
0.0
 11
146.8284416961736
 21
49.3125
 31
0.0
  0
TEXT
  5
8FC9
330
8F68
100
AcDbEntity
  8
AM_5
100
AcDbText
 10
145.8284416961735
 20
20.90625000000001
 30
0.0
 40
3.5
  1
407
 50
90.0
100
AcDbText
  0
LINE
  5
8FCA
330
8F68
100
AcDbEntity
  8
AM_5
 62
     4
370
     9
100
AcDbLine
 10
134.1394282204437
 20
45.69438598343547
 30
0.0
 11
134.1394282204437
 21
68.38734432897371
 31
0.0
  0
LINE
  5
8FCB
330
8F68
100
AcDbEntity
  8
AM_5
 62
     4
370
     9
100
AcDbLine
 10
73.52456793560941
 20
31.42806702769859
 30
0.0
 11
73.52456793560941
 21
68.38734432897371
 31
0.0
  0
LINE
  5
8FCC
330
8F68
100
AcDbEntity
  8
AM_5
 62
     4
370
     9
100
AcDbLine
 10
132.6394282204437
 20
67.38734432897371
 30
0.0
 11
75.02456793560941
 21
67.38734432897371
 31
0.0
  0
LINE
  5
8FCD
330
8F68
100
AcDbEntity
  8
0
  6
ByBlock
 62
     0
370
    -2
100
AcDbLine
 10
132.6394282204437
 20
67.63734432897371
 30
0.0
 11
134.1394282204437
 21
67.38734432897371
 31
0.0
  0
LINE
  5
8FCE
330
8F68
100
AcDbEntity
  8
0
  6
ByBlock
 62
     0
370
    -2
100
AcDbLine
 10
132.6394282204437
 20
67.13734432897371
 30
0.0
 11
134.1394282204437
 21
67.38734432897371
 31
0.0
  0
LINE
  5
8FCF
330
8F68
100
AcDbEntity
  8
0
  6
ByBlock
 62
     0
370
    -2
100
AcDbLine
 10
134.1394282204437
 20
67.38734432897371
 30
0.0
 11
132.6394282204437
 21
67.38734432897371
 31
0.0
  0
LINE
  5
8FD0
330
8F68
100
AcDbEntity
  8
0
  6
ByBlock
 62
     0
370
    -2
100
AcDbLine
 10
75.02456793560941
 20
67.13734432897371
 30
0.0
 11
73.52456793560941
 21
67.38734432897371
 31
0.0
  0
LINE
  5
8FD1
330
8F68
100
AcDbEntity
  8
0
  6
ByBlock
 62
     0
370
    -2
100
AcDbLine
 10
75.02456793560941
 20
67.63734432897371
 30
0.0
 11
73.52456793560941
 21
67.38734432897371
 31
0.0
  0
LINE
  5
8FD2
330
8F68
100
AcDbEntity
  8
0
  6
ByBlock
 62
     0
370
    -2
100
AcDbLine
 10
73.52456793560941
 20
67.38734432897371
 30
0.0
 11
75.02456793560941
 21
67.38734432897371
 31
0.0
  0
TEXT
  5
8FD3
330
8F68
100
AcDbEntity
  8
AM_5
100
AcDbText
 10
97.08199807802657
 20
69.55401099564037
 30
0.0
 40
3.5
  1
(485)
100
AcDbText
  0
LINE
  5
8FD4
330
8F68
100
AcDbEntity
  8
AM_5
 62
     4
370
     9
100
AcDbLine
 10
126.2644282204437
 20
-1.5
 30
0.0
 11
126.2644282204437
 21
-13.0
 31
0.0
  0
LINE
  5
8FD5
330
8F68
100
AcDbEntity
  8
AM_5
 62
     4
370
     9
100
AcDbLine
 10
134.1394282204437
 20
9.93061401656449
 30
0.0
 11
134.1394282204437
 21
-13.0
 31
0.0
  0
LINE
  5
8FD6
330
8F68
100
AcDbEntity
  8
AM_5
 62
     4
370
     9
100
AcDbLine
 10
127.7644282204437
 20
-12.0
 30
0.0
 11
132.6394282204437
 21
-12.0
 31
0.0
  0
LINE
  5
8FD7
330
8F68
100
AcDbEntity
  8
0
  6
ByBlock
 62
     0
370
    -2
100
AcDbLine
 10
127.7644282204437
 20
-12.25
 30
0.0
 11
126.2644282204437
 21
-12.0
 31
0.0
  0
LINE
  5
8FD8
330
8F68
100
AcDbEntity
  8
0
  6
ByBlock
 62
     0
370
    -2
100
AcDbLine
 10
127.7644282204437
 20
-11.75
 30
0.0
 11
126.2644282204437
 21
-12.0
 31
0.0
  0
LINE
  5
8FD9
330
8F68
100
AcDbEntity
  8
0
  6
ByBlock
 62
     0
370
    -2
100
AcDbLine
 10
126.2644282204437
 20
-12.0
 30
0.0
 11
127.7644282204437
 21
-12.0
 31
0.0
  0
LINE
  5
8FDA
330
8F68
100
AcDbEntity
  8
0
  6
ByBlock
 62
     0
370
    -2
100
AcDbLine
 10
132.6394282204437
 20
-11.75
 30
0.0
 11
134.1394282204437
 21
-12.0
 31
0.0
  0
LINE
  5
8FDB
330
8F68
100
AcDbEntity
  8
0
  6
ByBlock
 62
     0
370
    -2
100
AcDbLine
 10
132.6394282204437
 20
-12.25
 30
0.0
 11
134.1394282204437
 21
-12.0
 31
0.0
  0
LINE
  5
8FDC
330
8F68
100
AcDbEntity
  8
0
  6
ByBlock
 62
     0
370
    -2
100
AcDbLine
 10
134.1394282204437
 20
-12.0
 30
0.0
 11
132.6394282204437
 21
-12.0
 31
0.0
  0
TEXT
  5
8FDD
330
8F68
100
AcDbEntity
  8
AM_5
100
AcDbText
 10
127.3685948871104
 20
-11.0
 30
0.0
 40
3.5
  1
63
100
AcDbText
  0
LINE
  5
8FE8
330
8F68
100
AcDbEntity
  8
AM_5
 62
     4
370
     9
100
AcDbLine
 10
74.9481380158512
 20
27.95536392143429
 30
0.0
 11
74.9481380158512
 21
16.45536392143428
 31
0.0
  0
LINE
  5
8FE9
330
8F68
100
AcDbEntity
  8
AM_5
 62
     4
370
     9
100
AcDbLine
 10
82.13942822044556
 20
27.95536392143429
 30
0.0
 11
82.13942822044556
 21
16.45536392143428
 31
0.0
  0
LINE
  5
8FEA
330
8F68
100
AcDbEntity
  8
AM_5
 62
     4
370
     9
100
AcDbLine
 10
76.4481380158512
 20
17.45536392143428
 30
0.0
 11
80.63942822044555
 21
17.45536392143428
 31
0.0
  0
LINE
  5
8FEB
330
8F68
100
AcDbEntity
  8
0
  6
ByBlock
 62
     0
370
    -2
100
AcDbLine
 10
76.4481380158512
 20
17.20536392143428
 30
0.0
 11
74.9481380158512
 21
17.45536392143428
 31
0.0
  0
LINE
  5
8FEC
330
8F68
100
AcDbEntity
  8
0
  6
ByBlock
 62
     0
370
    -2
100
AcDbLine
 10
76.4481380158512
 20
17.70536392143428
 30
0.0
 11
74.9481380158512
 21
17.45536392143428
 31
0.0
  0
LINE
  5
8FED
330
8F68
100
AcDbEntity
  8
0
  6
ByBlock
 62
     0
370
    -2
100
AcDbLine
 10
74.9481380158512
 20
17.45536392143428
 30
0.0
 11
76.4481380158512
 21
17.45536392143428
 31
0.0
  0
LINE
  5
8FEE
330
8F68
100
AcDbEntity
  8
0
  6
ByBlock
 62
     0
370
    -2
100
AcDbLine
 10
80.63942822044555
 20
17.70536392143428
 30
0.0
 11
82.13942822044556
 21
17.45536392143428
 31
0.0
  0
LINE
  5
8FEF
330
8F68
100
AcDbEntity
  8
0
  6
ByBlock
 62
     0
370
    -2
100
AcDbLine
 10
80.63942822044555
 20
17.20536392143428
 30
0.0
 11
82.13942822044556
 21
17.45536392143428
 31
0.0
  0
LINE
  5
8FF0
330
8F68
100
AcDbEntity
  8
0
  6
ByBlock
 62
     0
370
    -2
100
AcDbLine
 10
82.13942822044556
 20
17.45536392143428
 30
0.0
 11
80.63942822044555
 21
17.45536392143428
 31
0.0
  0
TEXT
  5
8FF1
330
8F68
100
AcDbEntity
  8
AM_5
100
AcDbText
 10
75.71044978481507
 20
18.45536392143428
 30
0.0
 40
3.5
  1
57
100
AcDbText
  0
TEXT
  5
8FF2
330
8F68
100
AcDbEntity
  8
図面枠
100
AcDbText
 10
90.99331267298293
 20
-37.1800667969007
 30
0.0
 40
3.0
  1
A4  尺度 1/ 8
 41
0.6
  7
0.9横
100
AcDbText
  0
LINE
  5
8FF3
330
8F68
100
AcDbEntity
  8
図面枠
100
AcDbLine
 10
130.9941075573013
 20
-40.89435251118671
 30
0.0
 11
130.9941075573013
 21
-30.89435251118672
 31
0.0
  0
LINE
  5
8FF4
330
8F68
100
AcDbEntity
  8
図面枠
100
AcDbLine
 10
109.9941075573013
 20
-40.89435251118671
 30
0.0
 11
109.9941075573013
 21
-30.89435251118672
 31
0.0
  0
TEXT
  5
8FF5
330
8F68
100
AcDbEntity
  8
図面枠
100
AcDbText
 10
112.3512504144442
 20
-37.18006679690101
 30
0.0
 40
3.0
  1
2013/07/10
 41
0.6
  7
0.9横
100
AcDbText
  0
HATCH
  5
8FF6
330
8F68
100
AcDbEntity
  8
0
 62
   172
100
AcDbHatch
 10
0.0
 20
0.0
 30
0.0
210
0.0
220
0.0
230
1.0
  2
SOLID
 70
     1
 71
     0
 91
        1
 92
        1
 93
        4
 72
     1
 10
136.6015987971038
 20
-35.95778071452932
 11
138.1447836739091
 21
-38.42739275757489
 72
     1
 10
138.1447836739091
 20
-38.42739275757478
 11
141.1591534275197
 21
-33.60339275757471
 72
     1
 10
141.1591534275197
 20
-33.60339275757494
 11
138.0727836739091
 21
-33.60339275757494
 72
     1
 10
138.0727836739091
 20
-33.60339275757494
 11
136.6015987971038
 21
-35.95778071452944
 97
        0
 75
     0
 76
     1
 98
        1
 10
117.6600427848763
 20
-54.76088433912362
1001
ACAD
1010
0.0
1020
0.0
1030
0.0
1001
GENIUS_GENOBJ-N-HTC_13
1002
{
1000
OWNER
1000
GEN
1002
}
1001
GENIUS_GENODEF_13
1002
{
1000
HIER
1070
     0
1002
}
1002
{
1000
MANEDIT
1070
     0
1002
}
1002
{
1000
NOSEL
1070
     0
1002
}
1002
{
1000
BEHIND
1070
     0
1002
}
1002
{
1000
OTHER
1070
     0
1002
}
1002
{
1000
REACTOR
1002
}
1001
GENIUS_GENHATCH_13
1002
{
1000
DATA
1040
45.0
1042
1.900000000000004
1000
_U
1070
     0
1011
139.301670000417
1021
-34.48401130651277
1031
0.0
1002
}
1002
{
1000
UCS
1010
0.0
1020
0.0
1030
0.0
1010
1.0
1020
0.0
1030
0.0
1010
0.0
1020
1.0
1030
0.0
1002
}
  0
TEXT
  5
8FF7
330
8F68
100
AcDbEntity
  8
0
 62
   172
100
AcDbText
 10
141.3074977759688
 20
-35.94169410358357
 30
0.0
 40
1.511999999999999
  1
株式
100
AcDbText
  0
TEXT
  5
8FF8
330
8F68
100
AcDbEntity
  8
0
 62
   172
100
AcDbText
 10
141.2807705032415
 20
-37.95387592176535
 30
0.0
 40
1.511999999999999
  1
会社
100
AcDbText
  0
HATCH
  5
8FF9
330
8F68
100
AcDbEntity
  8
0
 62
   172
100
AcDbHatch
 10
0.0
 20
0.0
 30
0.0
210
0.0
220
0.0
230
1.0
  2
SOLID
 70
     1
 71
     0
 91
        3
 92
        1
 93
       10
 72
     2
 10
158.5799836739091
 20
-34.83459275757477
 40
0.4319999999999919
 50
359.9999999999994
 51
450.0000000000008
 73
     0
 72
     1
 10
158.5799836739091
 20
-35.26659275757501
 11
158.3207836739091
 21
-35.26659275757501
 72
     1
 10
158.3207836739091
 20
-35.26659275757501
 11
158.3207836739091
 21
-36.84339275757506
 72
     1
 10
158.3207836739091
 20
-36.84339275757483
 11
158.8823836739091
 21
-36.84339275757483
 72
     1
 10
158.8823836739091
 20
-36.84339275757483
 11
158.8823836739091
 21
-38.13939275757488
 72
     1
 10
158.8823836739091
 20
-38.139392757575
 11
161.4527836739091
 21
-38.139392757575
 72
     2
 10
161.3881082761185
 20
-36.81471735978436
 40
1.326253300312942
 50
272.7951656096049
 51
357.2048343903955
 73
     1
 72
     1
 10
162.7127836739091
 20
-36.87939275757489
 11
162.7127836739091
 21
-34.28739275757492
 72
     1
 10
162.7127836739091
 20
-34.28739275757479
 11
159.0119836739091
 21
-34.28739275757479
 72
     1
 10
159.0119836739091
 20
-34.28739275757479
 11
159.0119836739091
 21
-34.83459275757477
 97
        0
 92
       16
 93
        5
 72
     2
 10
160.8047836739091
 20
-36.12339275757492
 40
0.3960000000000001
 50
0.0000000000006107
 51
90.0
 73
     0
 72
     1
 10
160.8047836739091
 20
-36.51939275757488
 11
159.6671836739091
 21
-36.51939275757488
 72
     2
 10
159.1515336786683
 20
-35.47223076157261
 40
1.167237406641532
 50
296.2168428093594
 51
343.7226386468612
 73
     1
 72
     1
 10
160.2719836739091
 20
-35.79939275757496
 11
161.2007836739091
 21
-35.79939275757496
 72
     1
 10
161.2007836739091
 20
-35.79939275757496
 11
161.2007836739091
 21
-36.12339275757503
 97
        0
 92
       16
 93
       14
 72
     2
 10
161.3807836739091
 20
-36.80739275757478
 40
0.9719999999999997
 50
360.0
 51
450.0
 73
     0
 72
     1
 10
161.3807836739091
 20
-37.77939275757498
 11
159.2423836739091
 21
-37.77939275757498
 72
     1
 10
159.2423836739091
 20
-37.77939275757498
 11
159.2423836739091
 21
-36.879392757575
 72
     1
 10
159.2423836739091
 20
-36.87939275757489
 11
160.9487836739091
 21
-36.87939275757489
 72
     2
 10
160.9487836739091
 20
-36.26739275757481
 40
0.6120000000000021
 50
270.0
 51
359.9999999999998
 73
     1
 72
     1
 10
161.5607836739091
 20
-36.26739275757481
 11
161.5607836739091
 21
-35.43939275757484
 72
     1
 10
161.5607836739091
 20
-35.43939275757496
 11
160.0487836739091
 21
-35.43939275757496
 72
     2
 10
158.8205435903071
 20
-35.15134465725245
 40
1.26156466780984
 50
13.19854039234393
 51
87.19031742312592
 73
     0
 72
     1
 10
158.8823836739091
 20
-36.41139275757493
 11
158.6807836739091
 21
-36.41139275757493
 72
     1
 10
158.6807836739091
 20
-36.41139275757493
 11
158.6807836739091
 21
-35.62659275757491
 72
     2
 10
158.6807836739091
 20
-34.93539275757493
 40
0.6912000000000017
 50
270.0000000000007
 51
359.9999999999998
 73
     1
 72
     1
 10
159.3719836739091
 20
-34.93539275757493
 11
159.3719836739091
 21
-34.64739275757492
 72
     1
 10
159.3719836739091
 20
-34.64739275757492
 11
162.3527836739091
 21
-34.64739275757492
 72
     1
 10
162.3527836739091
 20
-34.64739275757492
 11
162.3527836739091
 21
-36.807392757575
 97
        0
 75
     0
 76
     1
 98
        1
 10
117.8200427848762
 20
-47.56088433912371
1001
ACAD
1010
0.0
1020
0.0
1030
0.0
1001
GENIUS_GENOBJ-N-HTC_13
1002
{
1000
OWNER
1000
GEN
1002
}
1001
GENIUS_GENODEF_13
1002
{
1000
HIER
1070
     0
1002
}
1002
{
1000
MANEDIT
1070
     0
1002
}
1002
{
1000
NOSEL
1070
     0
1002
}
1002
{
1000
BEHIND
1070
     0
1002
}
1002
{
1000
OTHER
1070
     0
1002
}
1002
{
1000
REACTOR
1002
}
1001
GENIUS_GENHATCH_13
1002
{
1000
DATA
1040
45.0
1042
1.900000000000004
1000
_U
1070
     0
1011
161.5656567118369
1021
-34.54056374836691
1031
0.0
1002
}
1002
{
1000
UCS
1010
0.0
1020
0.0
1030
0.0
1010
1.0
1020
0.0
1030
0.0
1010
0.0
1020
1.0
1030
0.0
1002
}
  0
HATCH
  5
8FFA
330
8F68
100
AcDbEntity
  8
0
 62
   172
100
AcDbHatch
 10
0.0
 20
0.0
 30
0.0
210
0.0
220
0.0
230
1.0
  2
SOLID
 70
     1
 71
     0
 91
        2
 92
        1
 93
        8
 72
     1
 10
155.728783673909
 20
-34.28739275757479
 11
154.0727836739091
 21
-34.28739275757479
 72
     1
 10
154.0727836739091
 20
-34.28739275757479
 11
154.0727836739091
 21
-38.13939275757488
 72
     1
 10
154.0727836739091
 20
-38.139392757575
 11
155.728783673909
 21
-38.139392757575
 72
     1
 10
155.728783673909
 20
-38.139392757575
 11
155.728783673909
 21
-36.84339275757495
 72
     1
 10
155.728783673909
 20
-36.84339275757483
 11
157.9247836739091
 21
-36.84339275757483
 72
     1
 10
157.9247836739091
 20
-36.84339275757483
 11
157.9247836739091
 21
-35.22339275757483
 72
     1
 10
157.9247836739091
 20
-35.22339275757494
 11
155.728783673909
 21
-35.22339275757494
 72
     1
 10
155.728783673909
 20
-35.22339275757494
 11
155.728783673909
 21
-34.28739275757502
 97
        0
 92
       16
 93
        8
 72
     1
 10
157.5287836739091
 20
-36.44739275757487
 11
155.3327836739091
 21
-36.44739275757487
 72
     1
 10
155.3327836739091
 20
-36.44739275757487
 11
155.3327836739091
 21
-37.74339275757493
 72
     1
 10
155.3327836739091
 20
-37.74339275757493
 11
154.4687836739091
 21
-37.74339275757493
 72
     1
 10
154.4687836739091
 20
-37.74339275757493
 11
154.4687836739091
 21
-34.68339275757486
 72
     1
 10
154.4687836739091
 20
-34.68339275757486
 11
155.3327836739091
 21
-34.68339275757486
 72
     1
 10
155.3327836739091
 20
-34.68339275757486
 11
155.3327836739091
 21
-35.61939275757479
 72
     1
 10
155.3327836739091
 20
-35.6193927575749
 11
157.5287836739091
 21
-35.6193927575749
 72
     1
 10
157.5287836739091
 20
-35.6193927575749
 11
157.5287836739091
 21
-36.44739275757487
 97
        0
 75
     0
 76
     1
 98
        1
 10
117.8200427848762
 20
-47.56088433912371
1001
ACAD
1010
0.0
1020
0.0
1030
0.0
1001
GENIUS_GENOBJ-N-HTC_13
1002
{
1000
OWNER
1000
GEN
1002
}
1001
GENIUS_GENODEF_13
1002
{
1000
HIER
1070
     0
1002
}
1002
{
1000
MANEDIT
1070
     0
1002
}
1002
{
1000
NOSEL
1070
     0
1002
}
1002
{
1000
BEHIND
1070
     0
1002
}
1002
{
1000
OTHER
1070
     0
1002
}
1002
{
1000
REACTOR
1002
}
1001
GENIUS_GENHATCH_13
1002
{
1000
DATA
1040
45.0
1042
1.900000000000004
1000
_U
1070
     0
1011
157.4600164108082
1021
-35.46470770261064
1031
0.0
1002
}
1002
{
1000
UCS
1010
0.0
1020
0.0
1030
0.0
1010
1.0
1020
0.0
1030
0.0
1010
0.0
1020
1.0
1030
0.0
1002
}
  0
HATCH
  5
8FFB
330
8F68
100
AcDbEntity
  8
0
 62
   172
100
AcDbHatch
 10
0.0
 20
0.0
 30
0.0
210
0.0
220
0.0
230
1.0
  2
SOLID
 70
     1
 71
     0
 91
        4
 92
        1
 93
        5
 72
     1
 10
150.2207836739091
 20
-38.139392757575
 11
152.5967836739091
 21
-38.139392757575
 72
     2
 10
152.5967836739091
 20
-36.98739275757485
 40
1.152
 50
270.0
 51
360.0
 73
     1
 72
     1
 10
153.7487836739091
 20
-36.98739275757485
 11
153.7487836739091
 21
-35.36739275757483
 72
     1
 10
153.7487836739091
 20
-35.36739275757483
 11
150.2207836739091
 21
-35.36739275757483
 72
     1
 10
150.2207836739091
 20
-35.36739275757483
 11
150.2207836739091
 21
-38.13939275757488
 97
        0
 92
       16
 93
        4
 72
     1
 10
151.2287836739091
 20
-36.48339275757482
 11
150.6527836739091
 21
-36.48339275757482
 72
     1
 10
150.6527836739091
 20
-36.48339275757482
 11
150.6527836739091
 21
-35.76339275757479
 72
     1
 10
150.6527836739091
 20
-35.7633927575749
 11
151.2287836739091
 21
-35.7633927575749
 72
     1
 10
151.2287836739091
 20
-35.7633927575749
 11
151.2287836739091
 21
-36.48339275757493
 97
        0
 92
       16
 93
        4
 72
     1
 10
152.2367836739091
 20
-36.48339275757482
 11
151.6247836739091
 21
-36.48339275757482
 72
     1
 10
151.6247836739091
 20
-36.48339275757482
 11
151.6247836739091
 21
-35.76339275757479
 72
     1
 10
151.6247836739091
 20
-35.7633927575749
 11
152.2367836739091
 21
-35.7633927575749
 72
     1
 10
152.2367836739091
 20
-35.7633927575749
 11
152.2367836739091
 21
-36.48339275757493
 97
        0
 92
       16
 93
        8
 72
     2
 10
152.4167836739091
 20
-36.80739275757478
 40
0.9
 50
360.0
 51
450.0
 73
     0
 72
     1
 10
152.4167836739091
 20
-37.70739275757487
 11
150.6527836739091
 21
-37.70739275757487
 72
     1
 10
150.6527836739091
 20
-37.70739275757487
 11
150.6527836739091
 21
-37.0233927575749
 72
     1
 10
150.6527836739091
 20
-37.0233927575749
 11
152.200783673909
 21
-37.0233927575749
 72
     2
 10
152.200783673909
 20
-36.59139275757488
 40
0.4320000000000002
 50
270.0
 51
360.0
 73
     1
 72
     1
 10
152.6327836739091
 20
-36.59139275757488
 11
152.6327836739091
 21
-35.7633927575749
 72
     1
 10
152.6327836739091
 20
-35.7633927575749
 11
153.3167836739091
 21
-35.7633927575749
 72
     1
 10
153.3167836739091
 20
-35.7633927575749
 11
153.3167836739091
 21
-36.807392757575
 97
        0
 75
     0
 76
     1
 98
        1
 10
117.8200427848762
 20
-47.56088433912371
1001
ACAD
1010
0.0
1020
0.0
1030
0.0
1001
GENIUS_GENOBJ-N-HTC_13
1002
{
1000
OWNER
1000
GEN
1002
}
1001
GENIUS_GENODEF_13
1002
{
1000
HIER
1070
     0
1002
}
1002
{
1000
MANEDIT
1070
     0
1002
}
1002
{
1000
NOSEL
1070
     0
1002
}
1002
{
1000
BEHIND
1070
     0
1002
}
1002
{
1000
OTHER
1070
     0
1002
}
1002
{
1000
REACTOR
1002
}
1001
GENIUS_GENHATCH_13
1002
{
1000
DATA
1040
45.0
1042
1.900000000000004
1000
_U
1070
     0
1011
152.6967211842636
1021
-35.62561410641669
1031
0.0
1002
}
1002
{
1000
UCS
1010
0.0
1020
0.0
1030
0.0
1010
1.0
1020
0.0
1030
0.0
1010
0.0
1020
1.0
1030
0.0
1002
}
  0
HATCH
  5
8FFC
330
8F68
100
AcDbEntity
  8
0
 62
   172
100
AcDbHatch
 10
0.0
 20
0.0
 30
0.0
210
0.0
220
0.0
230
1.0
  2
SOLID
 70
     1
 71
     0
 91
        2
 92
        1
 93
        4
 72
     1
 10
145.8287836739091
 20
-35.87139275757485
 11
149.4287836739091
 21
-35.87139275757485
 72
     1
 10
149.4287836739091
 20
-35.87139275757485
 11
149.4287836739091
 21
-34.28739275757479
 72
     1
 10
149.4287836739091
 20
-34.28739275757479
 11
145.8287836739091
 21
-34.28739275757479
 72
     1
 10
145.8287836739091
 20
-34.28739275757479
 11
145.8287836739091
 21
-35.87139275757485
 97
        0
 92
       16
 93
        4
 72
     1
 10
148.996783673909
 20
-35.43939275757496
 11
146.2607836739091
 21
-35.43939275757496
 72
     1
 10
146.2607836739091
 20
-35.43939275757496
 11
146.2607836739091
 21
-34.71939275757492
 72
     1
 10
146.2607836739091
 20
-34.71939275757492
 11
148.996783673909
 21
-34.71939275757492
 72
     1
 10
148.996783673909
 20
-34.71939275757492
 11
148.996783673909
 21
-35.43939275757496
 97
        0
 75
     0
 76
     1
 98
        1
 10
117.8200427848762
 20
-47.56088433912371
1001
ACAD
1010
0.0
1020
0.0
1030
0.0
1001
GENIUS_GENOBJ-N-HTC_13
1002
{
1000
OWNER
1000
GEN
1002
}
1001
GENIUS_GENODEF_13
1002
{
1000
HIER
1070
     0
1002
}
1002
{
1000
MANEDIT
1070
     0
1002
}
1002
{
1000
NOSEL
1070
     0
1002
}
1002
{
1000
BEHIND
1070
     0
1002
}
1002
{
1000
OTHER
1070
     0
1002
}
1002
{
1000
REACTOR
1002
}
1001
GENIUS_GENHATCH_13
1002
{
1000
DATA
1040
45.0
1042
1.900000000000004
1000
_U
1070
     0
1011
149.1335681147834
1021
-34.54128534356242
1031
0.0
1002
}
1002
{
1000
UCS
1010
0.0
1020
0.0
1030
0.0
1010
1.0
1020
0.0
1030
0.0
1010
0.0
1020
1.0
1030
0.0
1002
}
  0
HATCH
  5
8FFD
330
8F68
100
AcDbEntity
  8
0
 62
   172
100
AcDbHatch
 10
0.0
 20
0.0
 30
0.0
210
0.0
220
0.0
230
1.0
  2
SOLID
 70
     1
 71
     0
 91
        2
 92
        1
 93
        4
 72
     1
 10
145.3967836739091
 20
-38.139392757575
 11
149.8607836739091
 21
-38.139392757575
 72
     1
 10
149.8607836739091
 20
-38.139392757575
 11
149.8607836739091
 21
-36.447392757575
 72
     1
 10
149.8607836739091
 20
-36.44739275757487
 11
145.3967836739091
 21
-36.44739275757487
 72
     1
 10
145.3967836739091
 20
-36.44739275757487
 11
145.3967836739091
 21
-38.13939275757488
 97
        0
 92
       16
 93
        4
 72
     1
 10
149.4287836739091
 20
-37.70739275757487
 11
145.8287836739091
 21
-37.70739275757487
 72
     1
 10
145.8287836739091
 20
-37.70739275757487
 11
145.8287836739091
 21
-36.87939275757489
 72
     1
 10
145.8287836739091
 20
-36.87939275757489
 11
149.4287836739091
 21
-36.87939275757489
 72
     1
 10
149.4287836739091
 20
-36.87939275757489
 11
149.4287836739091
 21
-37.70739275757487
 97
        0
 75
     0
 76
     1
 98
        1
 10
117.8200427848762
 20
-47.56088433912371
1001
ACAD
1010
0.0
1020
0.0
1030
0.0
1001
GENIUS_GENOBJ-N-HTC_13
1002
{
1000
OWNER
1000
GEN
1002
}
1001
GENIUS_GENODEF_13
1002
{
1000
HIER
1070
     0
1002
}
1002
{
1000
MANEDIT
1070
     0
1002
}
1002
{
1000
NOSEL
1070
     0
1002
}
1002
{
1000
BEHIND
1070
     0
1002
}
1002
{
1000
OTHER
1070
     0
1002
}
1002
{
1000
REACTOR
1002
}
1001
GENIUS_GENHATCH_13
1002
{
1000
DATA
1040
45.0
1042
1.900000000000004
1000
_U
1070
     0
1011
149.5157747655192
1021
-36.53743606954137
1031
0.0
1002
}
1002
{
1000
UCS
1010
0.0
1020
0.0
1030
0.0
1010
1.0
1020
0.0
1030
0.0
1010
0.0
1020
1.0
1030
0.0
1002
}
  0
HATCH
  5
8FFE
330
8F68
100
AcDbEntity
  8
0
 62
   172
100
AcDbHatch
 10
0.0
 20
0.0
 30
0.0
210
0.0
220
0.0
230
1.0
  2
SOLID
 70
     1
 71
     0
 91
        1
 92
        1
 93
        3
 72
     1
 10
132.0167836739091
 20
-38.42739275757478
 11
137.9567836739091
 21
-38.42739275757478
 72
     1
 10
137.9567836739092
 20
-38.42739275757478
 11
134.9687836739091
 21
-33.64559318480006
 72
     1
 10
134.9687836739091
 20
-33.64559318480016
 11
132.0167836739091
 21
-38.42739275757489
 97
        0
 75
     0
 76
     1
 98
        1
 10
117.5440427848764
 20
-47.56088433912371
1001
ACAD
1010
0.0
1020
0.0
1030
0.0
1001
GENIUS_GENOBJ-N-HTC_13
1002
{
1000
OWNER
1000
GEN
1002
}
1001
GENIUS_GENODEF_13
1002
{
1000
HIER
1070
     0
1002
}
1002
{
1000
MANEDIT
1070
     0
1002
}
1002
{
1000
NOSEL
1070
     0
1002
}
1002
{
1000
BEHIND
1070
     0
1002
}
1002
{
1000
OTHER
1070
     0
1002
}
1002
{
1000
REACTOR
1002
}
1001
GENIUS_GENHATCH_13
1002
{
1000
DATA
1040
45.0
1042
1.900000000000004
1000
_U
1070
     0
1011
136.0417801283172
1021
-36.37716644121711
1031
0.0
1002
}
1002
{
1000
UCS
1010
0.0
1020
0.0
1030
0.0
1010
1.0
1020
0.0
1030
0.0
1010
0.0
1020
1.0
1030
0.0
1002
}
  0
ENDBLK
  5
9002
330
8F68
100
AcDbEntity
  8
0
100
AcDbBlockEnd
  0
ENDSEC
  0
SECTION
  2
ENTITIES
  0
LINE
  5
7C1A
330
37
100
AcDbEntity
  8
0
100
AcDbLine
 10
220.1418545329499
 20
424.2391236564061
 30
0.0
 11
228.6418545329353
 21
424.2391236564061
 31
0.0
1001
GENIUS_GENOREF_13
1005
87BF
  0
ARC
  5
7C1B
330
37
100
AcDbEntity
  8
0
100
AcDbCircle
 10
208.6418545329353
 20
240.2391236564061
 30
0.0
 40
165.0
100
AcDbArc
 50
93.99658235112102
 51
232.6529426180113
1001
GENIUS_GENOREF_13
1005
87BF
  0
ARC
  5
7C1C
330
37
100
AcDbEntity
  8
0
100
AcDbCircle
 10
208.6418545329353
 20
240.2391236564061
 30
0.0
 40
130.0
100
AcDbArc
 50
95.07510669883371
 51
84.92489330116628
1001
GENIUS_GENOREF_13
1005
87BF
  0
ARC
  5
7C1D
330
37
100
AcDbEntity
  8
0
100
AcDbCircle
 10
208.6418545329353
 20
240.2391236564061
 30
0.0
 40
110.0
100
AcDbArc
 50
93.6539934195042
 51
86.34600658049395
1001
GENIUS_GENOREF_13
1005
87BF
  0
LINE
  5
7C1E
330
37
100
AcDbEntity
  8
0
100
AcDbLine
 10
282.5996127466634
 20
109.7391236564061
 30
0.0
 11
308.6418545329353
 21
109.7391236564061
 31
0.0
  0
LINE
  5
7C1F
330
37
100
AcDbEntity
  8
0
100
AcDbLine
 10
228.6418545329353
 20
424.2391236564061
 30
0.0
 11
226.0210889114088
 21
404.3213049328103
 31
0.0
1001
GENIUS_GENOREF_13
1005
87BF
  0
LINE
  5
7C20
330
37
100
AcDbEntity
  8
0
100
AcDbLine
 10
188.6418545329353
 20
424.2391236564061
 30
0.0
 11
197.1418545329498
 21
424.2391236564061
 31
0.0
1001
GENIUS_GENOREF_13
1005
87BF
  0
LINE
  5
7C21
330
37
100
AcDbEntity
  8
0
100
AcDbLine
 10
191.2626201544618
 20
404.3213049328103
 30
0.0
 11
188.6418545329353
 21
424.2391236564061
 31
0.0
1001
GENIUS_GENOREF_13
1005
87BF
  0
ARC
  5
7C22
330
37
100
AcDbEntity
  8
0
100
AcDbCircle
 10
208.6418545329353
 20
240.2391236564061
 30
0.0
 40
165.0
100
AcDbArc
 50
307.3470573819887
 51
86.00341764887899
1001
GENIUS_GENOREF_13
1005
87BF
  0
ARC
  5
7C23
330
37
100
AcDbEntity
  8
0
100
AcDbCircle
 10
208.6418545329353
 20
240.2391236564061
 30
0.0
 40
150.0
100
AcDbArc
 50
94.39699104725589
 51
85.60300895274409
1001
GENIUS_GENOREF_13
1005
87BF
  0
ARC
  5
7C24
330
37
100
AcDbEntity
  8
0
100
AcDbCircle
 10
208.6418545329353
 20
240.2391236564061
 30
0.0
 40
118.0
100
AcDbArc
 50
94.06532040248873
 51
85.93467959750951
1001
GENIUS_GENOREF_13
1005
87BF
  0
LINE
  5
7C25
330
37
100
AcDbEntity
  8
0
100
AcDbLine
 10
308.6418545329353
 20
109.7391236564061
 30
0.0
 11
318.6418545329353
 21
39.73912365640617
 31
0.0
  0
LINE
  5
7C26
330
37
100
AcDbEntity
  8
0
100
AcDbLine
 10
108.6418545329353
 20
109.7391236564061
 30
0.0
 11
134.6840963192072
 21
109.7391236564061
 31
0.0
  0
LINE
  5
7C27
330
37
100
AcDbEntity
  8
0
100
AcDbLine
 10
98.64185453293536
 20
39.73912365640617
 30
0.0
 11
108.6418545329353
 21
109.7391236564061
 31
0.0
  0
ARC
  5
7C28
330
37
100
AcDbEntity
  8
0
100
AcDbCircle
 10
948.7572802964706
 20
727.8991932685519
 30
0.0
 40
651.7422508885601
100
AcDbArc
 50
281.1470642137565
 51
281.685182847955
  0
ARC
  5
7C29
330
37
100
AcDbEntity
  8
0
100
AcDbCircle
 10
948.7572802964706
 20
727.8991932685519
 30
0.0
 40
651.7422508885601
100
AcDbArc
 50
278.8705214995568
 51
279.1820709754146
  0
ARC
  5
7C2A
330
37
100
AcDbEntity
  8
0
100
AcDbCircle
 10
948.7572802964706
 20
727.8991932685519
 30
0.0
 40
651.7422508885601
100
AcDbArc
 50
260.6397783350701
 51
261.1294785004465
  0
ARC
  5
7C2B
330
37
100
AcDbEntity
  8
0
100
AcDbCircle
 10
948.7572802964706
 20
727.8991932685519
 30
0.0
 40
651.7422508885601
100
AcDbArc
 50
258.3148171520467
 51
258.6736759727727
  0
LINE
  5
7C2C
330
37
100
AcDbEntity
  8
0
100
AcDbLine
 10
1019.257280296471
 20
401.5029294680487
 30
0.0
 11
1019.2572802965
 21
78.97531784476349
 31
0.0
  0
LINE
  5
7C2D
330
37
100
AcDbEntity
  8
0
100
AcDbLine
 10
1049.257280296485
 20
397.5381194856517
 30
0.0
 11
1049.257280296485
 21
82.94012782716063
 31
0.0
  0
LINE
  5
7C2E
330
37
100
AcDbEntity
  8
0
100
AcDbLine
 10
1080.757280296485
 20
391.8352202993036
 30
0.0
 11
1080.757280296485
 21
88.64302701350871
 31
0.0
  0
LINE
  5
7C2F
330
37
100
AcDbEntity
  8
0
100
AcDbLine
 10
1108.757280296485
 20
385.407977288988
 30
0.0
 11
1108.757280296471
 21
95.07027002382427
 31
0.0
  0
LINE
  5
7C30
330
37
100
AcDbEntity
  8
0
100
AcDbLine
 10
1126.7572802965
 20
380.5825939188861
 30
0.0
 11
1126.757280296456
 21
99.89565339392619
 31
0.0
  0
LINE
  5
7C31
330
37
100
AcDbEntity
  8
0
100
AcDbLine
 10
1156.757280296485
 20
109.1840357889222
 30
0.0
 11
1156.757280296485
 21
371.2942115238902
 31
0.0
  0
LINE
  5
7C32
330
37
100
AcDbEntity
  8
0
100
AcDbLine
 10
788.7572802964853
 20
385.407977288988
 30
0.0
 11
788.7572802964706
 21
95.07027002382427
 31
0.0
  0
LINE
  5
7C33
330
37
100
AcDbEntity
  8
0
100
AcDbLine
 10
816.7572802964851
 20
391.8352202993036
 30
0.0
 11
816.7572802964851
 21
88.64302701350871
 31
0.0
  0
LINE
  5
7C34
330
37
100
AcDbEntity
  8
0
100
AcDbLine
 10
848.2572802964851
 20
397.5381194856517
 30
0.0
 11
848.2572802964996
 21
82.94012782716063
 31
0.0
  0
LINE
  5
7C35
330
37
100
AcDbEntity
  8
0
100
AcDbLine
 10
878.2572802964997
 20
401.5029294681069
 30
0.0
 11
878.257280296456
 21
78.97531784476349
 31
0.0
  0
LINE
  5
7C36
330
37
100
AcDbEntity
  8
0
100
AcDbLine
 10
770.7572802964851
 20
380.5825939188861
 30
0.0
 11
770.7572802964706
 21
99.89565339392619
 31
0.0
  0
LINE
  5
7C37
330
37
100
AcDbEntity
  8
0
100
AcDbLine
 10
740.7572802964997
 20
109.1840357889222
 30
0.0
 11
740.7572802964997
 21
371.2942115238902
 31
0.0
  0
ARC
  5
7C39
330
37
100
AcDbEntity
  8
0
100
AcDbCircle
 10
948.7572802839252
 20
727.8991932262538
 30
0.0
 40
652.7422508444442
100
AcDbArc
 50
251.4183568115383
 51
254.1752605800959
  0
ARC
  5
7C3A
330
37
100
AcDbEntity
  8
0
100
AcDbCircle
 10
948.7572802964706
 20
727.8991932685519
 30
0.0
 40
651.7422508885601
100
AcDbArc
 50
254.1503415318781
 51
255.7888628131746
  0
ARC
  5
7C3B
330
37
100
AcDbEntity
  8
0
100
AcDbCircle
 10
948.7572802964706
 20
727.8991932685519
 30
0.0
 40
652.7422508885599
100
AcDbArc
 50
255.8110908818276
 51
258.332970635582
  0
ARC
  5
7C3C
330
37
100
AcDbEntity
  8
0
100
AcDbCircle
 10
948.7572802964706
 20
727.8991932685519
 30
0.0
 40
652.7422508885599
100
AcDbArc
 50
261.1431774971381
 51
263.7996240937939
  0
ARC
  5
7C3D
330
37
100
AcDbEntity
  8
0
100
AcDbCircle
 10
948.7572803020883
 20
727.8991932496032
 30
0.0
 40
652.7422508687977
100
AcDbArc
 50
285.8247394199332
 51
288.5816431883886
  0
ARC
  5
7C3E
330
37
100
AcDbEntity
  8
0
100
AcDbCircle
 10
948.7572802964706
 20
727.8991932685519
 30
0.0
 40
652.7422508885599
100
AcDbArc
 50
281.6670293644209
 51
284.1889091181758
  0
ARC
  5
7C3F
330
37
100
AcDbEntity
  8
0
100
AcDbCircle
 10
948.7572802964706
 20
727.8991932685519
 30
0.0
 40
652.7422508885599
100
AcDbArc
 50
276.2003759062078
 51
278.8568225028651
  0
ARC
  5
7C40
330
37
100
AcDbEntity
  8
0
100
AcDbCircle
 10
948.7572802964706
 20
727.8991932685519
 30
0.0
 40
651.7422508885601
100
AcDbArc
 50
284.2111371868266
 51
285.8496584681253
  0
ARC
  5
7C41
330
37
100
AcDbEntity
  8
0
100
AcDbCircle
 10
948.7572802964706
 20
-247.4209459557398
 30
0.0
 40
651.7422508885601
100
AcDbArc
 50
98.87052149955351
 51
101.6851828479533
  0
ARC
  5
7C42
330
37
100
AcDbEntity
  8
0
100
AcDbCircle
 10
948.7572802964706
 20
-247.4209459557398
 30
0.0
 40
651.7422508885601
100
AcDbArc
 50
88.47465295248468
 51
91.52534704751531
  0
ARC
  5
7C43
330
37
100
AcDbEntity
  8
0
100
AcDbCircle
 10
948.7572802964706
 20
-247.4209459557398
 30
0.0
 40
651.7422508885601
100
AcDbArc
 50
104.2111371868254
 51
105.8496584681219
  0
ARC
  5
7C44
330
37
100
AcDbEntity
  8
0
100
AcDbCircle
 10
948.7572802964706
 20
-247.4209459557398
 30
0.0
 40
651.7422508885601
100
AcDbArc
 50
74.15034153187469
 51
75.7888628131733
  0
ARC
  5
7C45
330
37
100
AcDbEntity
  8
0
100
AcDbCircle
 10
948.7572802964706
 20
-247.4209459557398
 30
0.0
 40
651.7422508885601
100
AcDbArc
 50
78.31481715204501
 51
81.12947850044319
  0
ARC
  5
7C46
330
37
100
AcDbEntity
  8
0
100
AcDbCircle
 10
948.7572802964706
 20
-247.4209459557398
 30
0.0
 40
652.7422508885599
100
AcDbArc
 50
81.14317749713478
 51
83.79962409379219
  0
ARC
  5
7C47
330
37
100
AcDbEntity
  8
0
100
AcDbCircle
 10
948.7572802964706
 20
-247.4209459557398
 30
0.0
 40
652.7422508885599
100
AcDbArc
 50
75.81109088182421
 51
78.33297063557869
  0
ARC
  5
7C48
330
37
100
AcDbEntity
  8
0
100
AcDbCircle
 10
948.7572803021722
 20
-247.4209459365297
 30
0.0
 40
652.7422508685234
100
AcDbArc
 50
71.41835681161104
 51
74.1752605800676
  0
ARC
  5
7C49
330
37
100
AcDbEntity
  8
0
100
AcDbCircle
 10
948.7572802964706
 20
-247.4209459557398
 30
0.0
 40
652.7422508885599
100
AcDbArc
 50
96.2003759062062
 51
98.8568225028619
  0
ARC
  5
7C4A
330
37
100
AcDbEntity
  8
0
100
AcDbCircle
 10
948.7572802964706
 20
-247.4209459557398
 30
0.0
 40
652.7422508885599
100
AcDbArc
 50
101.667029364418
 51
104.1889091181724
  0
ARC
  5
7C4B
330
37
100
AcDbEntity
  8
0
100
AcDbCircle
 10
948.7572802839498
 20
-247.4209459135228
 30
0.0
 40
652.7422508445289
100
AcDbArc
 50
105.8247394199038
 51
108.5816431884614
  0
ARC
  5
7C4C
330
37
100
AcDbEntity
  8
0
100
AcDbCircle
 10
948.7572802964706
 20
-997.539975231929
 30
0.0
 40
1360.959145069937
100
AcDbArc
 50
87.03065209611429
 51
92.96934790388403
  0
LINE
  5
7C4D
330
37
100
AcDbEntity
  8
0
100
AcDbLine
 10
801.7572802964851
 20
39.73912365640617
 30
0.0
 11
861.7572802964852
 21
39.73912365640617
 31
0.0
1001
GENIUS_GENREC_14
1002
{
1000
PYDIR
1011
1329.757280296485
1021
17.73912365640616
1031
0.0
1002
}
1002
{
1000
PXDIR
1011
559.7572802964852
1021
-10.26087634359383
1031
0.0
1002
}
1002
{
1000
PORI
1011
1329.757280296485
1021
-10.26087634359383
1031
0.0
1002
}
1002
{
1000
PINS
1011
1329.757280296485
1021
-10.26087634359383
1031
0.0
1002
}
1002
{
1000
PINS2
1011
559.7572802964852
1021
17.73912365640616
1031
0.0
1002
}
1002
{
1000
C
1070
     1
1002
}
1001
GENIUS_GENODEF_13
1002
{
1000
HIER
1070
     0
1002
}
1002
{
1000
MANEDIT
1070
     0
1002
}
1002
{
1000
NOSEL
1070
     0
1002
}
1002
{
1000
BEHIND
1070
     0
1002
}
1002
{
1000
REACTOR
1002
}
1001
GENIUS_GENOBJ-N-REC_13
1002
{
1000
OWNER
1000
GEN
1002
}
  0
LINE
  5
7C4E
330
37
100
AcDbEntity
  8
0
100
AcDbLine
 10
1033.757280296485
 20
39.73912365640617
 30
0.0
 11
1093.757280296485
 21
39.73912365640617
 31
0.0
1001
GENIUS_GENREC_14
1002
{
1000
PYDIR
1011
1329.757280296485
1021
17.73912365640616
1031
0.0
1002
}
1002
{
1000
PXDIR
1011
559.7572802964852
1021
-10.26087634359383
1031
0.0
1002
}
1002
{
1000
PORI
1011
1329.757280296485
1021
-10.26087634359383
1031
0.0
1002
}
1002
{
1000
PINS
1011
1329.757280296485
1021
-10.26087634359383
1031
0.0
1002
}
1002
{
1000
PINS2
1011
559.7572802964852
1021
17.73912365640616
1031
0.0
1002
}
1002
{
1000
C
1070
     1
1002
}
1001
GENIUS_GENODEF_13
1002
{
1000
HIER
1070
     0
1002
}
1002
{
1000
MANEDIT
1070
     0
1002
}
1002
{
1000
NOSEL
1070
     0
1002
}
1002
{
1000
BEHIND
1070
     0
1002
}
1002
{
1000
REACTOR
1002
}
1001
GENIUS_GENOBJ-N-REC_13
1002
{
1000
OWNER
1000
GEN
1002
}
  0
LINE
  5
7C4F
330
37
100
AcDbEntity
  8
0
100
AcDbLine
 10
1093.757280296485
 20
17.73912365640616
 30
0.0
 11
1093.757280296485
 21
39.73912365640617
 31
0.0
  0
LINE
  5
7C50
330
37
100
AcDbEntity
  8
0
100
AcDbLine
 10
1033.757280296485
 20
17.73912365640616
 30
0.0
 11
1033.757280296485
 21
39.73912365640617
 31
0.0
  0
LINE
  5
7C51
330
37
100
AcDbEntity
  8
0
100
AcDbLine
 10
861.7572802964852
 20
17.73912365640616
 30
0.0
 11
861.7572802964852
 21
39.73912365640617
 31
0.0
  0
LINE
  5
7C52
330
37
100
AcDbEntity
  8
0
100
AcDbLine
 10
801.7572802964851
 20
17.73912365640616
 30
0.0
 11
801.7572802964851
 21
39.73912365640617
 31
0.0
  0
LINE
  5
7C53
330
37
100
AcDbEntity
  8
0
100
AcDbLine
 10
928.7572802964852
 20
424.2391236564061
 30
0.0
 11
931.4084336791555
 21
404.0903579479699
 31
0.0
  0
LINE
  5
7C54
330
37
100
AcDbEntity
  8
0
100
AcDbLine
 10
966.1061269138
 20
404.0903579479699
 30
0.0
 11
968.7572802964853
 21
424.2391236564061
 31
0.0
  0
LINE
  5
7C55
330
37
100
AcDbEntity
  8
0
100
AcDbLine
 10
968.7572802964853
 20
424.2391236564061
 30
0.0
 11
928.7572802964852
 21
424.2391236564061
 31
0.0
  0
LINE
  5
7C57
330
37
100
AcDbEntity
  8
0
100
AcDbLine
 10
1052.757280296485
 20
39.73912365640617
 30
0.0
 11
842.7572802964851
 21
39.73912365640617
 31
0.0
  0
LINE
  5
7C58
330
37
100
AcDbEntity
  8
0
100
AcDbLine
 10
842.7572802964851
 20
61.73912365640616
 30
0.0
 11
1052.757280296485
 21
61.73912365640616
 31
0.0
  0
LINE
  5
7C84
330
37
100
AcDbEntity
  8
0
100
AcDbLine
 10
1093.757280296485
 20
17.73912365640616
 30
0.0
 11
1033.757280296485
 21
17.73912365640616
 31
0.0
  0
LINE
  5
7C85
330
37
100
AcDbEntity
  8
0
100
AcDbLine
 10
861.7572802964852
 20
17.73912365640616
 30
0.0
 11
801.7572802964851
 21
17.73912365640616
 31
0.0
  0
CIRCLE
  5
7C86
330
37
100
AcDbEntity
  8
0
100
AcDbCircle
 10
1034.257280296485
 20
240.2391236564061
 30
0.0
 40
6.5
  0
CIRCLE
  5
7C87
330
37
100
AcDbEntity
  8
0
100
AcDbCircle
 10
1094.757280296485
 20
240.2391236564061
 30
0.0
 40
6.5
  0
CIRCLE
  5
7C88
330
37
100
AcDbEntity
  8
0
100
AcDbCircle
 10
1141.757280296485
 20
240.2391236564061
 30
0.0
 40
6.5
  0
CIRCLE
  5
7C89
330
37
100
AcDbEntity
  8
0
100
AcDbCircle
 10
863.2572802964851
 20
240.2391236564061
 30
0.0
 40
6.5
  0
CIRCLE
  5
7C8A
330
37
100
AcDbEntity
  8
0
100
AcDbCircle
 10
802.7572802964851
 20
240.2391236564061
 30
0.0
 40
6.5
  0
CIRCLE
  5
7C8B
330
37
100
AcDbEntity
  8
0
100
AcDbCircle
 10
755.7572802964853
 20
240.2391236564061
 30
0.0
 40
6.5
  0
ARC
  5
7C8C
330
37
100
AcDbEntity
  8
0
100
AcDbCircle
 10
948.757280296456
 20
-35.74830956717152
 30
0.0
 40
441.9052519471797
100
AcDbArc
 50
92.27927911521504
 51
99.17999179427109
  0
ARC
  5
7C8D
330
37
100
AcDbEntity
  8
0
100
AcDbCircle
 10
948.757280296456
 20
-35.74830956717152
 30
0.0
 40
441.9052519471797
100
AcDbArc
 50
80.82000820572067
 51
87.7207208847752
  0
ARC
  5
7C8E
330
37
100
AcDbEntity
  8
0
100
AcDbCircle
 10
948.7572802964853
 20
601.6673510288735
 30
0.0
 40
526.4282273724639
100
AcDbArc
 50
262.3037462608857
 51
277.696253739111
  0
LINE
  5
7C8F
330
37
100
AcDbEntity
  8
0
100
AcDbLine
 10
842.7572802964851
 20
39.73912365640617
 30
0.0
 11
820.7572802964852
 21
39.73912365640617
 31
0.0
1001
GENIUS_GENREC_14
1002
{
1000
PYDIR
1011
2231.00795810607
1021
109.7391236564061
1031
0.0
1002
}
1002
{
1000
PXDIR
1011
2253.00795810607
1021
39.73912365640617
1031
0.0
1002
}
1002
{
1000
PORI
1011
2231.00795810607
1021
39.73912365640617
1031
0.0
1002
}
1002
{
1000
PINS
1011
2242.00795810607
1021
39.73912365640617
1031
0.0
1002
}
1002
{
1000
HVAL
1000
70
1002
}
1002
{
1000
H
1070
     2
1002
}
1002
{
1000
WVAL
1000
22
1002
}
1002
{
1000
W
1070
     2
1002
}
1002
{
1000
C
1070
     2
1002
}
1001
GENIUS_GENODEF_13
1002
{
1000
HIER
1070
     0
1002
}
1002
{
1000
MANEDIT
1070
     0
1002
}
1002
{
1000
NOSEL
1070
     0
1002
}
1002
{
1000
BEHIND
1070
     0
1002
}
1002
{
1000
REACTOR
1002
}
1001
GENIUS_GENOBJ-N-REC_13
1002
{
1000
OWNER
1000
GEN
1002
}
  0
LINE
  5
7C90
330
37
100
AcDbEntity
  8
0
100
AcDbLine
 10
820.7572802964852
 20
39.73912365640617
 30
0.0
 11
820.7572802964852
 21
109.7391236564061
 31
0.0
1001
GENIUS_GENREC_14
1002
{
1000
PYDIR
1011
2231.00795810607
1021
109.7391236564061
1031
0.0
1002
}
1002
{
1000
PXDIR
1011
2253.00795810607
1021
39.73912365640617
1031
0.0
1002
}
1002
{
1000
PORI
1011
2231.00795810607
1021
39.73912365640617
1031
0.0
1002
}
1002
{
1000
PINS
1011
2242.00795810607
1021
39.73912365640617
1031
0.0
1002
}
1002
{
1000
HVAL
1000
70
1002
}
1002
{
1000
H
1070
     2
1002
}
1002
{
1000
WVAL
1000
22
1002
}
1002
{
1000
W
1070
     2
1002
}
1002
{
1000
C
1070
     2
1002
}
1001
GENIUS_GENODEF_13
1002
{
1000
HIER
1070
     0
1002
}
1002
{
1000
MANEDIT
1070
     0
1002
}
1002
{
1000
NOSEL
1070
     0
1002
}
1002
{
1000
BEHIND
1070
     0
1002
}
1002
{
1000
REACTOR
1002
}
1001
GENIUS_GENOBJ-N-REC_13
1002
{
1000
OWNER
1000
GEN
1002
}
  0
LINE
  5
7C91
330
37
100
AcDbEntity
  8
0
100
AcDbLine
 10
820.7572802964852
 20
109.7391236564061
 30
0.0
 11
842.7572802964851
 21
109.7391236564061
 31
0.0
1001
GENIUS_GENREC_14
1002
{
1000
PYDIR
1011
2231.00795810607
1021
109.7391236564061
1031
0.0
1002
}
1002
{
1000
PXDIR
1011
2253.00795810607
1021
39.73912365640617
1031
0.0
1002
}
1002
{
1000
PORI
1011
2231.00795810607
1021
39.73912365640617
1031
0.0
1002
}
1002
{
1000
PINS
1011
2242.00795810607
1021
39.73912365640617
1031
0.0
1002
}
1002
{
1000
HVAL
1000
70
1002
}
1002
{
1000
H
1070
     2
1002
}
1002
{
1000
WVAL
1000
22
1002
}
1002
{
1000
W
1070
     2
1002
}
1002
{
1000
C
1070
     2
1002
}
1001
GENIUS_GENODEF_13
1002
{
1000
HIER
1070
     0
1002
}
1002
{
1000
MANEDIT
1070
     0
1002
}
1002
{
1000
NOSEL
1070
     0
1002
}
1002
{
1000
BEHIND
1070
     0
1002
}
1002
{
1000
REACTOR
1002
}
1001
GENIUS_GENOBJ-N-REC_13
1002
{
1000
OWNER
1000
GEN
1002
}
  0
LINE
  5
7C92
330
37
100
AcDbEntity
  8
0
100
AcDbLine
 10
842.7572802964851
 20
109.7391236564061
 30
0.0
 11
842.7572802964851
 21
39.73912365640617
 31
0.0
1001
GENIUS_GENREC_14
1002
{
1000
PYDIR
1011
2231.00795810607
1021
109.7391236564061
1031
0.0
1002
}
1002
{
1000
PXDIR
1011
2253.00795810607
1021
39.73912365640617
1031
0.0
1002
}
1002
{
1000
PORI
1011
2231.00795810607
1021
39.73912365640617
1031
0.0
1002
}
1002
{
1000
PINS
1011
2242.00795810607
1021
39.73912365640617
1031
0.0
1002
}
1002
{
1000
HVAL
1000
70
1002
}
1002
{
1000
H
1070
     2
1002
}
1002
{
1000
WVAL
1000
22
1002
}
1002
{
1000
W
1070
     2
1002
}
1002
{
1000
C
1070
     2
1002
}
1001
GENIUS_GENODEF_13
1002
{
1000
HIER
1070
     0
1002
}
1002
{
1000
MANEDIT
1070
     0
1002
}
1002
{
1000
NOSEL
1070
     0
1002
}
1002
{
1000
BEHIND
1070
     0
1002
}
1002
{
1000
REACTOR
1002
}
1001
GENIUS_GENOBJ-N-REC_13
1002
{
1000
OWNER
1000
GEN
1002
}
  0
LINE
  5
7C93
330
37
100
AcDbEntity
  8
0
100
AcDbLine
 10
1074.757280296485
 20
39.73912365640617
 30
0.0
 11
1052.757280296485
 21
39.73912365640617
 31
0.0
1001
GENIUS_GENREC_14
1002
{
1000
PYDIR
1011
1999.00795810607
1021
109.7391236564061
1031
0.0
1002
}
1002
{
1000
PXDIR
1011
2021.00795810607
1021
39.73912365640617
1031
0.0
1002
}
1002
{
1000
PORI
1011
1999.00795810607
1021
39.73912365640617
1031
0.0
1002
}
1002
{
1000
PINS
1011
2010.00795810607
1021
39.73912365640617
1031
0.0
1002
}
1002
{
1000
HVAL
1000
70
1002
}
1002
{
1000
H
1070
     2
1002
}
1002
{
1000
WVAL
1000
22
1002
}
1002
{
1000
W
1070
     2
1002
}
1002
{
1000
C
1070
     2
1002
}
1001
GENIUS_GENODEF_13
1002
{
1000
HIER
1070
     0
1002
}
1002
{
1000
MANEDIT
1070
     0
1002
}
1002
{
1000
NOSEL
1070
     0
1002
}
1002
{
1000
BEHIND
1070
     0
1002
}
1002
{
1000
REACTOR
1002
}
1001
GENIUS_GENOBJ-N-REC_13
1002
{
1000
OWNER
1000
GEN
1002
}
  0
LINE
  5
7C94
330
37
100
AcDbEntity
  8
0
100
AcDbLine
 10
1052.757280296485
 20
39.73912365640617
 30
0.0
 11
1052.757280296485
 21
109.7391236564061
 31
0.0
1001
GENIUS_GENREC_14
1002
{
1000
PYDIR
1011
1999.00795810607
1021
109.7391236564061
1031
0.0
1002
}
1002
{
1000
PXDIR
1011
2021.00795810607
1021
39.73912365640617
1031
0.0
1002
}
1002
{
1000
PORI
1011
1999.00795810607
1021
39.73912365640617
1031
0.0
1002
}
1002
{
1000
PINS
1011
2010.00795810607
1021
39.73912365640617
1031
0.0
1002
}
1002
{
1000
HVAL
1000
70
1002
}
1002
{
1000
H
1070
     2
1002
}
1002
{
1000
WVAL
1000
22
1002
}
1002
{
1000
W
1070
     2
1002
}
1002
{
1000
C
1070
     2
1002
}
1001
GENIUS_GENODEF_13
1002
{
1000
HIER
1070
     0
1002
}
1002
{
1000
MANEDIT
1070
     0
1002
}
1002
{
1000
NOSEL
1070
     0
1002
}
1002
{
1000
BEHIND
1070
     0
1002
}
1002
{
1000
REACTOR
1002
}
1001
GENIUS_GENOBJ-N-REC_13
1002
{
1000
OWNER
1000
GEN
1002
}
  0
LINE
  5
7C95
330
37
100
AcDbEntity
  8
0
100
AcDbLine
 10
1052.757280296485
 20
109.7391236564061
 30
0.0
 11
1074.757280296485
 21
109.7391236564061
 31
0.0
1001
GENIUS_GENREC_14
1002
{
1000
PYDIR
1011
1999.00795810607
1021
109.7391236564061
1031
0.0
1002
}
1002
{
1000
PXDIR
1011
2021.00795810607
1021
39.73912365640617
1031
0.0
1002
}
1002
{
1000
PORI
1011
1999.00795810607
1021
39.73912365640617
1031
0.0
1002
}
1002
{
1000
PINS
1011
2010.00795810607
1021
39.73912365640617
1031
0.0
1002
}
1002
{
1000
HVAL
1000
70
1002
}
1002
{
1000
H
1070
     2
1002
}
1002
{
1000
WVAL
1000
22
1002
}
1002
{
1000
W
1070
     2
1002
}
1002
{
1000
C
1070
     2
1002
}
1001
GENIUS_GENODEF_13
1002
{
1000
HIER
1070
     0
1002
}
1002
{
1000
MANEDIT
1070
     0
1002
}
1002
{
1000
NOSEL
1070
     0
1002
}
1002
{
1000
BEHIND
1070
     0
1002
}
1002
{
1000
REACTOR
1002
}
1001
GENIUS_GENOBJ-N-REC_13
1002
{
1000
OWNER
1000
GEN
1002
}
  0
LINE
  5
7C96
330
37
100
AcDbEntity
  8
0
100
AcDbLine
 10
1074.757280296485
 20
109.7391236564061
 30
0.0
 11
1074.757280296485
 21
39.73912365640617
 31
0.0
1001
GENIUS_GENREC_14
1002
{
1000
PYDIR
1011
1999.00795810607
1021
109.7391236564061
1031
0.0
1002
}
1002
{
1000
PXDIR
1011
2021.00795810607
1021
39.73912365640617
1031
0.0
1002
}
1002
{
1000
PORI
1011
1999.00795810607
1021
39.73912365640617
1031
0.0
1002
}
1002
{
1000
PINS
1011
2010.00795810607
1021
39.73912365640617
1031
0.0
1002
}
1002
{
1000
HVAL
1000
70
1002
}
1002
{
1000
H
1070
     2
1002
}
1002
{
1000
WVAL
1000
22
1002
}
1002
{
1000
W
1070
     2
1002
}
1002
{
1000
C
1070
     2
1002
}
1001
GENIUS_GENODEF_13
1002
{
1000
HIER
1070
     0
1002
}
1002
{
1000
MANEDIT
1070
     0
1002
}
1002
{
1000
NOSEL
1070
     0
1002
}
1002
{
1000
BEHIND
1070
     0
1002
}
1002
{
1000
REACTOR
1002
}
1001
GENIUS_GENOBJ-N-REC_13
1002
{
1000
OWNER
1000
GEN
1002
}
  0
LINE
  5
7C97
330
37
100
AcDbEntity
  8
0
100
AcDbLine
 10
83.64185453293535
 20
17.73912365640616
 30
0.0
 11
333.6418545329353
 21
17.73912365640616
 31
0.0
1001
GENIUS_GENREC_14
1002
{
1000
PYDIR
1011
83.64185453293535
1021
39.73912365640617
1031
0.0
1002
}
1002
{
1000
PXDIR
1011
333.6418545329353
1021
17.73912365640616
1031
0.0
1002
}
1002
{
1000
PORI
1011
83.64185453293535
1021
17.73912365640616
1031
0.0
1002
}
1002
{
1000
PINS
1011
208.6418545329353
1021
17.73912365640616
1031
0.0
1002
}
1002
{
1000
HVAL
1000
22
1002
}
1002
{
1000
H
1070
     2
1002
}
1002
{
1000
WVAL
1000
250
1002
}
1002
{
1000
W
1070
     2
1002
}
1002
{
1000
C
1070
     2
1002
}
1001
GENIUS_GENODEF_13
1002
{
1000
HIER
1070
     0
1002
}
1002
{
1000
MANEDIT
1070
     0
1002
}
1002
{
1000
NOSEL
1070
     0
1002
}
1002
{
1000
BEHIND
1070
     0
1002
}
1002
{
1000
REACTOR
1002
}
1001
GENIUS_GENOBJ-N-REC_13
1002
{
1000
OWNER
1000
GEN
1002
}
  0
LINE
  5
7C98
330
37
100
AcDbEntity
  8
0
100
AcDbLine
 10
333.6418545329353
 20
17.73912365640616
 30
0.0
 11
333.6418545329353
 21
39.73912365640617
 31
0.0
1001
GENIUS_GENREC_14
1002
{
1000
PYDIR
1011
83.64185453293535
1021
39.73912365640617
1031
0.0
1002
}
1002
{
1000
PXDIR
1011
333.6418545329353
1021
17.73912365640616
1031
0.0
1002
}
1002
{
1000
PORI
1011
83.64185453293535
1021
17.73912365640616
1031
0.0
1002
}
1002
{
1000
PINS
1011
208.6418545329353
1021
17.73912365640616
1031
0.0
1002
}
1002
{
1000
HVAL
1000
22
1002
}
1002
{
1000
H
1070
     2
1002
}
1002
{
1000
WVAL
1000
250
1002
}
1002
{
1000
W
1070
     2
1002
}
1002
{
1000
C
1070
     2
1002
}
1001
GENIUS_GENODEF_13
1002
{
1000
HIER
1070
     0
1002
}
1002
{
1000
MANEDIT
1070
     0
1002
}
1002
{
1000
NOSEL
1070
     0
1002
}
1002
{
1000
BEHIND
1070
     0
1002
}
1002
{
1000
REACTOR
1002
}
1001
GENIUS_GENOBJ-N-REC_13
1002
{
1000
OWNER
1000
GEN
1002
}
  0
LINE
  5
7C99
330
37
100
AcDbEntity
  8
0
100
AcDbLine
 10
333.6418545329353
 20
39.73912365640617
 30
0.0
 11
83.64185453293535
 21
39.73912365640617
 31
0.0
1001
GENIUS_GENREC_14
1002
{
1000
PYDIR
1011
83.64185453293535
1021
39.73912365640617
1031
0.0
1002
}
1002
{
1000
PXDIR
1011
333.6418545329353
1021
17.73912365640616
1031
0.0
1002
}
1002
{
1000
PORI
1011
83.64185453293535
1021
17.73912365640616
1031
0.0
1002
}
1002
{
1000
PINS
1011
208.6418545329353
1021
17.73912365640616
1031
0.0
1002
}
1002
{
1000
HVAL
1000
22
1002
}
1002
{
1000
H
1070
     2
1002
}
1002
{
1000
WVAL
1000
250
1002
}
1002
{
1000
W
1070
     2
1002
}
1002
{
1000
C
1070
     2
1002
}
1001
GENIUS_GENODEF_13
1002
{
1000
HIER
1070
     0
1002
}
1002
{
1000
MANEDIT
1070
     0
1002
}
1002
{
1000
NOSEL
1070
     0
1002
}
1002
{
1000
BEHIND
1070
     0
1002
}
1002
{
1000
REACTOR
1002
}
1001
GENIUS_GENOBJ-N-REC_13
1002
{
1000
OWNER
1000
GEN
1002
}
  0
LINE
  5
7C9A
330
37
100
AcDbEntity
  8
0
100
AcDbLine
 10
83.64185453293535
 20
39.73912365640617
 30
0.0
 11
83.64185453293535
 21
17.73912365640616
 31
0.0
1001
GENIUS_GENREC_14
1002
{
1000
PYDIR
1011
83.64185453293535
1021
39.73912365640617
1031
0.0
1002
}
1002
{
1000
PXDIR
1011
333.6418545329353
1021
17.73912365640616
1031
0.0
1002
}
1002
{
1000
PORI
1011
83.64185453293535
1021
17.73912365640616
1031
0.0
1002
}
1002
{
1000
PINS
1011
208.6418545329353
1021
17.73912365640616
1031
0.0
1002
}
1002
{
1000
HVAL
1000
22
1002
}
1002
{
1000
H
1070
     2
1002
}
1002
{
1000
WVAL
1000
250
1002
}
1002
{
1000
W
1070
     2
1002
}
1002
{
1000
C
1070
     2
1002
}
1001
GENIUS_GENODEF_13
1002
{
1000
HIER
1070
     0
1002
}
1002
{
1000
MANEDIT
1070
     0
1002
}
1002
{
1000
NOSEL
1070
     0
1002
}
1002
{
1000
BEHIND
1070
     0
1002
}
1002
{
1000
REACTOR
1002
}
1001
GENIUS_GENOBJ-N-REC_13
1002
{
1000
OWNER
1000
GEN
1002
}
  0
ARC
  5
7C9E
330
37
100
AcDbEntity
  8
0
100
AcDbCircle
 10
570.0700819054609
 20
1120.113632108064
 30
0.0
 40
526.4282273725235
100
AcDbArc
 50
172.3037462608889
 51
187.696253739111
  0
ARC
  5
7C9F
330
37
100
AcDbEntity
  8
0
100
AcDbCircle
 10
-152.786372839474
 20
1120.113632108078
 30
0.0
 40
526.4282273724063
100
AcDbArc
 50
352.3037462608856
 51
7.696253739111067
  0
CIRCLE
  5
7CA0
330
37
100
AcDbEntity
  8
0
100
AcDbCircle
 10
226.1418545329353
 20
927.1136321080783
 30
0.0
 40
6.5
  0
CIRCLE
  5
7CA1
330
37
100
AcDbEntity
  8
0
100
AcDbCircle
 10
191.1418545329352
 20
927.1136321080783
 30
0.0
 40
6.5
  0
CIRCLE
  5
7CA2
330
37
100
AcDbEntity
  8
0
100
AcDbCircle
 10
191.1418545329352
 20
974.1136321080782
 30
0.0
 40
6.5
  0
CIRCLE
  5
7CA3
330
37
100
AcDbEntity
  8
0
100
AcDbCircle
 10
226.1418545329353
 20
974.1136321080782
 30
0.0
 40
6.5
  0
CIRCLE
  5
7CA4
330
37
100
AcDbEntity
  8
0
100
AcDbCircle
 10
226.1418545329353
 20
1034.613632108078
 30
0.0
 40
6.5
  0
CIRCLE
  5
7CA5
330
37
100
AcDbEntity
  8
0
100
AcDbCircle
 10
191.1418545329353
 20
1034.613632108078
 30
0.0
 40
6.5
  0
CIRCLE
  5
7CA6
330
37
100
AcDbEntity
  8
0
100
AcDbCircle
 10
191.1418545329354
 20
1313.113632108078
 30
0.0
 40
6.5
  0
CIRCLE
  5
7CA7
330
37
100
AcDbEntity
  8
0
100
AcDbCircle
 10
226.1418545329354
 20
1313.113632108078
 30
0.0
 40
6.5
  0
CIRCLE
  5
7CA8
330
37
100
AcDbEntity
  8
0
100
AcDbCircle
 10
226.1418545329353
 20
1266.113632108078
 30
0.0
 40
6.5
  0
CIRCLE
  5
7CA9
330
37
100
AcDbEntity
  8
0
100
AcDbCircle
 10
191.1418545329353
 20
1266.113632108078
 30
0.0
 40
6.5
  0
CIRCLE
  5
7CAA
330
37
100
AcDbEntity
  8
0
100
AcDbCircle
 10
191.1418545329353
 20
1205.613632108078
 30
0.0
 40
6.5
  0
CIRCLE
  5
7CAB
330
37
100
AcDbEntity
  8
0
100
AcDbCircle
 10
226.1418545329353
 20
1205.613632108078
 30
0.0
 40
6.5
  0
ARC
  5
7CBC
330
37
100
AcDbEntity
  8
0
100
AcDbCircle
 10
-279.0182150792106
 20
1120.113632108064
 30
0.0
 40
652.7422508885599
100
AcDbArc
 50
345.8110908818276
 51
348.3329706355821
  0
ARC
  5
7CBD
330
37
100
AcDbEntity
  8
0
100
AcDbCircle
 10
-279.0182150792106
 20
1120.113632108064
 30
0.0
 40
651.7422508885601
100
AcDbArc
 50
344.1503415318782
 51
345.7888628131749
  0
ARC
  5
7CBE
330
37
100
AcDbEntity
  8
0
100
AcDbCircle
 10
696.3019241450812
 20
1120.113632108064
 30
0.0
 40
652.7422508885599
100
AcDbArc
 50
195.8247394199507
 51
198.5816431883238
  0
ARC
  5
7CBF
330
37
100
AcDbEntity
  8
0
100
AcDbCircle
 10
696.3019241450812
 20
1120.113632108064
 30
0.0
 40
651.7422508885601
100
AcDbArc
 50
194.211137186825
 51
195.8496584681219
  0
ARC
  5
7CC0
330
37
100
AcDbEntity
  8
0
100
AcDbCircle
 10
696.3019241450812
 20
1120.113632108064
 30
0.0
 40
652.7422508885599
100
AcDbArc
 50
191.6670293644179
 51
194.1889091181724
  0
LINE
  5
7CC1
330
37
100
AcDbEntity
  8
0
100
AcDbLine
 10
348.9853247954155
 20
942.1136321080782
 30
0.0
 11
68.29838427045554
 21
942.113632108064
 31
0.0
  0
LINE
  5
7CC2
330
37
100
AcDbEntity
  8
0
100
AcDbLine
 10
353.8107081655173
 20
960.1136321080783
 30
0.0
 11
63.47300090035361
 21
960.1136321080639
 31
0.0
  0
ARC
  5
7CC3
330
37
100
AcDbEntity
  8
0
100
AcDbCircle
 10
696.3019241450812
 20
1120.113632108064
 30
0.0
 40
651.7422508885601
100
AcDbArc
 50
195.8247394199507
 51
195.8496584681238
  0
CIRCLE
  5
7CC4
330
37
100
AcDbEntity
  8
0
100
AcDbCircle
 10
208.6418545329353
 20
1120.113632108078
 30
0.0
 40
20.0
  0
LINE
  5
7CC5
330
37
100
AcDbEntity
  8
0
100
AcDbLine
 10
98.64185453293552
 20
1049.613632108078
 30
0.0
 11
318.6418545329355
 21
1049.613632108078
 31
0.0
1001
GENIUS_GENREC_14
1002
{
1000
PYDIR
1011
318.6418545329355
1021
1190.613632108078
1031
0.0
1002
}
1002
{
1000
PXDIR
1011
98.64185453293552
1021
1049.613632108078
1031
0.0
1002
}
1002
{
1000
PORI
1011
98.64185453293552
1021
1190.613632108078
1031
0.0
1002
}
1002
{
1000
PINS
1011
98.64185453293552
1021
1190.613632108078
1031
0.0
1002
}
1002
{
1000
PINS2
1011
318.6418545329355
1021
1049.613632108078
1031
0.0
1002
}
1002
{
1000
C
1070
     1
1002
}
1001
GENIUS_GENODEF_13
1002
{
1000
HIER
1070
     0
1002
}
1002
{
1000
MANEDIT
1070
     0
1002
}
1002
{
1000
NOSEL
1070
     0
1002
}
1002
{
1000
BEHIND
1070
     0
1002
}
1002
{
1000
REACTOR
1002
}
1001
GENIUS_GENOBJ-N-REC_13
1002
{
1000
OWNER
1000
GEN
1002
}
  0
ARC
  5
7CC6
330
37
100
AcDbEntity
  8
0
100
AcDbCircle
 10
-590.1479167782244
 20
1120.130484503833
 30
0.0
 40
908.7897714674124
100
AcDbArc
 50
355.5497040710112
 51
4.450295928987105
  0
ARC
  5
7CC7
330
37
100
AcDbEntity
  8
0
100
AcDbCircle
 10
1007.431625844095
 20
1120.130484503833
 30
0.0
 40
908.7897714674124
100
AcDbArc
 50
175.5497040710129
 51
184.4502959289887
  0
ARC
  5
7CC8
330
37
100
AcDbEntity
  8
0
100
AcDbCircle
 10
-279.0182150792106
 20
1120.113632108064
 30
0.0
 40
651.7422508885601
100
AcDbArc
 50
348.3148171520467
 51
351.1294785004464
  0
ARC
  5
7CC9
330
37
100
AcDbEntity
  8
0
100
AcDbCircle
 10
-279.0182150792106
 20
1120.113632108064
 30
0.0
 40
652.7422508885599
100
AcDbArc
 50
351.1431774971381
 51
353.7996240937938
  0
ARC
  5
7CCA
330
37
100
AcDbEntity
  8
0
100
AcDbCircle
 10
696.3019241450812
 20
1120.113632108064
 30
0.0
 40
652.7422508885599
100
AcDbArc
 50
171.1401832758012
 51
173.7996240937921
  0
ARC
  5
7CCB
330
37
100
AcDbEntity
  8
0
100
AcDbCircle
 10
696.3019241450812
 20
1120.113632108064
 30
0.0
 40
652.7422508885599
100
AcDbArc
 50
165.8110908818242
 51
168.3329706355787
  0
ARC
  5
7CCC
330
37
100
AcDbEntity
  8
0
100
AcDbCircle
 10
696.3019241450812
 20
1120.113632108064
 30
0.0
 40
651.7422508885601
100
AcDbArc
 50
168.314817152045
 51
171.1294785004431
  0
ARC
  5
7CCD
330
37
100
AcDbEntity
  8
0
100
AcDbCircle
 10
696.3019241450812
 20
1120.113632108064
 30
0.0
 40
652.7422508885599
100
AcDbArc
 50
186.2003759062061
 51
188.8568225028619
  0
ARC
  5
7CCE
330
37
100
AcDbEntity
  8
0
100
AcDbCircle
 10
696.3019241450812
 20
1120.113632108064
 30
0.0
 40
651.7422508885601
100
AcDbArc
 50
188.8705214995535
 51
191.6851828479533
  0
LINE
  5
7CCF
330
37
100
AcDbEntity
  8
0
100
AcDbLine
 10
360.2379511758329
 20
988.1136321080782
 30
0.0
 11
57.04575789003804
 21
988.1136321080782
 31
0.0
  0
LINE
  5
7CD0
330
37
100
AcDbEntity
  8
0
100
AcDbLine
 10
365.940850362181
 20
1019.613632108064
 30
0.0
 11
51.34285870368995
 21
1019.613632108078
 31
0.0
  0
LINE
  5
7CD1
330
37
100
AcDbEntity
  8
0
100
AcDbLine
 10
369.9056603445782
 20
1049.613632108064
 30
0.0
 11
47.37804872129284
 21
1049.613632108064
 31
0.0
  0
LINE
  5
7CD2
330
37
100
AcDbEntity
  8
0
100
AcDbLine
 10
369.9019977231504
 20
1190.647336899544
 30
0.0
 11
47.38171134272064
 21
1190.647336899544
 31
0.0
  0
LINE
  5
7CD3
330
37
100
AcDbEntity
  8
0
100
AcDbLine
 10
365.9355974500061
 20
1220.647336899544
 30
0.0
 11
51.34811161586489
 21
1220.647336899544
 31
0.0
  0
LINE
  5
7CD4
330
37
100
AcDbEntity
  8
0
100
AcDbLine
 10
360.2379511758329
 20
1252.113632108078
 30
0.0
 11
57.04575789003804
 21
1252.113632108078
 31
0.0
  0
LINE
  5
7CD5
330
37
100
AcDbEntity
  8
0
100
AcDbLine
 10
318.6418545329355
 20
1190.613632108078
 30
0.0
 11
98.64185453293552
 21
1190.613632108078
 31
0.0
1001
GENIUS_GENREC_14
1002
{
1000
PYDIR
1011
318.6418545329355
1021
1190.613632108078
1031
0.0
1002
}
1002
{
1000
PXDIR
1011
98.64185453293552
1021
1049.613632108078
1031
0.0
1002
}
1002
{
1000
PORI
1011
98.64185453293552
1021
1190.613632108078
1031
0.0
1002
}
1002
{
1000
PINS
1011
98.64185453293552
1021
1190.613632108078
1031
0.0
1002
}
1002
{
1000
PINS2
1011
318.6418545329355
1021
1049.613632108078
1031
0.0
1002
}
1002
{
1000
C
1070
     1
1002
}
1001
GENIUS_GENODEF_13
1002
{
1000
HIER
1070
     0
1002
}
1002
{
1000
MANEDIT
1070
     0
1002
}
1002
{
1000
NOSEL
1070
     0
1002
}
1002
{
1000
BEHIND
1070
     0
1002
}
1002
{
1000
REACTOR
1002
}
1001
GENIUS_GENOBJ-N-REC_13
1002
{
1000
OWNER
1000
GEN
1002
}
  0
ARC
  5
7CD6
330
37
100
AcDbEntity
  8
0
100
AcDbCircle
 10
-279.0182150792106
 20
1120.113632108064
 30
0.0
 40
651.7422508885601
100
AcDbArc
 50
14.21113718682669
 51
15.84965846812526
  0
ARC
  5
7CD7
330
37
100
AcDbEntity
  8
0
100
AcDbCircle
 10
-279.0182150792106
 20
1120.113632108064
 30
0.0
 40
651.7422508885601
100
AcDbArc
 50
8.870521499556771
 51
11.68518284795495
  0
ARC
  5
7CD8
330
37
100
AcDbEntity
  8
0
100
AcDbCircle
 10
-279.0182150792106
 20
1120.113632108064
 30
0.0
 40
652.7422508885599
100
AcDbArc
 50
11.66702936442132
 51
14.18890911817579
  0
ARC
  5
7CD9
330
37
100
AcDbEntity
  8
0
100
AcDbCircle
 10
-279.0182150792106
 20
1120.113632108064
 30
0.0
 40
652.7422508885599
100
AcDbArc
 50
6.200375906207806
 51
8.859816724198841
  0
ARC
  5
7CDA
330
37
100
AcDbEntity
  8
0
100
AcDbCircle
 10
696.3019241450812
 20
1120.113632108064
 30
0.0
 40
651.7422508885601
100
AcDbArc
 50
164.1503415318747
 51
165.7888628131733
  0
LINE
  5
7CDB
330
37
100
AcDbEntity
  8
0
100
AcDbLine
 10
353.8107081655173
 20
1280.113632108078
 30
0.0
 11
63.47300090035361
 21
1280.113632108064
 31
0.0
  0
LINE
  5
7CDC
330
37
100
AcDbEntity
  8
0
100
AcDbLine
 10
348.9853247954155
 20
1298.113632108093
 30
0.0
 11
68.29838427045554
 21
1298.113632108078
 31
0.0
  0
LINE
  5
7CDD
330
37
100
AcDbEntity
  8
0
100
AcDbLine
 10
77.58676666545155
 20
1328.113632108078
 30
0.0
 11
339.6969424004195
 21
1328.113632108078
 31
0.0
  0
ARC
  5
7CDE
330
37
100
AcDbEntity
  8
0
100
AcDbCircle
 10
696.3019241450812
 20
1120.113632108064
 30
0.0
 40
652.7422508885599
100
AcDbArc
 50
161.4183568116744
 51
164.1752605800459
  0
ARC
  5
7CDF
330
37
100
AcDbEntity
  8
0
100
AcDbCircle
 10
-279.0182150792106
 20
1120.113632108064
 30
0.0
 40
652.7422508885599
100
AcDbArc
 50
15.82473941995409
 51
18.58164318832551
  0
ARC
  5
7CE0
330
37
100
AcDbEntity
  8
0
100
AcDbCircle
 10
-279.0182150792106
 20
1120.113632108064
 30
0.0
 40
652.7422508885599
100
AcDbArc
 50
341.4183568116762
 51
344.1752605800493
  0
LINE
  5
7CE1
330
37
100
AcDbEntity
  8
0
100
AcDbLine
 10
77.58676666545155
 20
912.1136321080783
 30
0.0
 11
339.6969424004195
 21
912.1136321080783
 31
0.0
  0
ARC
  5
7CE2
330
37
100
AcDbEntity
  8
0
100
AcDbCircle
 10
-279.0182150792106
 20
1120.113632108064
 30
0.0
 40
651.7422508885601
100
AcDbArc
 50
344.1503415318776
 51
344.1752605800493
  0
POINT
  5
87BF
330
37
100
AcDbEntity
  8
0
 60
     1
100
AcDbPoint
 10
0.0
 20
0.0
 30
0.0
1001
GENIUS_GENODEF_13
1002
{
1000
HIER
1070
     1
1002
}
1002
{
1000
MANEDIT
1070
     0
1002
}
1002
{
1000
NOSEL
1070
     1
1002
}
1002
{
1000
BEHIND
1070
     0
1002
}
1002
{
1000
OTHER
1070
     1
1002
}
1002
{
1000
REACTOR
1002
}
1001
GENIUS_GENOENT_13
1002
{
1000
MYREF
1005
87BF
1002
}
1002
{
1000
GRP
1005
0
1002
}
1001
GENIUS_GENOBJ-NBEHI-BHB_13
1002
{
1000
OWNER
1000
genbehi
1002
}
1001
GENIUS_GENOLIS_13
1002
{
1000
ENT
1005
7C1A
1005
7C1B
1005
7C1C
1005
7C1D
1005
7C1F
1005
7C20
1005
7C21
1005
7C22
1005
7C23
1005
7C24
1002
}
1001
GENIUS_GENBH_13
1002
{
1000
FGO
1005
87BE
1002
}
  0
ELLIPSE
  5
8DF1
330
37
100
AcDbEntity
  8
0
100
AcDbEllipse
 10
208.6418545329353
 20
255.2728474214545
 30
0.0
 11
-6.0
 21
0.0
 31
0.0
210
0.0
220
0.0
230
1.0
 40
0.3151354041765444
 41
0.0
 42
6.283185307179584
  0
LINE
  5
8DF2
330
37
100
AcDbEntity
  8
0
 48
0.2
100
AcDbLine
 10
214.6418545329353
 20
255.2728474214545
 30
0.0
 11
214.6418537645474
 21
278.8052752293578
 31
0.0
  0
LINE
  5
8DF3
330
37
100
AcDbEntity
  8
0
 48
0.2
100
AcDbLine
 10
202.6418545329353
 20
255.2728474214545
 30
0.0
 11
202.6510184367309
 21
278.8269955472209
 31
0.0
  0
ELLIPSE
  5
8DF4
330
37
100
AcDbEntity
  8
0
 48
0.5
100
AcDbEllipse
 10
208.6463824331205
 20
278.8067656535285
 30
0.0
 11
-5.99547133992404
 21
0.0030185553922416
 31
0.0
210
0.0
220
0.0
230
-1.0
 40
0.500357817540603
 41
6.283070809015967
 42
9.424777960912367
  0
ARC
  5
8DF5
330
37
100
AcDbEntity
  8
0
100
AcDbCircle
 10
208.6418545329353
 20
317.7391236563961
 30
0.0
 40
13.9
100
AcDbArc
 50
133.289237208489
 51
233.5924332237272
  0
LWPOLYLINE
  5
8DF6
330
37
100
AcDbEntity
  8
0
100
AcDbPolyline
 90
        8
 70
     0
 43
0.0
 10
200.3918545329189
 20
278.7953914182561
 10
200.391854532939
 20
320.0077705757989
 10
198.9701105920368
 20
328.745285637196
 10
199.3918545329371
 20
329.2391236564025
 10
217.8918545329371
 20
329.2391236564025
 10
218.3116614400043
 20
328.7455964860805
 10
216.8918545329353
 20
320.0077705757989
 10
216.8918545329353
 20
278.7953914182561
  0
CIRCLE
  5
8DF7
330
37
100
AcDbEntity
  8
0
100
AcDbCircle
 10
208.6418545329353
 20
317.7391236564025
 30
0.0
 40
7.0
  0
ARC
  5
8DF8
330
37
100
AcDbEntity
  8
0
100
AcDbCircle
 10
208.6418545329353
 20
317.7391236563961
 30
0.0
 40
13.9
100
AcDbArc
 50
306.4075667762168
 51
46.73807799586664
  0
CIRCLE
  5
8DF9
330
37
100
AcDbEntity
  8
0
100
AcDbCircle
 10
208.6418545329371
 20
317.7391236564025
 30
0.0
 40
6.0
  0
ELLIPSE
  5
8DFA
330
37
100
AcDbEntity
  8
0
 48
0.5
100
AcDbEllipse
 10
208.6418545329353
 20
309.5362135185876
 30
0.0
 11
-0.9522170000000583
 21
0.0
 31
0.0
210
0.0
220
0.0
230
1.0
 40
0.6083848063392395
 41
0.0
 42
6.283185307179584
  0
ARC
  5
8DFB
330
37
100
AcDbEntity
  8
0
 48
0.5
100
AcDbCircle
 10
208.6418545329353
 20
317.7391236564025
 30
0.0
 40
17.0
100
AcDbArc
 50
299.0317439919165
 51
51.85548689877728
  0
ARC
  5
8DFC
330
37
100
AcDbEntity
  8
0
 48
0.5
100
AcDbCircle
 10
208.6418545329353
 20
317.7391236564025
 30
0.0
 40
17.0
100
AcDbArc
 50
128.1445131012227
 51
240.9682560080835
  0
ELLIPSE
  5
8DFF
330
37
100
AcDbEntity
  8
0
 48
0.5
100
AcDbEllipse
 10
208.6418545329353
 20
278.7953914182561
 30
0.0
 11
8.25
 21
0.0
 31
0.0
210
0.0
220
0.0
230
1.0
 40
0.502255581984476
 41
3.141592653589792
 42
3.899468484997978
  0
ELLIPSE
  5
8E00
330
37
100
AcDbEntity
  8
0
 48
0.5
100
AcDbEllipse
 10
208.6418545329353
 20
278.7953914182561
 30
0.0
 11
8.25
 21
0.0
 31
0.0
210
0.0
220
0.0
230
1.0
 40
0.502255581984476
 41
5.526728803267387
 42
6.283185307179584
  0
ELLIPSE
  5
8E01
330
37
100
AcDbEntity
  8
弱線
 48
0.5
100
AcDbEllipse
 10
208.6418545329353
 20
278.7953914182561
 30
0.0
 11
8.25
 21
0.0
 31
0.0
210
0.0
220
0.0
230
1.0
 40
0.502255581984476
 41
0.0
 42
3.141592653589792
  0
LWPOLYLINE
  5
8E02
330
37
100
AcDbEntity
  8
0
100
AcDbPolyline
 90
        8
 70
     0
 43
0.0
 10
200.0112449883164
 20
339.7391236564025
 42
0.1096380651750781
 10
198.6418545329371
 20
337.2391236564025
 10
198.1418545329371
 20
336.9391236564023
 10
198.1418545329371
 20
329.2391236564025
 10
219.1418545329371
 20
329.2391236564025
 10
219.1418545329371
 20
336.9391236564023
 10
218.6418545329372
 20
337.2391236564021
 42
0.1102224383589416
 10
217.2781259095788
 20
339.7391236564025
  0
LINE
  5
8E03
330
37
100
AcDbEntity
  8
0
100
AcDbLine
 10
219.1418545329371
 20
336.9391236564023
 30
0.0
 11
198.1418545329371
 21
336.9391236564023
 31
0.0
  0
LINE
  5
8E04
330
37
100
AcDbEntity
  8
弱線
100
AcDbLine
 10
218.6418545329372
 20
337.2391236564025
 30
0.0
 11
198.6418545329371
 21
337.2391236564025
 31
0.0
  0
HATCH
  5
8E05
330
37
100
AcDbEntity
  8
弱線
 48
0.3
100
AcDbHatch
 10
0.0
 20
0.0
 30
0.0
210
0.0
220
0.0
230
1.0
  2
_U
 70
     0
 71
     0
 91
        1
 92
        1
 93
        4
 72
     1
 10
219.1418545329371
 20
329.2391236564025
 11
198.1418545329371
 21
329.2391236564025
 72
     1
 10
198.1418545329371
 20
329.2391236564025
 11
198.1418545329371
 21
336.9391236564029
 72
     1
 10
198.1418545329371
 20
336.9391236564023
 11
219.1418545329371
 21
336.9391236564023
 72
     1
 10
219.1418545329371
 20
336.9391236564023
 11
219.1418545329371
 21
329.2391236564021
 97
        0
 75
     0
 76
     0
 52
90.0
 41
2.5
 77
     0
 78
     1
 53
90.0
 43
-2971.115003729205
 44
-3254.853698660863
 45
-2.5
 46
0.0000000000000002
 79
     0
 98
        1
 10
1564.606403770842
 20
-1418.090167045717
1001
GENIUS_GENOBJ-N-HTC_13
1002
{
1000
OWNER
1000
GEN
1002
}
1001
GENIUS_GENODEF_13
1002
{
1000
HIER
1070
     0
1002
}
1002
{
1000
MANEDIT
1070
     0
1002
}
1002
{
1000
NOSEL
1070
     0
1002
}
1002
{
1000
BEHIND
1070
     0
1002
}
1002
{
1000
OTHER
1070
     0
1002
}
1002
{
1000
REACTOR
1002
}
1001
GENIUS_GENHATCH_13
1002
{
1000
DATA
1040
90.0
1042
-1.0
1000
_U
1070
     0
1011
206.6184613263368
1021
332.9362771281566
1031
0.0
1002
}
1002
{
1000
UCS
1010
0.0
1020
0.0
1030
0.0
1010
1.0
1020
0.0
1030
0.0
1010
0.0
1020
1.0
1030
0.0
1002
}
  0
LINE
  5
8E06
330
37
100
AcDbEntity
  8
0
100
AcDbLine
 10
199.1418545329371
 20
344.7391236564025
 30
0.0
 11
218.1418545329371
 21
344.7391236564025
 31
0.0
  0
LWPOLYLINE
  5
8E07
330
37
100
AcDbEntity
  8
0
100
AcDbPolyline
 90
       10
 70
     1
 43
0.0
 10
200.5660129661488
 20
345.6885626118773
 10
199.1418545329371
 20
344.7391236564025
 10
199.1418545329371
 20
339.7391236564025
 10
218.1418545329371
 20
339.7391236564025
 10
218.1418545329371
 20
344.7391236564025
 10
216.7176960997259
 20
345.6885626118773
 42
-0.2892456994447618
 10
215.4126116178696
 20
348.6135957828564
 10
217.741854532937
 20
362.2391236564025
 10
199.5418545329372
 20
362.2391236564025
 10
201.8710974480046
 20
348.6135957828564
 42
-0.2892456994447619
  0
HATCH
  5
8E08
330
37
100
AcDbEntity
  8
弱線
100
AcDbHatch
 10
0.0
 20
0.0
 30
0.0
210
0.0
220
0.0
230
1.0
  2
_U
 70
     0
 71
     0
 91
        1
 92
        1
 93
        4
 72
     1
 10
199.1418545329371
 20
344.7391236564025
 11
218.1418545329371
 21
344.7391236564025
 72
     1
 10
218.1418545329371
 20
344.7391236564025
 11
218.1418545329371
 21
339.7391236564025
 72
     1
 10
218.1418545329371
 20
339.7391236564025
 11
199.1418545329371
 21
339.7391236564025
 72
     1
 10
199.1418545329371
 20
339.7391236564025
 11
199.1418545329371
 21
344.7391236564025
 97
        0
 75
     0
 76
     0
 52
90.0
 41
2.5
 77
     0
 78
     1
 53
90.0
 43
-2971.115003729205
 44
-3254.553698660862
 45
-2.5
 46
0.0000000000000002
 79
     0
 98
        1
 10
401.7431105612121
 20
178.4765009363654
1001
GENIUS_GENOBJ-N-HTC_13
1002
{
1000
OWNER
1000
GEN
1002
}
1001
GENIUS_GENODEF_13
1002
{
1000
HIER
1070
     0
1002
}
1002
{
1000
MANEDIT
1070
     0
1002
}
1002
{
1000
NOSEL
1070
     0
1002
}
1002
{
1000
BEHIND
1070
     0
1002
}
1002
{
1000
OTHER
1070
     0
1002
}
1002
{
1000
REACTOR
1002
}
1001
GENIUS_GENHATCH_13
1002
{
1000
DATA
1040
90.0
1042
-1.0
1000
_U
1070
     0
1011
206.6561259726224
1021
343.7054891353745
1031
0.0
1002
}
1002
{
1000
UCS
1010
0.0
1020
0.0
1030
0.0
1010
1.0
1020
0.0
1030
0.0
1010
0.0
1020
1.0
1030
0.0
1002
}
  0
LINE
  5
8E09
330
37
100
AcDbEntity
  8
弱線
100
AcDbLine
 10
220.1418545329371
 20
366.7391236564025
 30
0.0
 11
197.1418545329371
 21
366.7391236564025
 31
0.0
  0
LWPOLYLINE
  5
8E0A
330
37
100
AcDbEntity
  8
0
100
AcDbPolyline
 90
        9
 70
     1
 43
0.0
 10
200.1418545329372
 20
436.5391236564054
 42
0.4142135623730951
 10
197.1418545329371
 20
433.5391236564054
 10
197.1418545329371
 20
366.7391236564025
 10
199.3918545329371
 20
362.2391236564025
 10
217.8918545329371
 20
362.2391236564025
 10
220.1418545329371
 20
366.7391236564021
 10
220.1418545329371
 20
433.5391236564054
 42
0.4142135623730951
 10
217.1418545329371
 20
436.5391236564054
 10
217.1418545329371
 20
436.5391236564054
  0
ARC
  5
8E0B
330
37
100
AcDbEntity
  8
0
100
AcDbCircle
 10
208.6418545329371
 20
317.7391236564025
 30
0.0
 40
30.00000000000182
100
AcDbArc
 50
103.5459893986879
 51
254.037985837127
  0
ARC
  5
8E0C
330
37
100
AcDbEntity
  8
0
100
AcDbCircle
 10
208.6418545329371
 20
317.7391236564025
 30
0.0
 40
30.00000000000182
100
AcDbArc
 50
285.9620141628462
 51
76.45401060131843
  0
ARC
  5
8E0D
330
37
100
AcDbEntity
  8
0
100
AcDbCircle
 10
208.6418545329353
 20
317.7391236563961
 30
0.0
 40
20.25000000000568
100
AcDbArc
 50
121.2329290154952
 51
245.9579240942303
  0
ARC
  5
8E0E
330
37
100
AcDbEntity
  8
0
100
AcDbCircle
 10
208.6418545329353
 20
317.7391236563961
 30
0.0
 40
20.25000000000568
100
AcDbArc
 50
294.0420759057479
 51
58.76707098449021
  0
LWPOLYLINE
  5
8E0F
330
37
100
AcDbEntity
  8
0
 48
0.5
100
AcDbPolyline
 90
        6
 70
     0
 43
0.0
 10
225.6418545329351
 20
912.1136321080783
 10
225.6418545329355
 20
905.6136321080787
 10
225.1418545329355
 20
905.1136321080788
 10
192.1418545329355
 20
905.1136321080788
 10
191.6418545329355
 20
905.6136321080787
 10
191.6418545329355
 20
912.1136321080783
1001
GENIUS_GENREC_14
1002
{
1000
PYDIR
1011
191.6418545329355
1021
920.1136321080786
1031
0.0
1002
}
1002
{
1000
PXDIR
1011
225.6418545329355
1021
905.1136321080788
1031
0.0
1002
}
1002
{
1000
PORI
1011
225.6418545329355
1021
920.1136321080786
1031
0.0
1002
}
1002
{
1000
PINS
1011
225.6418545329355
1021
920.1136321080786
1031
0.0
1002
}
1002
{
1000
HVAL
1000
33
1002
}
1002
{
1000
H
1070
     2
1002
}
1002
{
1000
WVAL
1000
15
1002
}
1002
{
1000
W
1070
     2
1002
}
1002
{
1000
C
1070
     1
1002
}
1001
GENIUS_GENOBJ-N-REC_13
1002
{
1000
OWNER
1000
GEN
1002
}
1001
GENIUS_GENODEF_13
1002
{
1000
HIER
1070
     0
1002
}
1002
{
1000
MANEDIT
1070
     0
1002
}
1002
{
1000
NOSEL
1070
     0
1002
}
1002
{
1000
BEHIND
1070
     0
1002
}
1002
{
1000
OTHER
1070
     0
1002
}
1002
{
1000
REACTOR
1002
}
1001
GENIUS_GENOREF_13
1005
8E2F
1005
8E2E
  0
HATCH
  5
8E12
330
37
100
AcDbEntity
  8
弱線
 48
0.5
100
AcDbHatch
 10
0.0
 20
0.0
 30
0.0
210
0.0
220
0.0
230
1.0
  2
_U
 70
     0
 71
     0
 91
        3
 92
        0
 93
        4
 72
     1
 10
192.1418545329355
 20
912.1136321080783
 11
225.1418545329355
 21
912.1136321080783
 72
     1
 10
225.1418545329355
 20
905.6136321080796
 11
225.1418545329355
 21
912.1136321080783
 72
     1
 10
192.1418545329355
 20
905.6136321080787
 11
225.1418545329355
 21
905.6136321080796
 72
     1
 10
192.1418545329355
 20
912.1136321080783
 11
192.1418545329355
 21
905.6136321080787
 97
        0
 92
        0
 93
        4
 72
     1
 10
192.1418545329355
 20
912.1136321080783
 11
225.1418545329355
 21
912.1136321080783
 72
     1
 10
192.1418545329355
 20
919.6136321080777
 11
192.1418545329355
 21
912.1136321080783
 72
     1
 10
225.1418545329346
 20
919.6136321080787
 11
192.1418545329355
 21
919.6136321080777
 72
     1
 10
225.1418545329355
 20
912.1136321080783
 11
225.1418545329355
 21
919.6136321080787
 97
        0
 92
        0
 93
        4
 72
     1
 10
192.1418545329355
 20
912.1136321080783
 11
225.1418545329355
 21
912.1136321080783
 72
     1
 10
192.1418545329355
 20
919.6136321080777
 11
192.1418545329355
 21
912.1136321080783
 72
     1
 10
225.1418545329346
 20
919.6136321080787
 11
192.1418545329355
 21
919.6136321080777
 72
     1
 10
225.1418545329355
 20
912.1136321080783
 11
225.1418545329355
 21
919.6136321080787
 97
        0
 75
     0
 76
     0
 52
90.0
 41
3.0
 77
     0
 78
     1
 53
90.0
 43
3020.347442816211
 44
-3193.232172822297
 45
-3.0
 46
0.0000000000000002
 79
     0
 98
        1
 10
3020.347442816211
 20
-3193.232172822297
1001
GENIUS_GENBHRL_14
1071
        1
1071
        2
1001
GENIUS_GENODEF_13
1002
{
1000
HIER
1070
     0
1002
}
1002
{
1000
MANEDIT
1070
     0
1002
}
1002
{
1000
NOSEL
1070
     0
1002
}
1002
{
1000
BEHIND
1070
     0
1002
}
1002
{
1000
OTHER
1070
     0
1002
}
1002
{
1000
REACTOR
1002
}
1001
GENIUS_GENOBJ-N-HTC_13
1002
{
1000
OWNER
1000
GEN
1002
}
1001
GENIUS_GENHATCH_13
1002
{
1000
DATA
1040
0.0
1042
2.0
1000
_U
1070
     0
1011
217.6662073223354
1021
914.4082472832574
1031
0.0
1002
}
1002
{
1000
UCS
1010
0.0
1020
0.0
1030
0.0
1010
1.0
1020
0.0
1030
0.0
1010
0.0
1020
1.0
1030
0.0
1002
}
  0
LINE
  5
8E1F
330
37
100
AcDbEntity
  8
弱線
 48
0.5
100
AcDbLine
 10
195.6418545345853
 20
901.6932591080788
 30
0.0
 11
195.6418545345853
 21
905.1136321080788
 31
0.0
  0
LINE
  5
8E20
330
37
100
AcDbEntity
  8
弱線
 48
0.5
100
AcDbLine
 10
221.6418545345853
 20
901.6932591080788
 30
0.0
 11
221.6418545345849
 21
905.1136321080788
 31
0.0
  0
LINE
  5
8E21
330
37
100
AcDbEntity
  8
0
 48
0.5
100
AcDbLine
 10
221.7111779286863
 20
901.6932591080788
 30
0.0
 11
195.5725311404842
 21
901.6932591080788
 31
0.0
  0
LINE
  5
8E22
330
37
100
AcDbEntity
  8
弱線
 48
0.5
100
AcDbLine
 10
191.6418545329355
 20
905.6136321080787
 30
0.0
 11
225.6418545329355
 21
905.6136321080796
 31
0.0
  0
LWPOLYLINE
  5
8E24
330
37
100
AcDbEntity
  8
0
 48
0.5
100
AcDbPolyline
 90
        4
 70
     0
 43
0.0
 10
216.8418545321596
 20
871.2765100086164
 10
216.8418545319576
 20
890.1567532006136
 42
-0.1514964537627264
 10
222.9318545345857
 20
903.1422012449505
 10
222.9318545345857
 20
905.1136321080788
  0
LWPOLYLINE
  5
8E25
330
37
100
AcDbEntity
  8
0
 48
0.5
100
AcDbPolyline
 90
        4
 70
     0
 43
0.0
 10
200.4418545337103
 20
871.2765100053584
 10
200.4418545339134
 20
890.1567532006136
 42
0.1514964539586841
 10
194.3518545345853
 20
903.1422012449493
 10
194.3518545345853
 20
905.1136321080788
  0
LWPOLYLINE
  5
8E26
330
37
100
AcDbEntity
  8
0
 48
0.5
100
AcDbPolyline
 90
        4
 70
     0
 43
0.0
 10
214.6418545329353
 20
853.4029236719252
 10
214.6418545329328
 20
851.599283348961
 42
-0.9999999999999239
 10
202.6418545329337
 20
851.599283348961
 10
202.6418545329337
 20
853.4029236738843
  0
LWPOLYLINE
  5
8E27
330
37
100
AcDbEntity
  8
0
 48
0.5
100
AcDbPolyline
 90
        4
 70
     0
 43
0.0
 10
203.1418545329351
 20
853.1141271697167
 10
203.1418545329355
 20
852.1384503422046
 10
203.4418545329357
 20
851.8384503422041
 10
206.952109051116
 20
851.8384503422046
  0
LWPOLYLINE
  5
8E28
330
37
100
AcDbEntity
  8
0
 48
0.5
100
AcDbPolyline
 90
        4
 70
     0
 43
0.0
 10
210.3316000147589
 20
851.8384503422051
 10
213.8418545329326
 20
851.8384503422057
 10
214.1418545329355
 20
852.1384503422055
 10
214.1418545329348
 20
853.1141271697162
  0
LWPOLYLINE
  5
8E29
330
37
100
AcDbEntity
  8
弱線
 48
0.5
100
AcDbPolyline
 90
        2
 70
     0
 43
0.0
 10
203.1418545329346
 20
852.1384503422046
 10
205.5450256947701
 20
852.1384503422064
  0
LWPOLYLINE
  5
8E2A
330
37
100
AcDbEntity
  8
弱線
 48
0.5
100
AcDbPolyline
 90
        2
 70
     0
 43
0.0
 10
211.7386833711146
 20
852.1384503422103
 10
214.1418545329355
 20
852.1384503422119
  0
CIRCLE
  5
8E2B
330
37
100
AcDbEntity
  8
0
 48
4.0
100
AcDbCircle
 10
208.6418545345362
 20
863.2136321080785
 30
0.0
 40
11.5
  0
CIRCLE
  5
8E2C
330
37
100
AcDbEntity
  8
弱線
 48
0.5
100
AcDbCircle
 10
208.6418545345362
 20
863.2136321080785
 30
0.0
 40
8.50000000160071
  0
POINT
  5
8E2E
330
37
100
AcDbEntity
  8
0
 60
     1
100
AcDbPoint
 10
69415.33387236501
 20
67447.88324496329
 30
0.0
1001
GENIUS_GENOLIS_13
1002
{
1000
ENT
1005
8E10
1005
8E0F
1002
}
1001
GENIUS_GENOENT_13
1002
{
1000
MYREF
1005
8E2E
1002
}
1002
{
1000
GRP
1005
0
1002
}
1001
GENIUS_GENOBJ-NBEHI-BHF_13
1002
{
1000
OWNER
1000
genbehi
1002
}
1001
GENIUS_GENBH_13
1002
{
1000
BGZLEVEL
1070
    -1
1002
}
1002
{
1000
FGZLEVEL
1070
    -1
1002
}
1002
{
1000
MODIFY
1002
{
1000
U
1000
D
1002
}
1002
{
1000
I
1000
D
1002
}
1002
}
1002
{
1000
FLAGS
1070
   564
1002
}
1002
{
1000
BGO
1005
0
1002
}
1001
GENIUS_GENODEF_13
1002
{
1000
HIER
1070
     1
1002
}
1002
{
1000
MANEDIT
1070
     1
1002
}
1002
{
1000
NOSEL
1070
     1
1002
}
1002
{
1000
BEHIND
1070
     0
1002
}
1002
{
1000
OTHER
1070
     0
1002
}
1002
{
1000
REACTOR
1002
}
  0
POINT
  5
8E2F
330
37
100
AcDbEntity
  8
0
 60
     1
100
AcDbPoint
 10
69415.33387236501
 20
67447.88324496329
 30
0.0
1001
GENIUS_GENOLIS_13
1002
{
1000
ENT
1005
8E10
1005
8E0F
1002
}
1001
GENIUS_GENOENT_13
1002
{
1000
MYREF
1005
8E2F
1002
}
1002
{
1000
GRP
1005
0
1002
}
1001
GENIUS_GENOBJ-NBEHI-BHF_13
1002
{
1000
OWNER
1000
genbehi
1002
}
1001
GENIUS_GENBH_13
1002
{
1000
BGZLEVEL
1070
    -1
1002
}
1002
{
1000
FGZLEVEL
1070
    -1
1002
}
1002
{
1000
MODIFY
1002
{
1000
U
1000
D
1002
}
1002
{
1000
I
1000
D
1002
}
1002
}
1002
{
1000
FLAGS
1070
   564
1002
}
1002
{
1000
BGO
1005
0
1002
}
1001
GENIUS_GENODEF_13
1002
{
1000
HIER
1070
     1
1002
}
1002
{
1000
MANEDIT
1070
     1
1002
}
1002
{
1000
NOSEL
1070
     1
1002
}
1002
{
1000
BEHIND
1070
     0
1002
}
1002
{
1000
OTHER
1070
     0
1002
}
1002
{
1000
REACTOR
1002
}
  0
LWPOLYLINE
  5
8E30
330
37
100
AcDbEntity
  8
0
 48
0.5
100
AcDbPolyline
 90
        6
 70
     0
 43
0.0
 10
740.7572802964997
 20
300.7391236564024
 10
734.2572802964853
 20
300.739123656402
 10
733.7572802964851
 20
301.2391236564021
 10
733.7572802964851
 20
334.2391236564016
 10
734.2572802964853
 20
334.7391236564017
 10
740.7572802964997
 20
334.7391236564018
1001
GENIUS_GENREC_14
1002
{
1000
PYDIR
1011
748.7572802964852
1021
334.7391236564021
1031
0.0
1002
}
1002
{
1000
PXDIR
1011
733.7572802964851
1021
300.739123656402
1031
0.0
1002
}
1002
{
1000
PORI
1011
748.7572802964852
1021
300.739123656402
1031
0.0
1002
}
1002
{
1000
PINS
1011
748.7572802964852
1021
300.739123656402
1031
0.0
1002
}
1002
{
1000
HVAL
1000
33
1002
}
1002
{
1000
H
1070
     2
1002
}
1002
{
1000
WVAL
1000
15
1002
}
1002
{
1000
W
1070
     2
1002
}
1002
{
1000
C
1070
     1
1002
}
1001
GENIUS_GENOBJ-N-REC_13
1002
{
1000
OWNER
1000
GEN
1002
}
1001
GENIUS_GENODEF_13
1002
{
1000
HIER
1070
     0
1002
}
1002
{
1000
MANEDIT
1070
     0
1002
}
1002
{
1000
NOSEL
1070
     0
1002
}
1002
{
1000
BEHIND
1070
     0
1002
}
1002
{
1000
OTHER
1070
     0
1002
}
1002
{
1000
REACTOR
1002
}
1001
GENIUS_GENOREF_13
1005
8E6A
1005
8E69
  0
HATCH
  5
8E33
330
37
100
AcDbEntity
  8
弱線
 48
0.5
100
AcDbHatch
 10
0.0
 20
0.0
 30
0.0
210
0.0
220
0.0
230
1.0
  2
_U
 70
     0
 71
     0
 91
        3
 92
        0
 93
        4
 72
     1
 10
740.7572802964997
 20
334.2391236564018
 11
740.7572802964997
 21
301.2391236564023
 72
     1
 10
734.2572802964861
 20
301.2391236564021
 11
740.7572802964997
 21
301.2391236564023
 72
     1
 10
734.2572802964853
 20
334.2391236564016
 11
734.2572802964861
 21
301.2391236564021
 72
     1
 10
740.7572802964997
 20
334.2391236564018
 11
734.2572802964853
 21
334.2391236564016
 97
        0
 92
        0
 93
        4
 72
     1
 10
740.7572802964997
 20
334.2391236564018
 11
740.7572802964997
 21
301.2391236564023
 72
     1
 10
748.257280296484
 20
334.239123656402
 11
740.7572802964997
 21
334.2391236564018
 72
     1
 10
748.2572802964853
 20
301.2391236564025
 11
748.257280296484
 21
334.239123656402
 72
     1
 10
740.7572802964997
 20
301.2391236564023
 11
748.2572802964853
 21
301.2391236564025
 97
        0
 92
        0
 93
        4
 72
     1
 10
740.7572802964997
 20
334.2391236564018
 11
740.7572802964997
 21
301.2391236564023
 72
     1
 10
748.257280296484
 20
334.239123656402
 11
740.7572802964997
 21
334.2391236564018
 72
     1
 10
748.2572802964853
 20
301.2391236564025
 11
748.257280296484
 21
334.239123656402
 72
     1
 10
740.7572802964997
 20
301.2391236564023
 11
748.2572802964853
 21
301.2391236564025
 97
        0
 75
     0
 76
     0
 52
0.0
 41
3.0
 77
     0
 78
     1
 53
0.0
 43
-3364.588524633891
 44
-2493.966464626875
 45
0.0000000000000004
 46
3.0
 79
     0
 98
        1
 10
-3364.588524633891
 20
-2493.966464626875
1001
GENIUS_GENBHRL_14
1071
        1
1071
        2
1001
GENIUS_GENODEF_13
1002
{
1000
HIER
1070
     0
1002
}
1002
{
1000
MANEDIT
1070
     0
1002
}
1002
{
1000
NOSEL
1070
     0
1002
}
1002
{
1000
BEHIND
1070
     0
1002
}
1002
{
1000
OTHER
1070
     0
1002
}
1002
{
1000
REACTOR
1002
}
1001
GENIUS_GENOBJ-N-HTC_13
1002
{
1000
OWNER
1000
GEN
1002
}
1001
GENIUS_GENHATCH_13
1002
{
1000
DATA
1040
0.0
1042
2.0
1000
_U
1070
     0
1011
743.0518954716636
1021
308.7147708670017
1031
0.0
1002
}
1002
{
1000
UCS
1010
0.0
1020
0.0
1030
0.0
1010
1.0
1020
0.0
1030
0.0
1010
0.0
1020
1.0
1030
0.0
1002
}
  0
LWPOLYLINE
  5
8E3F
330
37
100
AcDbEntity
  8
0
100
AcDbPolyline
 90
        5
 70
     0
 43
0.0
 10
696.7139786209692
 20
275.7728111641503
 42
0.0715210135753417
 10
685.5269586597625
 20
253.3820350279351
 10
674.1383980178279
 20
257.1636598780496
 42
-0.0690215062784006
 10
686.3061967621121
 20
281.817971732506
 10
696.7139785792753
 20
275.7728111040068
  0
LINE
  5
8E40
330
37
100
AcDbEntity
  8
弱線
 48
0.5
100
AcDbLine
 10
730.8246723083244
 20
330.8189486564014
 30
0.0
 11
733.7572802964851
 21
330.8189486564014
 31
0.0
  0
LINE
  5
8E41
330
37
100
AcDbEntity
  8
弱線
 48
0.5
100
AcDbLine
 10
730.8246723083244
 20
304.6592986564009
 30
0.0
 11
733.7572802964851
 21
304.6592986564009
 31
0.0
  0
LINE
  5
8E42
330
37
100
AcDbEntity
  8
0
 48
0.5
100
AcDbLine
 10
733.7572802964851
 20
331.7391236564012
 30
0.0
 11
730.8246723083244
 21
331.7391236564012
 31
0.0
  0
LINE
  5
8E43
330
37
100
AcDbEntity
  8
0
 48
0.5
100
AcDbLine
 10
730.8246723083244
 20
303.7391236564011
 30
0.0
 11
733.7572802964851
 21
303.7391236564011
 31
0.0
  0
LINE
  5
8E44
330
37
100
AcDbEntity
  8
0
 48
0.5
100
AcDbLine
 10
730.8246723083244
 20
303.7391236564011
 30
0.0
 11
730.8246723083244
 21
331.7391236564012
 31
0.0
  0
LINE
  5
8E45
330
37
100
AcDbEntity
  8
弱線
 48
0.5
100
AcDbLine
 10
734.2572802964853
 20
334.7391236564017
 30
0.0
 11
734.2572802964861
 21
300.739123656402
 31
0.0
  0
ARC
  5
8E47
330
37
100
AcDbEntity
  8
0
 48
0.3
100
AcDbCircle
 10
716.9393101071118
 20
346.1334529753078
 30
0.0
 40
20.0
100
AcDbArc
 50
264.1553752073875
 51
313.9689236985198
  0
ARC
  5
8E48
330
37
100
AcDbEntity
  8
0
 48
0.3
100
AcDbCircle
 10
723.761267064635
 20
294.1036388295037
 30
0.0
 40
12.0
100
AcDbArc
 50
53.4134167364745
 51
155.105725615997
  0
LINE
  5
8E49
330
37
100
AcDbEntity
  8
0
 48
0.3
100
AcDbLine
 10
680.5373050306126
 20
312.5391236564019
 30
0.0
 11
680.8373050306117
 21
312.2391236564025
 31
0.0
1001
GENIUS_GENFIL_13
1070
     0
1040
0.3
1040
0.3
1040
0.0
1040
0.0
1002
{
1002
}
  0
LINE
  5
8E4A
330
37
100
AcDbEntity
  8
0
 48
0.3
100
AcDbLine
 10
680.8373050306117
 20
323.2391236564025
 30
0.0
 11
680.5373050306126
 21
322.9391236564032
 31
0.0
1001
GENIUS_GENFIL_13
1070
     0
1040
0.3
1040
0.3
1040
0.0
1040
0.0
1002
{
1002
}
  0
ARC
  5
8E4B
330
37
100
AcDbEntity
  8
0
 48
0.3
100
AcDbCircle
 10
707.2358642444097
 20
334.1732447978433
 30
0.0
 40
8.0
100
AcDbArc
 50
221.7213527129005
 51
277.1505245565054
  0
LINE
  5
8E4C
330
37
100
AcDbEntity
  8
0
 48
0.3
100
AcDbLine
 10
683.3572802964855
 20
329.2391236565858
 30
0.0
 11
700.3572802964854
 21
329.2391236565858
 31
0.0
  0
LINE
  5
8E4D
330
37
100
AcDbEntity
  8
0
 48
0.3
100
AcDbLine
 10
683.3572802964855
 20
329.2391236565858
 30
0.0
 11
682.6519309519072
 21
329.1683558303088
 31
0.0
  0
LINE
  5
8E4E
330
37
100
AcDbEntity
  8
0
 48
0.3
100
AcDbLine
 10
682.6519309519072
 20
329.1683558303088
 30
0.0
 11
683.1533111146865
 21
326.2867913449376
 31
0.0
  0
LINE
  5
8E4F
330
37
100
AcDbEntity
  8
0
 48
0.3
100
AcDbLine
 10
682.6572802964919
 20
310.7535365370899
 30
0.0
 11
682.6572802964882
 21
326.1853549195042
 31
0.0
  0
LINE
  5
8E50
330
37
100
AcDbEntity
  8
0
 48
0.3
100
AcDbLine
 10
682.6572802964882
 20
326.1853549195042
 30
0.0
 11
683.1533111146865
 21
326.2867913449376
 31
0.0
  0
LINE
  5
8E51
330
37
100
AcDbEntity
  8
0
 48
0.3
100
AcDbLine
 10
682.6572802964894
 20
323.2391236564025
 30
0.0
 11
680.8373050306117
 21
323.2391236564025
 31
0.0
  0
LINE
  5
8E52
330
37
100
AcDbEntity
  8
0
 48
0.3
100
AcDbLine
 10
680.5373050306126
 20
322.9391236564032
 30
0.0
 11
680.5373050306126
 21
312.5391236564019
 31
0.0
  0
LINE
  5
8E53
330
37
100
AcDbEntity
  8
0
 48
0.3
100
AcDbLine
 10
680.8373050306117
 20
312.2391236564025
 30
0.0
 11
682.6572802964919
 21
312.2391236564025
 31
0.0
  0
LINE
  5
8E54
330
37
100
AcDbEntity
  8
0
 48
0.3
100
AcDbLine
 10
700.3572802964854
 20
329.2391236565858
 30
0.0
 11
701.2647425194192
 21
328.8491763022902
 31
0.0
  0
LINE
  5
8E55
330
37
100
AcDbEntity
  8
0
 48
0.3
100
AcDbLine
 10
708.2316761370831
 20
326.2354643351212
 30
0.0
 11
714.9026875300034
 21
326.2374189866354
 31
0.0
  0
LINE
  5
8E56
330
37
100
AcDbEntity
  8
0
 48
0.3
100
AcDbLine
 10
682.6572802964847
 20
310.7535365370899
 30
0.0
 11
687.7137751008205
 21
309.3986528377357
 31
0.0
  0
LINE
  5
8E57
330
37
100
AcDbEntity
  8
0
 48
0.3
100
AcDbLine
 10
692.6174357940189
 20
297.1277814131721
 30
0.0
 11
684.3761541012654
 21
282.938999969629
 31
0.0
  0
LINE
  5
8E58
330
37
100
AcDbEntity
  8
0
 48
0.3
100
AcDbLine
 10
684.3761541012654
 20
282.938999969629
 30
0.0
 11
698.6440212401222
 21
274.6517828668842
 31
0.0
  0
LINE
  5
8E59
330
37
100
AcDbEntity
  8
0
 48
0.3
100
AcDbLine
 10
698.6440212401222
 20
274.6517828668842
 30
0.0
 11
712.8762340540571
 21
299.1549808649073
 31
0.0
  0
ARC
  5
8E5A
330
37
100
AcDbEntity
  8
0
 48
0.3
100
AcDbCircle
 10
685.9771241440877
 20
301.5894247417932
 30
0.0
 40
8.0
100
AcDbArc
 50
326.102739962755
 51
77.46233460712867
  0
ARC
  5
8E5B
330
37
100
AcDbEntity
  8
弱線
 48
0.5
100
AcDbCircle
 10
696.3458713649433
 20
334.9045442624723
 30
0.0
 40
15.61890044306977
100
AcDbArc
 50
221.0982034386762
 51
248.8189083614228
  0
ARC
  5
8E5C
330
37
100
AcDbEntity
  8
弱線
 48
0.5
100
AcDbCircle
 10
692.5090834805342
 20
325.0030239069978
 30
0.0
 40
5.0
100
AcDbArc
 50
248.8189083614228
 51
286.1875180752523
  0
ARC
  5
8E5D
330
37
100
AcDbEntity
  8
弱線
 48
0.5
100
AcDbCircle
 10
688.3903604398811
 20
340.3925433945723
 30
0.0
 40
20.93029808041256
100
AcDbArc
 50
285.2707444851831
 51
314.1724689415935
  0
ARC
  5
8E5E
330
37
100
AcDbEntity
  8
弱線
 48
0.5
100
AcDbCircle
 10
725.0554560363909
 20
687.978019045487
 30
0.0
 40
361.7068166342219
100
AcDbArc
 50
263.3897562386887
 51
266.5286118818325
  0
LWPOLYLINE
  5
8E5F
330
37
100
AcDbEntity
  8
0
100
AcDbPolyline
 90
        8
 70
     0
 43
0.0
 10
683.2266707518647
 20
339.7391236565858
 42
0.1096380651750781
 10
681.8572802964856
 20
337.2391236565858
 10
681.3572802964856
 20
336.9391236565856
 10
681.3572802964856
 20
329.2391236565858
 10
702.3572802964856
 20
329.2391236565858
 10
702.3572802964856
 20
336.9391236565856
 10
701.8572802964854
 20
337.2391236565853
 42
0.1102224383589351
 10
700.4935516731276
 20
339.7391236565858
  0
LINE
  5
8E60
330
37
100
AcDbEntity
  8
0
100
AcDbLine
 10
702.3572802964856
 20
336.9391236565856
 30
0.0
 11
681.3572802964856
 21
336.9391236565856
 31
0.0
  0
LINE
  5
8E61
330
37
100
AcDbEntity
  8
弱線
100
AcDbLine
 10
701.8572802964854
 20
337.2391236565858
 30
0.0
 11
681.8572802964856
 21
337.2391236565858
 31
0.0
  0
HATCH
  5
8E62
330
37
100
AcDbEntity
  8
弱線
 48
0.3
100
AcDbHatch
 10
0.0
 20
0.0
 30
0.0
210
0.0
220
0.0
230
1.0
  2
_U
 70
     0
 71
     0
 91
        1
 92
        1
 93
        4
 72
     1
 10
702.3572802964856
 20
329.2391236565858
 11
681.3572802964856
 21
329.2391236565858
 72
     1
 10
681.3572802964856
 20
329.2391236565858
 11
681.3572802964856
 21
336.939123656586
 72
     1
 10
681.3572802964856
 20
336.9391236565856
 11
702.3572802964856
 21
336.9391236565856
 72
     1
 10
702.3572802964856
 20
336.9391236565856
 11
702.3572802964856
 21
329.2391236565853
 97
        0
 75
     0
 76
     0
 52
90.0
 41
2.5
 77
     0
 78
     1
 53
90.0
 43
-2487.899577965655
 44
-3254.853698660678
 45
-2.5
 46
0.0000000000000002
 79
     0
 98
        1
 10
2047.82182953439
 20
-1418.090167045534
1001
GENIUS_GENOBJ-N-HTC_13
1002
{
1000
OWNER
1000
GEN
1002
}
1001
GENIUS_GENODEF_13
1002
{
1000
HIER
1070
     0
1002
}
1002
{
1000
MANEDIT
1070
     0
1002
}
1002
{
1000
NOSEL
1070
     0
1002
}
1002
{
1000
BEHIND
1070
     0
1002
}
1002
{
1000
OTHER
1070
     0
1002
}
1002
{
1000
REACTOR
1002
}
1001
GENIUS_GENHATCH_13
1002
{
1000
DATA
1040
90.0
1042
-1.0
1000
_U
1070
     0
1011
689.8338870898852
1021
332.9362771283399
1031
0.0
1002
}
1002
{
1000
UCS
1010
0.0
1020
0.0
1030
0.0
1010
1.0
1020
0.0
1030
0.0
1010
0.0
1020
1.0
1030
0.0
1002
}
  0
LINE
  5
8E63
330
37
100
AcDbEntity
  8
0
100
AcDbLine
 10
682.3572802964855
 20
344.7391236565858
 30
0.0
 11
701.3572802964854
 21
344.7391236565858
 31
0.0
  0
LWPOLYLINE
  5
8E64
330
37
100
AcDbEntity
  8
0
100
AcDbPolyline
 90
       10
 70
     1
 43
0.0
 10
683.7814387296972
 20
345.6885626120605
 10
682.3572802964855
 20
344.7391236565858
 10
682.3572802964855
 20
339.7391236565858
 10
701.3572802964854
 20
339.7391236565858
 10
701.3572802964854
 20
344.7391236565858
 10
699.933121863274
 20
345.6885626120605
 42
-0.2892456994447618
 10
698.628037381418
 20
348.6135957830396
 10
700.9572802964854
 20
362.2391236565858
 10
682.7572802964856
 20
362.2391236565858
 10
685.0865232115531
 20
348.6135957830396
 42
-0.2892456994447619
  0
HATCH
  5
8E65
330
37
100
AcDbEntity
  8
弱線
100
AcDbHatch
 10
0.0
 20
0.0
 30
0.0
210
0.0
220
0.0
230
1.0
  2
_U
 70
     0
 71
     0
 91
        1
 92
        1
 93
        4
 72
     1
 10
682.3572802964855
 20
344.7391236565858
 11
701.3572802964854
 21
344.7391236565858
 72
     1
 10
701.3572802964854
 20
344.7391236565858
 11
701.3572802964854
 21
339.7391236565858
 72
     1
 10
701.3572802964854
 20
339.7391236565858
 11
682.3572802964855
 21
339.7391236565858
 72
     1
 10
682.3572802964855
 20
339.7391236565858
 11
682.3572802964855
 21
344.7391236565858
 97
        0
 75
     0
 76
     0
 52
90.0
 41
2.5
 77
     0
 78
     1
 53
90.0
 43
-2487.899577965655
 44
-3254.553698660679
 45
-2.5
 46
0.0000000000000002
 79
     0
 98
        1
 10
884.9585363247607
 20
178.4765009365486
1001
GENIUS_GENOBJ-N-HTC_13
1002
{
1000
OWNER
1000
GEN
1002
}
1001
GENIUS_GENODEF_13
1002
{
1000
HIER
1070
     0
1002
}
1002
{
1000
MANEDIT
1070
     0
1002
}
1002
{
1000
NOSEL
1070
     0
1002
}
1002
{
1000
BEHIND
1070
     0
1002
}
1002
{
1000
OTHER
1070
     0
1002
}
1002
{
1000
REACTOR
1002
}
1001
GENIUS_GENHATCH_13
1002
{
1000
DATA
1040
90.0
1042
-1.0
1000
_U
1070
     0
1011
689.8715517361708
1021
343.7054891355578
1031
0.0
1002
}
1002
{
1000
UCS
1010
0.0
1020
0.0
1030
0.0
1010
1.0
1020
0.0
1030
0.0
1010
0.0
1020
1.0
1030
0.0
1002
}
  0
LINE
  5
8E66
330
37
100
AcDbEntity
  8
弱線
100
AcDbLine
 10
703.3572802964854
 20
366.7391236565858
 30
0.0
 11
680.3572802964855
 21
366.7391236565858
 31
0.0
  0
LWPOLYLINE
  5
8E67
330
37
100
AcDbEntity
  8
0
100
AcDbPolyline
 90
        9
 70
     1
 43
0.0
 10
683.3572802964855
 20
436.5391236565883
 42
0.4142135623730951
 10
680.3572802964855
 20
433.5391236565887
 10
680.3572802964855
 20
366.7391236565858
 10
682.6072802964855
 20
362.2391236565858
 10
701.1072802964854
 20
362.2391236565858
 10
703.3572802964854
 20
366.7391236565853
 10
703.3572802964854
 20
433.5391236565887
 42
0.4142135623730951
 10
700.3572802964854
 20
436.5391236565883
 10
700.3572802964854
 20
436.5391236565883
  0
POINT
  5
8E69
330
37
100
AcDbEntity
  8
0
 60
     1
100
AcDbPoint
 10
55672.93850612918
 20
54075.0650789407
 30
0.0
1001
GENIUS_GENOLIS_13
1002
{
1000
ENT
1005
8E31
1005
8E30
1002
}
1001
GENIUS_GENOENT_13
1002
{
1000
MYREF
1005
8E69
1002
}
1002
{
1000
GRP
1005
0
1002
}
1001
GENIUS_GENOBJ-NBEHI-BHF_13
1002
{
1000
OWNER
1000
genbehi
1002
}
1001
GENIUS_GENBH_13
1002
{
1000
BGZLEVEL
1070
    -1
1002
}
1002
{
1000
FGZLEVEL
1070
    -1
1002
}
1002
{
1000
MODIFY
1002
{
1000
U
1000
D
1002
}
1002
{
1000
I
1000
D
1002
}
1002
}
1002
{
1000
FLAGS
1070
   564
1002
}
1002
{
1000
BGO
1005
0
1002
}
1001
GENIUS_GENODEF_13
1002
{
1000
HIER
1070
     1
1002
}
1002
{
1000
MANEDIT
1070
     1
1002
}
1002
{
1000
NOSEL
1070
     1
1002
}
1002
{
1000
BEHIND
1070
     0
1002
}
1002
{
1000
OTHER
1070
     0
1002
}
1002
{
1000
REACTOR
1002
}
  0
POINT
  5
8E6A
330
37
100
AcDbEntity
  8
0
 60
     1
100
AcDbPoint
 10
55672.93850612918
 20
54075.0650789407
 30
0.0
1001
GENIUS_GENOLIS_13
1002
{
1000
ENT
1005
8E31
1005
8E30
1002
}
1001
GENIUS_GENOENT_13
1002
{
1000
MYREF
1005
8E6A
1002
}
1002
{
1000
GRP
1005
0
1002
}
1001
GENIUS_GENOBJ-NBEHI-BHF_13
1002
{
1000
OWNER
1000
genbehi
1002
}
1001
GENIUS_GENBH_13
1002
{
1000
BGZLEVEL
1070
    -1
1002
}
1002
{
1000
FGZLEVEL
1070
    -1
1002
}
1002
{
1000
MODIFY
1002
{
1000
U
1000
D
1002
}
1002
{
1000
I
1000
D
1002
}
1002
}
1002
{
1000
FLAGS
1070
   564
1002
}
1002
{
1000
BGO
1005
0
1002
}
1001
GENIUS_GENODEF_13
1002
{
1000
HIER
1070
     1
1002
}
1002
{
1000
MANEDIT
1070
     1
1002
}
1002
{
1000
NOSEL
1070
     1
1002
}
1002
{
1000
BEHIND
1070
     0
1002
}
1002
{
1000
OTHER
1070
     0
1002
}
1002
{
1000
REACTOR
1002
}
  0
INSERT
  5
9003
330
37
100
AcDbEntity
  8
0
100
AcDbBlockReference
  2
A$C6AC2299F
 10
83.64185453293544
 20
17.73912365640615
 30
0.0
 41
8.0
 42
8.0
 43
8.0
  0
ENDSEC
  0
SECTION
  2
OBJECTS
  0
DICTIONARY
  5
C
330
0
100
AcDbDictionary
281
     1
  3
ACAD_2007HEADERVARS_RT
350
9379
  3
ACAD_CIP_PREVIOUS_PRODUCT_INFO
350
7925
  3
ACAD_COLOR
350
30
  3
ACAD_DETAILVIEWSTYLE
350
7918
  3
ACAD_FIELDLIST
350
8367
  3
ACAD_GROUP
350
D
  3
ACAD_LAYOUT
350
2F
  3
ACAD_MATERIAL
350
10
  3
ACAD_MLEADERSTYLE
350
1757
  3
ACAD_MLINESTYLE
350
2C
  3
ACAD_PLOTSETTINGS
350
2E
  3
ACAD_PLOTSTYLENAME
350
E
  3
ACAD_SCALELIST
350
1735
  3
ACAD_SECTIONVIEWSTYLE
350
7916
  3
ACAD_TABLESTYLE
350
31
  3
ACAD_VISUALSTYLE
350
14
  3
ACDB_RECOMPOSE_DATA
350
9377
  3
AcDbVariableDictionary
350
454
  3
AcmDictionary
350
9F
  3
AEC_PROPERTY_SET_DEFS
350
76DB
  3
AMG
350
42
  3
AMGSNAPSETTINGS
350
125
  3
ASE_INDEX_DICTIONARY
350
74C0
  3
DWGPROPS
350
9378
  3
GENIUS
350
87C3
  0
DICTIONARY
  5
104
330
2
100
AcDbDictionary
280
     1
281
     1
  3
ACAD_LAYERFILTERS
360
772F
  3
ACAD_LAYERSTATES
360
105
  3
ACLYDICTIONARY
360
772E
  3
AMLAYER_GROUPCOLORS
360
1956
  0
DICTIONARY
  5
2025
330
25
100
AcDbDictionary
280
     1
281
     1
  3
ADSK_XREC_LAYER_RECONCILED
360
8005
  0
DICTIONARY
  5
52A3
330
52A2
100
AcDbDictionary
280
     1
281
     1
  3
ADSK_XREC_LAYER_RECONCILED
360
8006
  0
DICTIONARY
  5
52A9
330
52A8
100
AcDbDictionary
280
     1
281
     1
  3
ADSK_XREC_LAYER_RECONCILED
360
8008
  0
DICTIONARY
  5
52AD
330
52AC
100
AcDbDictionary
280
     1
281
     1
  3
ADSK_XREC_LAYER_RECONCILED
360
800A
  0
DICTIONARY
  5
78F7
330
5DA1
100
AcDbDictionary
280
     1
281
     1
  3
ADSK_XREC_LAYER_RECONCILED
360
8011
  0
DICTIONARY
  5
4874
330
4873
100
AcDbDictionary
280
     1
281
     1
  3
ADSK_XREC_VTR_ANNOSCALE_DATA
360
4875
  3
ADSK_XREC_VTRVIEWINFO
360
4877
  0
DICTIONARY
  5
946
330
37
100
AcDbDictionary
280
     1
281
     1
  3
ACAD_SORTENTS
360
947
  0
DICTIONARY
  5
8FFF
330
8F68
100
AcDbDictionary
280
     1
281
     1
  3
ACAD_SORTENTS
360
9284
  0
DICTIONARY
  5
9379
102
{ACAD_REACTORS
330
C
102
}
330
C
100
AcDbDictionary
281
     1
  3
DIMARCSYM
350
937A
  3
INTERFEREVPVS
350
937B
  0
XRECORD
  5
7925
102
{ACAD_REACTORS
330
C
102
}
330
C
100
AcDbXrecord
280
     1
300
AMECH_PP
300
2014
300
PDSP_F_S
  0
DICTIONARY
  5
30
102
{ACAD_REACTORS
330
C
102
}
330
C
100
AcDbDictionary
281
     1
  0
DICTIONARY
  5
7918
102
{ACAD_REACTORS
330
C
102
}
330
C
100
AcDbDictionary
281
     1
  3
Imperial24
350
83A2
  3
Metric50
350
7919
  0
FIELDLIST
  5
8367
102
{ACAD_REACTORS
330
C
102
}
330
C
100
AcDbIdSet
 90
        3
330
936B
330
936C
330
936D
100
AcDbFieldList
  0
DICTIONARY
  5
D
102
{ACAD_REACTORS
330
C
102
}
330
C
100
AcDbDictionary
281
     1
  0
DICTIONARY
  5
2F
102
{ACAD_REACTORS
330
C
102
}
330
C
100
AcDbDictionary
281
     1
  3
Model
350
3A
  3
レイアウト1
350
9005
  0
DICTIONARY
  5
10
102
{ACAD_REACTORS
330
C
102
}
330
C
100
AcDbDictionary
281
     1
  3
ByBlock
350
12
  3
ByLayer
350
11
  3
Global
350
13
  0
DICTIONARY
  5
1757
102
{ACAD_REACTORS
330
C
102
}
330
C
100
AcDbDictionary
281
     1
  3
Standard
350
1758
  0
DICTIONARY
  5
2C
102
{ACAD_REACTORS
330
C
102
}
330
C
100
AcDbDictionary
281
     1
  3
Standard
350
2D
  0
DICTIONARY
  5
2E
102
{ACAD_REACTORS
330
C
102
}
330
C
100
AcDbDictionary
281
     1
  3
PDF-A4
350
7876
  0
ACDBDICTIONARYWDFLT
  5
E
102
{ACAD_REACTORS
330
C
102
}
330
C
100
AcDbDictionary
281
     1
  3
Normal
350
F
100
AcDbDictionaryWithDefault
340
F
  0
DICTIONARY
  5
1735
102
{ACAD_REACTORS
330
C
102
}
330
C
100
AcDbDictionary
281
     1
  3
A0
350
1736
  3
A1
350
7928
  3
A2
350
7929
  3
A3
350
792A
  3
A4
350
792B
  3
A5
350
792C
  3
A6
350
792D
  3
A7
350
792E
  3
A8
350
792F
  3
A9
350
7930
  3
B0
350
7931
  3
B1
350
7932
  3
B2
350
7933
  3
B3
350
7934
  3
B4
350
7935
  3
B5
350
7936
  3
B6
350
7937
  0
DICTIONARY
  5
7916
102
{ACAD_REACTORS
330
C
102
}
330
C
100
AcDbDictionary
281
     1
  3
Imperial24
350
83A0
  3
Metric50
350
7917
  0
DICTIONARY
  5
31
102
{ACAD_REACTORS
330
C
102
}
330
C
100
AcDbDictionary
281
     1
  3
Standard
350
32
  0
DICTIONARY
  5
14
102
{ACAD_REACTORS
330
C
102
}
330
C
100
AcDbDictionary
281
     1
  3
2dWireframe
350
1A
  3
3D Hidden
350
1C
  3
3dWireframe
350
1B
  3
Basic
350
19
  3
Brighten
350
20
  3
ColorChange
350
24
  3
Conceptual
350
1D
  3
Dim
350
1F
  3
EdgeColorOff
350
7915
  3
Facepattern
350
23
  3
Flat
350
15
  3
FlatWithEdges
350
16
  3
Gouraud
350
17
  3
GouraudWithEdges
350
18
  3
Hidden
350
790D
  3
JitterOff
350
7913
  3
Linepattern
350
22
  3
OverhangOff
350
7914
  3
Realistic
350
1E
  3
Shaded
350
7912
  3
Shaded with edges
350
7911
  3
Shades of Gray
350
790E
  3
Sketchy
350
790F
  3
Thicken
350
21
  3
Wireframe
350
790C
  3
X-Ray
350
7910
  0
XRECORD
  5
9377
102
{ACAD_REACTORS
330
C
102
}
330
C
100
AcDbXrecord
280
     1
 90
        1
330
32
  0
DICTIONARY
  5
454
102
{ACAD_REACTORS
330
C
102
}
330
C
100
AcDbDictionary
281
     1
  3
CANNOSCALE
350
177F
  3
CMLEADERSTYLE
350
177D
  3
CTABLESTYLE
350
455
  3
CVIEWDETAILSTYLE
350
794B
  3
CVIEWSECTIONSTYLE
350
794C
  3
DIMASSOC
350
798A
  3
HIDETEXT
350
7988
  3
INDEXCTL
350
7987
  3
LAYEREVAL
350
794D
  3
LAYERNOTIFY
350
794E
  3
LIGHTINGUNITS
350
1780
  3
MSLTSCALE
350
177E
  3
SOLIDHIST
350
798B
  3
SORTENTS
350
7986
  3
XCLIPFRAME
350
9375
  0
DICTIONARY
  5
9F
102
{ACAD_REACTORS
330
C
102
}
330
C
100
AcDbDictionary
281
     1
  3
AcmStdDictionary
350
A1
  3
AMDTSECTSYM_ARROWCOLOR
350
C1
  0
DICTIONARY
  5
76DB
102
{ACAD_REACTORS
330
C
102
}
330
C
100
AcDbDictionary
281
     1
  0
DICTIONARY
  5
42
102
{ACAD_REACTORS
330
C
102
}
330
C
100
AcDbDictionary
281
     1
  0
DICTIONARY
  5
125
102
{ACAD_REACTORS
330
C
102
}
330
C
100
AcDbDictionary
281
     1
  0
DICTIONARY
  5
74C0
102
{ACAD_REACTORS
330
C
102
}
330
C
100
AcDbDictionary
281
     1
  3
ASEBlockHierarchyIndexRecord
350
74C1
1001
DCO15
1040
1729341751.609
  0
XRECORD
  5
9378
102
{ACAD_REACTORS
330
C
102
}
330
C
100
AcDbXrecord
280
     1
  1
DWGPROPS COOKIE
  2

  3

  4

  6

  7

  8
HONPC031
  9

300
=
301
=
302
=
303
=
304
=
305
=
306
=
307
=
308
=
309
=
 40
0.204342349537037
 41
2456378.668266783
 42
2456675.758090799
  1

 90
        0
  0
DICTIONARY
  5
87C3
102
{ACAD_REACTORS
330
C
102
}
330
C
100
AcDbDictionary
281
     1
  3
ScratchBlock
350
87C4
  0
DICTIONARY
  5
772F
102
{ACAD_REACTORS
330
104
102
}
330
104
100
AcDbDictionary
281
     1
  0
DICTIONARY
  5
105
102
{ACAD_REACTORS
330
104
102
}
330
104
100
AcDbDictionary
281
     1
  3
ACAD_VIEWS_セッティングイメージ
350
4878
  0
DICTIONARY
  5
772E
102
{ACAD_REACTORS
330
104
102
}
330
104
100
AcDbDictionary
281
     1
1001
ACAD
1000
<All
  0
DICTIONARY
  5
1956
102
{ACAD_REACTORS
330
104
102
}
330
104
100
AcDbDictionary
280
     1
281
     1
  0
XRECORD
  5
8005
102
{ACAD_REACTORS
330
2025
102
}
330
2025
100
AcDbXrecord
280
     1
290
     1
  0
XRECORD
  5
8006
102
{ACAD_REACTORS
330
52A3
102
}
330
52A3
100
AcDbXrecord
280
     1
290
     1
  0
XRECORD
  5
8008
102
{ACAD_REACTORS
330
52A9
102
}
330
52A9
100
AcDbXrecord
280
     1
290
     1
  0
XRECORD
  5
800A
102
{ACAD_REACTORS
330
52AD
102
}
330
52AD
100
AcDbXrecord
280
     1
290
     1
  0
XRECORD
  5
8011
102
{ACAD_REACTORS
330
78F7
102
}
330
78F7
100
AcDbXrecord
280
     1
290
     1
  0
XRECORD
  5
4875
102
{ACAD_REACTORS
330
4874
102
}
330
4874
100
AcDbXrecord
280
     1
340
1736
  0
XRECORD
  5
4877
102
{ACAD_REACTORS
330
4874
102
}
330
4874
100
AcDbXrecord
280
     1
300
<なし>
302
ACAD_VIEWS_セッティングイメージ
330
3A
294
     0
  0
SORTENTSTABLE
  5
947
102
{ACAD_REACTORS
330
946
102
}
330
946
100
AcDbSortentsTable
330
37
331
7C86
  5
7C8D
331
7C24
  5
7C2B
331
7C20
  5
7C27
331
8E04
  5
8E02
331
8E00
  5
8DFE
331
7CC5
  5
7CCC
331
7CC1
  5
7CC8
331
8DFC
  5
8DFA
331
8DF8
  5
8DF6
331
7C1C
  5
7C23
331
7CBD
  5
7CC4
331
7C52
  5
7C59
331
8DF4
  5
8DF2
331
7C4E
  5
7C55
331
7CA9
  5
7CB0
331
8E2B
  5
8E2A
331
7C4A
  5
7C51
331
7C46
  5
7C4D
331
7CA5
  5
7CAC
331
8E27
  5
8E26
331
7C42
  5
7C49
331
7CA1
  5
7CA8
331
8E1F
  5
8E1E
331
7C3E
  5
7C45
331
7CE0
  5
7CE7
331
7C99
  5
7CA0
331
7CDC
  5
7CE3
331
7C3A
  5
7C41
331
7CD8
  5
7CDF
331
7C95
  5
7C9C
331
7C36
  5
7C3D
331
7C32
  5
7C39
331
7C91
  5
7C98
331
7CD4
  5
7CDB
331
8E0F
  5
8E0E
331
7C2E
  5
7C35
331
7C8D
  5
7C94
331
7CD0
  5
7CD7
331
7CCC
  5
7CD3
331
8E0B
  5
8E09
331
7C2A
  5
7C31
331
7C89
  5
7C90
331
7CC8
  5
7CCF
331
7C27
  5
7C2E
331
7C85
  5
7C8C
331
7C23
  5
7C2A
331
8E07
  5
8E05
331
8E03
  5
8E01
331
8DFF
  5
8DFD
331
7CC4
  5
7CCB
331
7CC0
  5
7CC7
331
8DFB
  5
8DF9
331
7C1F
  5
7C26
331
7C1B
  5
7C22
331
7C55
  5
7C5C
331
7CBC
  5
7CC3
331
8DF7
  5
8DF5
331
7C51
  5
7C58
331
8DF3
  5
8DF1
331
7C4D
  5
7C54
331
7CA8
  5
7CAF
331
8E2A
  5
8E29
331
7C49
  5
7C50
331
7C45
  5
7C4C
331
7CA4
  5
7CAB
331
8E26
  5
8E25
331
8E22
  5
8E21
331
7C41
  5
7C48
331
7CA0
  5
7CA7
331
7C3D
  5
7C44
331
7CDF
  5
7CE6
331
7C98
  5
7C9F
331
7CDB
  5
7CE2
331
7C39
  5
7C40
331
7C35
  5
7C3C
331
7C94
  5
7C9B
331
7CD7
  5
7CDE
331
7C31
  5
7C38
331
7C90
  5
7C97
331
7CD3
  5
7CDA
331
8E12
  5
8E11
331
8E0E
  5
8E0C
331
7C2D
  5
7C34
331
7C8C
  5
7C93
331
7CCF
  5
7CD6
331
7C88
  5
7C8F
331
7CCB
  5
7CD2
331
8E0A
  5
8E08
331
7C29
  5
7C30
331
7C26
  5
7C2D
331
7C84
  5
7C8B
331
7C22
  5
7C29
331
8E06
  5
8E04
331
7CC7
  5
7CCE
331
8E02
  5
8E00
331
7CC3
  5
7CCA
331
8DFA
  5
8DF8
331
7C58
  5
7C60
331
7C1E
  5
7C25
331
7C1A
  5
7C21
331
7CBF
  5
7CC6
331
7C54
  5
7C5B
331
8DF6
  5
8DF4
331
7C50
  5
7C57
331
8DF2
  5
8DF0
331
7C4C
  5
7C53
331
7CAB
  5
7CB2
331
8E29
  5
8E28
331
7C48
  5
7C4F
331
7CA7
  5
7CAE
331
7C44
  5
7C4B
331
7CA3
  5
7CAA
331
8E25
  5
8E24
331
8E21
  5
8E20
331
7C40
  5
7C47
331
7C9F
  5
7CA6
331
7CE2
  5
7CE9
331
7CDE
  5
7CE5
331
7C3C
  5
7C43
331
7CDA
  5
7CE1
331
7C97
  5
7C9E
331
7C34
  5
7C3B
331
7C93
  5
7C9A
331
7CD6
  5
7CDD
331
7C30
  5
7C37
331
7C8F
  5
7C96
331
7CD2
  5
7CD9
331
8E0D
  5
8E0B
331
7C2C
  5
7C33
331
7C8B
  5
7C92
331
7CCE
  5
7CD5
331
7CCA
  5
7CD1
331
8E09
  5
8E07
331
7C28
  5
7C2F
331
7C87
  5
7C8E
331
7C25
  5
7C2C
331
7C21
  5
7C28
331
8E05
  5
8E03
331
7CC6
  5
7CCD
331
8E01
  5
8DFF
331
7CC2
  5
7CC9
331
8DF9
  5
8DF7
331
7C1D
  5
7C24
331
7C57
  5
7C5E
331
7CBE
  5
7CC5
331
7C53
  5
7C5A
331
8DF5
  5
8DF3
331
7C4F
  5
7C56
331
8DF1
  5
8DEF
331
7CAA
  5
7CB1
331
8E2C
  5
8E2B
331
7C4B
  5
7C52
331
8E28
  5
8E27
331
7CA6
  5
7CAD
331
7C47
  5
7C4E
331
7C43
  5
7C4A
331
7CA2
  5
7CA9
331
8E24
  5
8E23
331
8E20
  5
8E1F
331
7C3F
  5
7C46
331
7C9E
  5
7CA5
331
7CE1
  5
7CE8
331
7CDD
  5
7CE4
331
7C3B
  5
7C42
331
7C9A
  5
7CA1
331
7CD9
  5
7CE0
331
7C96
  5
7C9D
331
7C37
  5
7C3E
331
7C33
  5
7C3A
331
7C92
  5
7C99
331
7CD5
  5
7CDC
331
7C2F
  5
7C36
331
7C8E
  5
7C95
331
7CD1
  5
7CD8
331
7CCD
  5
7CD4
331
8E0C
  5
8E0A
331
7C2B
  5
7C32
331
7C8A
  5
7C91
331
7CC9
  5
7CD0
331
8E08
  5
8E06
  0
SORTENTSTABLE
  5
9284
102
{ACAD_REACTORS
330
8FFF
102
}
330
8FFF
100
AcDbSortentsTable
330
8F68
  0
XRECORD
  5
937A
102
{ACAD_REACTORS
330
9379
102
}
330
9379
100
AcDbXrecord
280
     1
 70
     1
  0
XRECORD
  5
937B
102
{ACAD_REACTORS
330
9379
102
}
330
9379
100
AcDbXrecord
280
     1
340
1B
  0
ACDBDETAILVIEWSTYLE
  5
83A2
102
{ACAD_XDICTIONARY
360
93BB
102
}
102
{ACAD_REACTORS
330
7918
330
9364
102
}
330
7918
100
AcDbModelDocViewStyle
 70
     0
  3
Imperial24
290
     0
100
AcDbDetailViewStyle
 70
     0
 71
     0
 90
        3
 71
     1
340
26
 40
0.24
340
0
 40
0.24
300

 40
0.36
280
     3
 71
     2
340
2B
 90
       25
 71
     3
340
26
 40
0.24
 90
        1
 40
0.75
 90
        1
300
%<\AcVar ViewType \f "%tc1">% %<\AcVar ViewDetailId>%\PSCALE %<\AcVar ViewScale \f "%sn">%
 71
     4
340
2B
 90
       25
340
2B
 90
       25
280
     0
  0
ACDBDETAILVIEWSTYLE
  5
7919
102
{ACAD_XDICTIONARY
360
93B7
102
}
102
{ACAD_REACTORS
330
7918
330
9365
102
}
330
7918
100
AcDbModelDocViewStyle
 70
     0
  3
Metric50
290
     0
100
AcDbDetailViewStyle
 70
     0
 71
     0
 90
        3
 71
     1
340
26
 40
5.0
340
0
 40
5.0
300

 40
0.0
280
     1
 71
     2
340
2B
 90
       25
 71
     3
340
26
 40
5.0
 90
        0
 40
15.0
 90
        1
300
%<\AcVar ViewDetailId>% (%<\AcVar ViewScale \f "%sn">%)
 71
     4
340
2B
 90
       25
340
2B
 90
       25
280
     0
  0
LAYOUT
  5
3A
102
{ACAD_XDICTIONARY
360
939D
102
}
102
{ACAD_REACTORS
330
2F
102
}
330
2F
100
AcDbPlotSettings
  1

  2
Canon LBP5700 LIPS
  4
A4
  6

 40
5.873749732971191
 41
5.873747825622557
 42
5.873748779296875
 43
5.873748779296875
 44
209.9733276367186
 45
296.9259948730469
 46
0.0
 47
0.0
 48
0.0
 49
0.0
140
0.0
141
0.0
142
1.0
143
1.756405534380663
 70
 11952
 72
     1
 73
     1
 74
     0
  7
monochrome.ctb
 75
     0
147
0.5693445963506461
148
40.44454632225288
149
0.9966442953020191
100
AcDbLayout
  1
Model
 70
     1
 71
     0
 10
0.0
 20
0.0
 11
12.0
 21
9.0
 12
0.0
 22
0.0
 32
0.0
 14
0.0
 24
0.0
 34
0.0
 15
0.0
 25
0.0
 35
0.0
146
0.0
 13
0.0
 23
0.0
 33
0.0
 16
1.0
 26
0.0
 36
0.0
 17
0.0
 27
1.0
 37
0.0
 76
     0
330
37
331
28
1001
ACAD_PSEXT
1000
Canon LBP5700 LIPS
1000
Canon LBP5700 LIPS
1000
USB001
1000

1070
     0
  0
LAYOUT
  5
9005
102
{ACAD_XDICTIONARY
360
93BD
102
}
102
{ACAD_REACTORS
330
2F
102
}
330
2F
100
AcDbPlotSettings
  1

  2
EPSON EP-802A
  4

  6

 40
0.0
 41
0.0
 42
0.0
 43
0.0
 44
0.0
 45
0.0
 46
0.0
 47
0.0
 48
0.0
 49
0.0
140
0.0
141
0.0
142
1.0
143
1.0
 70
   688
 72
     0
 73
     0
 74
     5
  7

 75
    16
147
1.0
148
0.0
149
0.0
100
AcDbLayout
  1
レイアウト1
 70
     1
 71
     1
 10
0.0
 20
0.0
 11
12.0
 21
9.0
 12
0.0
 22
0.0
 32
0.0
 14
0.0
 24
0.0
 34
0.0
 15
0.0
 25
0.0
 35
0.0
146
0.0
 13
0.0
 23
0.0
 33
0.0
 16
1.0
 26
0.0
 36
0.0
 17
0.0
 27
1.0
 37
0.0
 76
     0
330
9004
  0
MATERIAL
  5
12
102
{ACAD_XDICTIONARY
360
799D
102
}
102
{ACAD_REACTORS
330
10
102
}
330
10
100
AcDbMaterial
  1
ByBlock
 73
     1
 78
     1
172
     1
176
     1
270
     1
274
     1
  0
MATERIAL
  5
11
102
{ACAD_XDICTIONARY
360
799B
102
}
102
{ACAD_REACTORS
330
10
102
}
330
10
100
AcDbMaterial
  1
ByLayer
 73
     1
 78
     1
172
     1
176
     1
270
     1
274
     1
  0
MATERIAL
  5
13
102
{ACAD_XDICTIONARY
360
799F
102
}
102
{ACAD_REACTORS
330
10
102
}
330
10
100
AcDbMaterial
  1
Global
 73
     1
 78
     1
172
     1
176
     1
270
     1
274
     1
  0
MLEADERSTYLE
  5
1758
102
{ACAD_REACTORS
330
1757
102
}
330
1757
100
AcDbMLeaderStyle
170
     2
171
     1
172
     0
 90
        2
 40
0.0
 41
0.0
173
     1
 91
-1056964608
340
29
 92
       -2
290
     1
 42
2.0
291
     1
 43
0.36
  3
Standard
 44
4.0
300

342
26
174
     1
178
     6
175
     1
176
     0
 93
-1056964608
 45
4.0
292
     0
297
     0
 46
4.0
 94
-1056964608
 47
1.0
 49
1.0
140
1.0
293
     1
141
0.0
294
     1
177
     0
142
1.0
295
     0
296
     0
143
0.125
1001
ACAD_MLEADERVER
1070
     2
  0
MLINESTYLE
  5
2D
102
{ACAD_REACTORS
330
2C
102
}
330
2C
100
AcDbMlineStyle
  2
STANDARD
 70
     0
  3

 62
   256
 51
90.0
 52
90.0
 71
     2
 49
0.5
 62
   256
  6
BYLAYER
 49
-0.5
 62
   256
  6
BYLAYER
  0
PLOTSETTINGS
  5
7876
102
{ACAD_XDICTIONARY
360
939F
102
}
102
{ACAD_REACTORS
330
2E
102
}
330
2E
100
AcDbPlotSettings
  1
PDF-A4
  2
Adobe PDF
  4
A4
  6

 40
3.174999952316281
 41
3.174999952316281
 42
3.175003051757812
 43
3.17498779296875
 44
209.9098358154297
 45
297.0318298339844
 46
2.5
 47
2.5
 48
0.0
 49
0.0
140
0.0
141
0.0
142
1.0
143
1.0
 70
  2736
 72
     1
 73
     0
 74
     5
  7
monochrome.ctb
 75
    16
147
1.0
148
0.0
149
0.0
1001
ACAD_PSEXT
1000
Adobe PDF
1000
Adobe PDF Converter
1000
My Documents
1000
Adobe PDF の作成
1070
     0
  0
ACDBPLACEHOLDER
  5
F
102
{ACAD_REACTORS
330
E
102
}
330
E
  0
SCALE
  5
1736
102
{ACAD_REACTORS
330
1735
102
}
330
1735
100
AcDbScale
 70
     0
300
1:1
140
1.0
141
1.0
290
     1
  0
SCALE
  5
7928
102
{ACAD_REACTORS
330
1735
102
}
330
1735
100
AcDbScale
 70
     0
300
1:2
140
1.0
141
2.0
290
     0
  0
SCALE
  5
7929
102
{ACAD_REACTORS
330
1735
102
}
330
1735
100
AcDbScale
 70
     0
300
1:4
140
1.0
141
4.0
290
     0
  0
SCALE
  5
792A
102
{ACAD_REACTORS
330
1735
102
}
330
1735
100
AcDbScale
 70
     0
300
1:5
140
1.0
141
5.0
290
     0
  0
SCALE
  5
792B
102
{ACAD_REACTORS
330
1735
102
}
330
1735
100
AcDbScale
 70
     0
300
1:8
140
1.0
141
8.0
290
     0
  0
SCALE
  5
792C
102
{ACAD_REACTORS
330
1735
102
}
330
1735
100
AcDbScale
 70
     0
300
1:10
140
1.0
141
10.0
290
     0
  0
SCALE
  5
792D
102
{ACAD_REACTORS
330
1735
102
}
330
1735
100
AcDbScale
 70
     0
300
1:16
140
1.0
141
16.0
290
     0
  0
SCALE
  5
792E
102
{ACAD_REACTORS
330
1735
102
}
330
1735
100
AcDbScale
 70
     0
300
1:20
140
1.0
141
20.0
290
     0
  0
SCALE
  5
792F
102
{ACAD_REACTORS
330
1735
102
}
330
1735
100
AcDbScale
 70
     0
300
1:30
140
1.0
141
30.0
290
     0
  0
SCALE
  5
7930
102
{ACAD_REACTORS
330
1735
102
}
330
1735
100
AcDbScale
 70
     0
300
1:40
140
1.0
141
40.0
290
     0
  0
SCALE
  5
7931
102
{ACAD_REACTORS
330
1735
102
}
330
1735
100
AcDbScale
 70
     0
300
1:50
140
1.0
141
50.0
290
     0
  0
SCALE
  5
7932
102
{ACAD_REACTORS
330
1735
102
}
330
1735
100
AcDbScale
 70
     0
300
1:100
140
1.0
141
100.0
290
     0
  0
SCALE
  5
7933
102
{ACAD_REACTORS
330
1735
102
}
330
1735
100
AcDbScale
 70
     0
300
2:1
140
2.0
141
1.0
290
     0
  0
SCALE
  5
7934
102
{ACAD_REACTORS
330
1735
102
}
330
1735
100
AcDbScale
 70
     0
300
4:1
140
4.0
141
1.0
290
     0
  0
SCALE
  5
7935
102
{ACAD_REACTORS
330
1735
102
}
330
1735
100
AcDbScale
 70
     0
300
8:1
140
8.0
141
1.0
290
     0
  0
SCALE
  5
7936
102
{ACAD_REACTORS
330
1735
102
}
330
1735
100
AcDbScale
 70
     0
300
10:1
140
10.0
141
1.0
290
     0
  0
SCALE
  5
7937
102
{ACAD_REACTORS
330
1735
102
}
330
1735
100
AcDbScale
 70
     0
300
100:1
140
100.0
141
1.0
290
     0
  0
ACDBSECTIONVIEWSTYLE
  5
83A0
102
{ACAD_XDICTIONARY
360
93B9
102
}
102
{ACAD_REACTORS
330
7916
330
9362
102
}
330
7916
100
AcDbModelDocViewStyle
 70
     0
  3
Imperial24
290
     0
100
AcDbSectionViewStyle
 70
     0
 71
     0
 90
       78
 71
     1
340
26
 40
0.24
340
0
340
0
 40
0.24
300
I, O, Q, S, X, Z
 40
0.48
 90
        3
 40
0.18
 90
        1
 71
     2
340
2B
 90
       25
340
2B
 90
       50
 40
0.24
 40
0.0
 40
0.24
 71
     3
340
26
 40
0.24
 90
        1
 40
0.75
 90
        1
300
%<\AcVar ViewType \f "%tc1">% %<\AcVar ViewSectionStartId>%-%<\AcVar ViewSectionEndId>%\PSCALE %<\AcVar ViewScale \f "%sn">%
 71
     4
300
ANSI31
 40
1.0
 90
        0
290
     0
290
     0
 90
        6
 40
0.0
 40
1.570796326794896
 40
0.2617993877991494
 40
1.308996938995747
 40
-0.2617993877991494
 40
1.832595714594044
  0
ACDBSECTIONVIEWSTYLE
  5
7917
102
{ACAD_XDICTIONARY
360
93B5
102
}
102
{ACAD_REACTORS
330
7916
330
9363
102
}
330
7916
100
AcDbModelDocViewStyle
 70
     0
  3
Metric50
290
     0
100
AcDbSectionViewStyle
 70
     0
 71
     0
 90
      102
 71
     1
340
26
 40
5.0
340
0
340
0
 40
5.0
300
I, O, Q, S, X, Z
 40
10.0
 90
        0
 40
2.5
 90
        0
 71
     2
340
2B
 90
       25
340
2B
 90
       50
 40
5.0
 40
2.5
 40
5.0
 71
     3
340
26
 40
5.0
 90
        0
 40
15.0
 90
        1
300
%<\AcVar ViewSectionStartId>%-%<\AcVar ViewSectionEndId>% (%<\AcVar ViewScale \f "%sn">%)
 71
     4
300
ANSI31
 40
1.0
 90
        0
290
     0
290
     0
 90
        6
 40
0.0
 40
1.570796326794896
 40
0.2617993877991494
 40
1.308996938995747
 40
-0.2617993877991494
 40
1.832595714594044
  0
TABLESTYLE
  5
32
102
{ACAD_XDICTIONARY
360
177A
102
}
102
{ACAD_REACTORS
330
31
102
}
330
31
100
AcDbTableStyle
  3
Standard
 70
     0
 71
     0
 40
1.5
 41
1.5
280
     0
281
     0
  7
STANDARD
140
4.5
170
     2
 62
     0
 63
     7
283
     0
274
    -2
284
     1
 64
     0
275
    -2
285
     1
 65
     0
276
    -2
286
     1
 66
     0
277
    -2
287
     1
 67
     0
278
    -2
288
     1
 68
     0
279
    -2
289
     1
 69
     0
  7
STANDARD
140
6.0
170
     5
 62
     0
 63
     7
283
     0
274
    -2
284
     1
 64
     0
275
    -2
285
     1
 65
     0
276
    -2
286
     1
 66
     0
277
    -2
287
     1
 67
     0
278
    -2
288
     1
 68
     0
279
    -2
289
     1
 69
     0
  7
STANDARD
140
4.5
170
     5
 62
     0
 63
     7
283
     0
274
    -2
284
     1
 64
     0
275
    -2
285
     1
 65
     0
276
    -2
286
     1
 66
     0
277
    -2
287
     1
 67
     0
278
    -2
288
     1
 68
     0
279
    -2
289
     1
 69
     0
  0
VISUALSTYLE
  5
1A
102
{ACAD_XDICTIONARY
360
9386
102
}
102
{ACAD_REACTORS
330
14
102
}
330
14
100
AcDbVisualStyle
  2

 70
     4
 71
     0
 72
     2
 73
     0
 90
        0
 40
-0.6
 41
-30.0
 62
     5
 63
     7
 74
     1
 91
        4
 64
     7
 65
   257
 75
     1
175
     1
 42
1.0
 92
        0
 66
   257
 43
1.0
 76
     1
 77
     6
 78
     2
 67
     7
 79
     5
170
     0
171
     0
290
     0
174
     0
 93
        1
 44
0.0
173
     0
291
     0
 45
0.0
1001
ACAD
1000
AcDbSavedByObjectVersion
1070
     0
  0
VISUALSTYLE
  5
1C
102
{ACAD_XDICTIONARY
360
938A
102
}
102
{ACAD_REACTORS
330
14
102
}
330
14
100
AcDbVisualStyle
  2

 70
     6
 71
     1
 72
     2
 73
     2
 90
        0
 40
-0.6
 41
-30.0
 62
     5
 63
     7
 74
     2
 91
        2
 64
     7
 65
   257
 75
     2
175
     1
 42
40.0
 92
        0
 66
   257
 43
1.0
 76
     1
 77
     6
 78
     2
 67
     7
 79
     3
170
     0
171
     0
290
     0
174
     0
 93
        1
 44
0.0
173
     0
291
     0
 45
0.0
1001
ACAD
1000
AcDbSavedByObjectVersion
1070
     0
  0
VISUALSTYLE
  5
1B
102
{ACAD_XDICTIONARY
360
9388
102
}
102
{ACAD_REACTORS
330
14
102
}
330
14
100
AcDbVisualStyle
  2

 70
     5
 71
     0
 72
     2
 73
     0
 90
        0
 40
-0.6
 41
-30.0
 62
     5
 63
     7
 74
     1
 91
        4
 64
     7
 65
   257
 75
     1
175
     1
 42
1.0
 92
        0
 66
   257
 43
1.0
 76
     1
 77
     6
 78
     2
 67
     7
 79
     5
170
     0
171
     0
290
     0
174
     0
 93
        1
 44
0.0
173
     0
291
     0
 45
0.0
1001
ACAD
1000
AcDbSavedByObjectVersion
1070
     0
  0
VISUALSTYLE
  5
19
102
{ACAD_XDICTIONARY
360
9384
102
}
102
{ACAD_REACTORS
330
14
102
}
330
14
100
AcDbVisualStyle
  2

 70
     7
 71
     1
 72
     0
 73
     1
 90
        0
 40
-0.6
 41
-30.0
 62
     5
 63
     7
 74
     0
 91
        4
 64
     7
 65
   257
 75
     1
175
     1
 42
1.0
 92
        8
 66
     7
 43
1.0
 76
     1
 77
     6
 78
     2
 67
     7
 79
     5
170
     0
171
     0
290
     0
174
     0
 93
        1
 44
0.0
173
     0
291
     1
 45
0.0
1001
ACAD
1000
AcDbSavedByObjectVersion
1070
     0
  0
VISUALSTYLE
  5
20
102
{ACAD_XDICTIONARY
360
9392
102
}
102
{ACAD_REACTORS
330
14
102
}
330
14
100
AcDbVisualStyle
  2

 70
    12
 71
     2
 72
     2
 73
     0
 90
        0
 40
-0.6
 41
-30.0
 62
     5
 63
     7
 74
     1
 91
        4
 64
     7
 65
   257
 75
     1
175
     1
 42
1.0
 92
        8
 66
     7
 43
1.0
 76
     1
 77
     6
 78
     2
 67
     7
 79
     5
170
     0
171
     0
290
     0
174
     0
 93
        1
 44
50.0
173
     0
291
     1
 45
0.0
1001
ACAD
1000
AcDbSavedByObjectVersion
1070
     0
  0
VISUALSTYLE
  5
24
102
{ACAD_XDICTIONARY
360
939A
102
}
102
{ACAD_REACTORS
330
14
102
}
330
14
100
AcDbVisualStyle
  2

 70
    16
 71
     2
 72
     2
 73
     3
 90
        0
 40
-0.6
 41
-30.0
 62
     5
 63
     8
 74
     1
 91
        4
 64
     7
 65
   257
 75
     1
175
     1
 42
1.0
 92
        8
 66
     8
 43
1.0
 76
     1
 77
     6
 78
     2
 67
     7
 79
     5
170
     0
171
     0
290
     0
174
     0
 93
        1
 44
0.0
173
     0
291
     1
 45
0.0
1001
ACAD
1000
AcDbSavedByObjectVersion
1070
     0
  0
VISUALSTYLE
  5
1D
102
{ACAD_XDICTIONARY
360
938C
102
}
102
{ACAD_REACTORS
330
14
102
}
330
14
100
AcDbVisualStyle
  2

 70
     9
 71
     3
 72
     2
 73
     0
 90
        0
 40
-0.6
 41
-30.0
 62
     5
 63
     7
 74
     2
 91
        2
 64
     7
 65
   257
 75
     1
175
     1
 42
40.0
 92
        8
 66
     7
 43
1.0
 76
     1
 77
     6
 78
     2
 67
     7
 79
     3
170
     0
171
     0
290
     0
174
     0
 93
        1
 44
0.0
173
     0
291
     0
 45
0.0
1001
ACAD
1000
AcDbSavedByObjectVersion
1070
     0
  0
VISUALSTYLE
  5
1F
102
{ACAD_XDICTIONARY
360
9390
102
}
102
{ACAD_REACTORS
330
14
102
}
330
14
100
AcDbVisualStyle
  2

 70
    11
 71
     2
 72
     2
 73
     0
 90
        0
 40
-0.6
 41
-30.0
 62
     5
 63
     7
 74
     1
 91
        4
 64
     7
 65
   257
 75
     1
175
     1
 42
1.0
 92
        8
 66
     7
 43
1.0
 76
     1
 77
     6
 78
     2
 67
     7
 79
     5
170
     0
171
     0
290
     0
174
     0
 93
        1
 44
-50.0
173
     0
291
     1
 45
0.0
1001
ACAD
1000
AcDbSavedByObjectVersion
1070
     0
  0
VISUALSTYLE
  5
7915
102
{ACAD_XDICTIONARY
360
93B3
102
}
102
{ACAD_REACTORS
330
14
102
}
330
14
100
AcDbVisualStyle
  2

 70
    22
 71
     2
 72
     2
 73
     0
 90
        0
 40
-0.6
 41
-30.0
 62
     5
 63
     7
 74
     1
 91
        4
 64
     7
 65
   257
 75
     1
175
     1
 42
1.0
 92
        8
 66
     7
 43
1.0
 76
     1
 77
     6
 78
     2
 67
     7
 79
     5
170
     0
171
     0
290
     0
174
     0
 93
        1
 44
0.0
173
     0
291
     1
 45
0.0
1001
ACAD
1000
AcDbSavedByObjectVersion
1070
     0
  0
VISUALSTYLE
  5
23
102
{ACAD_XDICTIONARY
360
9398
102
}
102
{ACAD_REACTORS
330
14
102
}
330
14
100
AcDbVisualStyle
  2

 70
    15
 71
     2
 72
     2
 73
     0
 90
        0
 40
-0.6
 41
-30.0
 62
     5
 63
     7
 74
     1
 91
        4
 64
     7
 65
   257
 75
     1
175
     1
 42
1.0
 92
        8
 66
     7
 43
1.0
 76
     1
 77
     6
 78
     2
 67
     7
 79
     5
170
     0
171
     0
290
     0
174
     0
 93
        1
 44
0.0
173
     0
291
     1
 45
0.0
1001
ACAD
1000
AcDbSavedByObjectVersion
1070
     0
  0
VISUALSTYLE
  5
15
102
{ACAD_XDICTIONARY
360
937C
102
}
102
{ACAD_REACTORS
330
14
102
}
330
14
100
AcDbVisualStyle
  2

 70
     0
 71
     2
 72
     1
 73
     1
 90
        2
 40
-0.6
 41
30.0
 62
     5
 63
     7
 74
     0
 91
        4
 64
     7
 65
   257
 75
     1
175
     1
 42
1.0
 92
        8
 66
     7
 43
1.0
 76
     1
 77
     6
 78
     2
 67
     7
 79
     5
170
     0
171
     0
290
     0
174
     0
 93
       13
 44
0.0
173
     0
291
     1
 45
0.0
1001
ACAD
1000
AcDbSavedByObjectVersion
1070
     0
  0
VISUALSTYLE
  5
16
102
{ACAD_XDICTIONARY
360
937E
102
}
102
{ACAD_REACTORS
330
14
102
}
330
14
100
AcDbVisualStyle
  2

 70
     1
 71
     2
 72
     1
 73
     1
 90
        2
 40
-0.6
 41
30.0
 62
     5
 63
     7
 74
     1
 91
        4
 64
     7
 65
   257
 75
     1
175
     1
 42
1.0
 92
        0
 66
   257
 43
1.0
 76
     1
 77
     6
 78
     2
 67
     7
 79
     5
170
     0
171
     0
290
     0
174
     0
 93
       13
 44
0.0
173
     0
291
     1
 45
0.0
1001
ACAD
1000
AcDbSavedByObjectVersion
1070
     0
  0
VISUALSTYLE
  5
17
102
{ACAD_XDICTIONARY
360
9380
102
}
102
{ACAD_REACTORS
330
14
102
}
330
14
100
AcDbVisualStyle
  2

 70
     2
 71
     2
 72
     2
 73
     1
 90
        2
 40
-0.6
 41
30.0
 62
     5
 63
     7
 74
     0
 91
        4
 64
     7
 65
   257
 75
     1
175
     1
 42
1.0
 92
        0
 66
     7
 43
1.0
 76
     1
 77
     6
 78
     2
 67
     7
 79
     5
170
     0
171
     0
290
     0
174
     0
 93
       13
 44
0.0
173
     0
291
     1
 45
0.0
1001
ACAD
1000
AcDbSavedByObjectVersion
1070
     0
  0
VISUALSTYLE
  5
18
102
{ACAD_XDICTIONARY
360
9382
102
}
102
{ACAD_REACTORS
330
14
102
}
330
14
100
AcDbVisualStyle
  2

 70
     3
 71
     2
 72
     2
 73
     1
 90
        2
 40
-0.6
 41
30.0
 62
     5
 63
     7
 74
     1
 91
        4
 64
     7
 65
   257
 75
     1
175
     1
 42
1.0
 92
        0
 66
   257
 43
1.0
 76
     1
 77
     6
 78
     2
 67
     7
 79
     5
170
     0
171
     0
290
     0
174
     0
 93
       13
 44
0.0
173
     0
291
     1
 45
0.0
1001
ACAD
1000
AcDbSavedByObjectVersion
1070
     0
  0
VISUALSTYLE
  5
790D
102
{ACAD_XDICTIONARY
360
93A3
102
}
102
{ACAD_REACTORS
330
14
102
}
330
14
100
AcDbVisualStyle
  2

 70
     6
 71
     1
 72
     2
 73
     2
 90
        0
 40
-0.6
 41
-30.0
 62
     5
 63
     7
 74
     2
 91
        2
 64
     7
 65
   257
 75
     2
175
     1
 42
40.0
 92
        0
 66
   257
 43
1.0
 76
     1
 77
     6
 78
     2
 67
     7
 79
     3
170
     0
171
     0
290
     0
174
     0
 93
        1
 44
0.0
173
     0
291
     0
 45
0.0
1001
ACAD
1000
AcDbSavedByObjectVersion
1070
     0
  0
VISUALSTYLE
  5
7913
102
{ACAD_XDICTIONARY
360
93AF
102
}
102
{ACAD_REACTORS
330
14
102
}
330
14
100
AcDbVisualStyle
  2

 70
    20
 71
     2
 72
     2
 73
     0
 90
        0
 40
-0.6
 41
-30.0
 62
     5
 63
     7
 74
     1
 91
        4
 64
     7
 65
   257
 75
     1
175
     1
 42
1.0
 92
       10
 66
     7
 43
1.0
 76
     1
 77
     6
 78
     2
 67
     7
 79
     5
170
     0
171
     0
290
     0
174
     0
 93
        1
 44
0.0
173
     0
291
     1
 45
0.0
1001
ACAD
1000
AcDbSavedByObjectVersion
1070
     0
  0
VISUALSTYLE
  5
22
102
{ACAD_XDICTIONARY
360
9396
102
}
102
{ACAD_REACTORS
330
14
102
}
330
14
100
AcDbVisualStyle
  2

 70
    14
 71
     2
 72
     2
 73
     0
 90
        0
 40
-0.6
 41
-30.0
 62
     5
 63
     7
 74
     1
 91
        4
 64
     7
 65
   257
 75
     7
175
     7
 42
1.0
 92
        8
 66
     7
 43
1.0
 76
     1
 77
     6
 78
     2
 67
     7
 79
     5
170
     0
171
     0
290
     0
174
     0
 93
        1
 44
0.0
173
     0
291
     1
 45
0.0
1001
ACAD
1000
AcDbSavedByObjectVersion
1070
     0
  0
VISUALSTYLE
  5
7914
102
{ACAD_XDICTIONARY
360
93B1
102
}
102
{ACAD_REACTORS
330
14
102
}
330
14
100
AcDbVisualStyle
  2

 70
    21
 71
     2
 72
     2
 73
     0
 90
        0
 40
-0.6
 41
-30.0
 62
     5
 63
     7
 74
     1
 91
        4
 64
     7
 65
   257
 75
     1
175
     1
 42
1.0
 92
        9
 66
     7
 43
1.0
 76
     1
 77
     6
 78
     2
 67
     7
 79
     5
170
     0
171
     0
290
     0
174
     0
 93
        1
 44
0.0
173
     0
291
     1
 45
0.0
1001
ACAD
1000
AcDbSavedByObjectVersion
1070
     0
  0
VISUALSTYLE
  5
1E
102
{ACAD_XDICTIONARY
360
938E
102
}
102
{ACAD_REACTORS
330
14
102
}
330
14
100
AcDbVisualStyle
  2

 70
     8
 71
     2
 72
     2
 73
     0
 90
        0
 40
-0.6
 41
-30.0
 62
     5
 63
     7
 74
     1
 91
        0
 64
     7
 65
   257
 75
     1
175
     1
 42
1.0
 92
        8
 66
     8
 43
1.0
 76
     1
 77
     6
 78
     2
 67
     7
 79
     5
170
     0
171
     0
290
     0
174
     0
 93
       13
 44
0.0
173
     0
291
     0
 45
0.0
1001
ACAD
1000
AcDbSavedByObjectVersion
1070
     0
  0
VISUALSTYLE
  5
7912
102
{ACAD_XDICTIONARY
360
93AD
102
}
102
{ACAD_REACTORS
330
14
102
}
330
14
100
AcDbVisualStyle
  2

 70
    27
 71
     2
 72
     2
 73
     1
 90
        2
 40
-0.6
 41
30.0
 62
     5
 63
     7
 74
     0
 91
        4
 64
     7
 65
   257
 75
     1
175
     1
 42
1.0
 92
        8
 66
   257
 43
1.0
 76
     1
 77
     6
 78
     2
 67
     8
 79
     3
170
     0
171
     0
290
     0
174
     0
 93
        5
 44
0.0
173
     0
291
     0
 45
0.0
1001
ACAD
1000
AcDbSavedByObjectVersion
1070
     0
  0
VISUALSTYLE
  5
7911
102
{ACAD_XDICTIONARY
360
93AB
102
}
102
{ACAD_REACTORS
330
14
102
}
330
14
100
AcDbVisualStyle
  2

 70
    26
 71
     2
 72
     2
 73
     1
 90
        2
 40
-0.6
 41
30.0
 62
     5
 63
     7
 74
     1
 91
       10
 64
     7
 65
   257
 75
     2
175
     1
 42
1.0
 92
        8
 66
   257
 43
1.0
 76
     1
 77
     6
 78
     2
 67
     7
 79
     3
170
     0
171
     0
290
     0
174
     0
 93
        5
 44
0.0
173
     0
291
     0
 45
0.0
1001
ACAD
1000
AcDbSavedByObjectVersion
1070
     0
  0
VISUALSTYLE
  5
790E
102
{ACAD_XDICTIONARY
360
93A5
102
}
102
{ACAD_REACTORS
330
14
102
}
330
14
100
AcDbVisualStyle
  2

 70
    23
 71
     2
 72
     2
 73
     3
 90
        0
 40
-0.6
 41
-30.0
 62
     5
 63
     7
 74
     2
 91
        2
 64
     7
 65
     7
 75
     1
175
     1
 42
40.0
 92
        8
 66
     7
 43
1.0
 76
     1
 77
     6
 78
     2
 67
     7
 79
     3
170
     0
171
     0
290
     0
174
     0
 93
        1
 44
0.0
173
     0
291
     0
 45
0.0
1001
ACAD
1000
AcDbSavedByObjectVersion
1070
     0
  0
VISUALSTYLE
  5
790F
102
{ACAD_XDICTIONARY
360
93A7
102
}
102
{ACAD_REACTORS
330
14
102
}
330
14
100
AcDbVisualStyle
  2

 70
    24
 71
     1
 72
     2
 73
     2
 90
        0
 40
-0.6
 41
-30.0
 62
     5
 63
     7
 74
     2
 91
        2
 64
     7
 65
     7
 75
     1
175
     1
 42
40.0
 92
       11
 66
     7
 43
1.0
 76
     1
 77
     6
 78
     2
 67
     7
 79
     6
170
     0
171
     0
290
     0
174
     0
 93
        1
 44
0.0
173
     0
291
     0
 45
0.0
1001
ACAD
1000
AcDbSavedByObjectVersion
1070
     0
  0
VISUALSTYLE
  5
21
102
{ACAD_XDICTIONARY
360
9394
102
}
102
{ACAD_REACTORS
330
14
102
}
330
14
100
AcDbVisualStyle
  2

 70
    13
 71
     2
 72
     2
 73
     0
 90
        0
 40
-0.6
 41
-30.0
 62
     5
 63
     7
 74
     1
 91
        4
 64
     7
 65
   257
 75
     1
175
     1
 42
1.0
 92
       12
 66
     7
 43
1.0
 76
     1
 77
     6
 78
     2
 67
     7
 79
     5
170
     0
171
     0
290
     0
174
     0
 93
        1
 44
0.0
173
     0
291
     1
 45
0.0
1001
ACAD
1000
AcDbSavedByObjectVersion
1070
     0
  0
VISUALSTYLE
  5
790C
102
{ACAD_XDICTIONARY
360
93A1
102
}
102
{ACAD_REACTORS
330
14
102
}
330
14
100
AcDbVisualStyle
  2

 70
     5
 71
     0
 72
     2
 73
     0
 90
        0
 40
-0.6
 41
-30.0
 62
     5
 63
     7
 74
     1
 91
        4
 64
     7
 65
   257
 75
     1
175
     1
 42
1.0
 92
        0
 66
   257
 43
1.0
 76
     1
 77
     6
 78
     2
 67
     7
 79
     3
170
     0
171
     0
290
     0
174
     0
 93
        1
 44
0.0
173
     0
291
     0
 45
0.0
1001
ACAD
1000
AcDbSavedByObjectVersion
1070
     0
  0
VISUALSTYLE
  5
7910
102
{ACAD_XDICTIONARY
360
93A9
102
}
102
{ACAD_REACTORS
330
14
102
}
330
14
100
AcDbVisualStyle
  2

 70
    25
 71
     2
 72
     2
 73
     1
 90
        1
 40
0.5
 41
-30.0
 62
     5
 63
     7
 74
     1
 91
        0
 64
     7
 65
   257
 75
     1
175
     1
 42
1.0
 92
        8
 66
     7
 43
1.0
 76
     1
 77
     6
 78
     2
 67
     7
 79
     3
170
     0
171
     0
290
     0
174
     0
 93
       13
 44
0.0
173
     0
291
     0
 45
0.0
1001
ACAD
1000
AcDbSavedByObjectVersion
1070
     0
  0
DICTIONARYVAR
  5
177F
102
{ACAD_REACTORS
330
454
102
}
330
454
100
DictionaryVariables
280
     0
  1
1:1
  0
DICTIONARYVAR
  5
177D
102
{ACAD_REACTORS
330
454
102
}
330
454
100
DictionaryVariables
280
     0
  1
STANDARD
  0
DICTIONARYVAR
  5
455
102
{ACAD_REACTORS
330
454
102
}
330
454
100
DictionaryVariables
280
     0
  1
STANDARD
  0
DICTIONARYVAR
  5
794B
102
{ACAD_REACTORS
330
454
102
}
330
454
100
DictionaryVariables
280
     0
  1
Metric50
  0
DICTIONARYVAR
  5
794C
102
{ACAD_REACTORS
330
454
102
}
330
454
100
DictionaryVariables
280
     0
  1
Metric50
  0
DICTIONARYVAR
  5
798A
102
{ACAD_REACTORS
330
454
102
}
330
454
100
DictionaryVariables
280
     0
  1
2
  0
DICTIONARYVAR
  5
7988
102
{ACAD_REACTORS
330
454
102
}
330
454
100
DictionaryVariables
280
     0
  1
1
  0
DICTIONARYVAR
  5
7987
102
{ACAD_REACTORS
330
454
102
}
330
454
100
DictionaryVariables
280
     0
  1
0
  0
DICTIONARYVAR
  5
794D
102
{ACAD_REACTORS
330
454
102
}
330
454
100
DictionaryVariables
280
     0
  1
1
  0
DICTIONARYVAR
  5
794E
102
{ACAD_REACTORS
330
454
102
}
330
454
100
DictionaryVariables
280
     0
  1
15
  0
DICTIONARYVAR
  5
1780
102
{ACAD_REACTORS
330
454
102
}
330
454
100
DictionaryVariables
280
     0
  1
0
  0
DICTIONARYVAR
  5
177E
102
{ACAD_REACTORS
330
454
102
}
330
454
100
DictionaryVariables
280
     0
  1
0
  0
DICTIONARYVAR
  5
798B
102
{ACAD_REACTORS
330
454
102
}
330
454
100
DictionaryVariables
280
     0
  1
1
  0
DICTIONARYVAR
  5
7986
102
{ACAD_REACTORS
330
454
102
}
330
454
100
DictionaryVariables
280
     0
  1
127
  0
DICTIONARYVAR
  5
9375
102
{ACAD_REACTORS
330
454
102
}
330
454
100
DictionaryVariables
280
     0
  1
2
  0
DICTIONARY
  5
A1
102
{ACAD_REACTORS
330
9F
102
}
330
9F
100
AcDbDictionary
281
     1
  0
XRECORD
  5
C1
102
{ACAD_REACTORS
330
9F
102
}
330
9F
100
AcDbXrecord
280
     1
 90
-1023410169
  0
XRECORD
  5
74C1
102
{ACAD_REACTORS
330
74C0
102
}
330
74C0
100
AcDbXrecord
280
     1
330
0
330
0
  0
XRECORD
  5
87C4
102
{ACAD_REACTORS
330
87C3
102
}
330
87C3
100
AcDbXrecord
280
     1
330
0
  0
XRECORD
  5
4878
102
{ACAD_XDICTIONARY
360
4879
102
}
102
{ACAD_REACTORS
330
105
102
}
330
105
100
AcDbXrecord
280
     1
 91
    33280
301

290
     0
302
0
330
0
 90
        8
 62
     1
370
    25
331
2B
  1
色_1
330
0
 90
        8
 62
    52
370
     9
331
0
  1
色_52
330
0
 90
        9
 62
   253
370
     0
331
2B
  1
色_253
330
0
 90
        8
 62
     3
370
     9
331
2B
  1
色_3
330
0
 90
        8
 62
     7
370
    18
331
2B
  1
色_7
330
0
 90
        8
 62
     4
370
     9
331
A5
  1
色_4
330
0
 90
        0
 62
     2
370
    13
331
A6
  1
色_2
330
0
 90
        0
 62
     1
370
     9
331
A7
  1
色_1
330
0
 90
        8
 62
   133
370
     9
331
2B
  1
色_133
330
0
 90
        8
 62
   253
370
     9
331
0
  1
色_253
330
0
 90
        8
 62
    22
370
     9
331
0
  1
色_22
330
0
 90
        8
 62
   191
370
    15
331
2B
  1
色_191
330
0
 90
        8
 62
     4
370
    15
331
2B
  1
色_4
330
0
 90
        8
 62
     3
370
    13
331
2B
  1
色_3
330
0
 90
        8
 62
     6
370
     5
331
BD
  1
色_6
330
0
 90
        8
 62
   253
370
     5
331
2B
  1
色_253
330
0
 90
        8
 62
    42
370
    13
331
0
  1
色_42
330
0
 90
        8
 62
   101
370
     5
331
0
  1
色_101
330
ED
 90
        0
 62
     7
370
    15
331
2B
  1
色_7
330
0
 90
        0
 62
     1
370
    25
331
2B
  1
色_1
330
0
 90
        8
 62
     3
370
    13
331
2B
  1
色_3
330
25
 90
        8
 62
     7
370
    18
331
2B
  1
色_7
  0
DICTIONARY
  5
93BB
330
83A2
100
AcDbDictionary
280
     1
281
     1
  3
ACAD_XREC_ROUNDTRIP
360
93BC
  0
DICTIONARY
  5
93B7
330
7919
100
AcDbDictionary
280
     1
281
     1
  3
ACAD_XREC_ROUNDTRIP
360
93B8
  0
DICTIONARY
  5
939D
330
3A
100
AcDbDictionary
280
     1
281
     1
  3
ACAD_XREC_ROUNDTRIP
360
939E
  0
DICTIONARY
  5
93BD
330
9005
100
AcDbDictionary
280
     1
281
     1
  3
ACAD_XREC_ROUNDTRIP
360
93BE
  0
DICTIONARY
  5
799D
330
12
100
AcDbDictionary
280
     1
281
     1
  3
ACAD_XREC_ROUNDTRIP
360
799E
  0
DICTIONARY
  5
799B
330
11
100
AcDbDictionary
280
     1
281
     1
  3
ACAD_XREC_ROUNDTRIP
360
799C
  0
DICTIONARY
  5
799F
330
13
100
AcDbDictionary
280
     1
281
     1
  3
ACAD_XREC_ROUNDTRIP
360
79A0
  0
DICTIONARY
  5
939F
330
7876
100
AcDbDictionary
280
     1
281
     1
  3
ACAD_XREC_ROUNDTRIP
360
93A0
  0
DICTIONARY
  5
93B9
330
83A0
100
AcDbDictionary
280
     1
281
     1
  3
ACAD_XREC_ROUNDTRIP
360
93BA
  0
DICTIONARY
  5
93B5
330
7917
100
AcDbDictionary
280
     1
281
     1
  3
ACAD_XREC_ROUNDTRIP
360
93B6
  0
DICTIONARY
  5
177A
330
32
100
AcDbDictionary
280
     1
281
     1
  3
ACAD_ROUNDTRIP_2008_TABLESTYLE_CELLSTYLEMAP
360
9376
  3
ACAD_XREC_ROUNDTRIP
360
939C
  0
DICTIONARY
  5
9386
330
1A
100
AcDbDictionary
280
     1
281
     1
  3
ACAD_XREC_ROUNDTRIP
360
9387
  0
DICTIONARY
  5
938A
330
1C
100
AcDbDictionary
280
     1
281
     1
  3
ACAD_XREC_ROUNDTRIP
360
938B
  0
DICTIONARY
  5
9388
330
1B
100
AcDbDictionary
280
     1
281
     1
  3
ACAD_XREC_ROUNDTRIP
360
9389
  0
DICTIONARY
  5
9384
330
19
100
AcDbDictionary
280
     1
281
     1
  3
ACAD_XREC_ROUNDTRIP
360
9385
  0
DICTIONARY
  5
9392
330
20
100
AcDbDictionary
280
     1
281
     1
  3
ACAD_XREC_ROUNDTRIP
360
9393
  0
DICTIONARY
  5
939A
330
24
100
AcDbDictionary
280
     1
281
     1
  3
ACAD_XREC_ROUNDTRIP
360
939B
  0
DICTIONARY
  5
938C
330
1D
100
AcDbDictionary
280
     1
281
     1
  3
ACAD_XREC_ROUNDTRIP
360
938D
  0
DICTIONARY
  5
9390
330
1F
100
AcDbDictionary
280
     1
281
     1
  3
ACAD_XREC_ROUNDTRIP
360
9391
  0
DICTIONARY
  5
93B3
330
7915
100
AcDbDictionary
280
     1
281
     1
  3
ACAD_XREC_ROUNDTRIP
360
93B4
  0
DICTIONARY
  5
9398
330
23
100
AcDbDictionary
280
     1
281
     1
  3
ACAD_XREC_ROUNDTRIP
360
9399
  0
DICTIONARY
  5
937C
330
15
100
AcDbDictionary
280
     1
281
     1
  3
ACAD_XREC_ROUNDTRIP
360
937D
  0
DICTIONARY
  5
937E
330
16
100
AcDbDictionary
280
     1
281
     1
  3
ACAD_XREC_ROUNDTRIP
360
937F
  0
DICTIONARY
  5
9380
330
17
100
AcDbDictionary
280
     1
281
     1
  3
ACAD_XREC_ROUNDTRIP
360
9381
  0
DICTIONARY
  5
9382
330
18
100
AcDbDictionary
280
     1
281
     1
  3
ACAD_XREC_ROUNDTRIP
360
9383
  0
DICTIONARY
  5
93A3
330
790D
100
AcDbDictionary
280
     1
281
     1
  3
ACAD_XREC_ROUNDTRIP
360
93A4
  0
DICTIONARY
  5
93AF
330
7913
100
AcDbDictionary
280
     1
281
     1
  3
ACAD_XREC_ROUNDTRIP
360
93B0
  0
DICTIONARY
  5
9396
330
22
100
AcDbDictionary
280
     1
281
     1
  3
ACAD_XREC_ROUNDTRIP
360
9397
  0
DICTIONARY
  5
93B1
330
7914
100
AcDbDictionary
280
     1
281
     1
  3
ACAD_XREC_ROUNDTRIP
360
93B2
  0
DICTIONARY
  5
938E
330
1E
100
AcDbDictionary
280
     1
281
     1
  3
ACAD_XREC_ROUNDTRIP
360
938F
  0
DICTIONARY
  5
93AD
330
7912
100
AcDbDictionary
280
     1
281
     1
  3
ACAD_XREC_ROUNDTRIP
360
93AE
  0
DICTIONARY
  5
93AB
330
7911
100
AcDbDictionary
280
     1
281
     1
  3
ACAD_XREC_ROUNDTRIP
360
93AC
  0
DICTIONARY
  5
93A5
330
790E
100
AcDbDictionary
280
     1
281
     1
  3
ACAD_XREC_ROUNDTRIP
360
93A6
  0
DICTIONARY
  5
93A7
330
790F
100
AcDbDictionary
280
     1
281
     1
  3
ACAD_XREC_ROUNDTRIP
360
93A8
  0
DICTIONARY
  5
9394
330
21
100
AcDbDictionary
280
     1
281
     1
  3
ACAD_XREC_ROUNDTRIP
360
9395
  0
DICTIONARY
  5
93A1
330
790C
100
AcDbDictionary
280
     1
281
     1
  3
ACAD_XREC_ROUNDTRIP
360
93A2
  0
DICTIONARY
  5
93A9
330
7910
100
AcDbDictionary
280
     1
281
     1
  3
ACAD_XREC_ROUNDTRIP
360
93AA
  0
DICTIONARY
  5
4879
330
4878
100
AcDbDictionary
280
     1
281
     1
  3
AcadLayerStateAnnoScale
360
487A
  0
XRECORD
  5
93BC
102
{ACAD_REACTORS
330
93BB
102
}
330
93BB
100
AcDbXrecord
280
     1
102
DISPLAYNAME
  1
Imperial24
102
FLAGS
 90
        0
  0
XRECORD
  5
93B8
102
{ACAD_REACTORS
330
93B7
102
}
330
93B7
100
AcDbXrecord
280
     1
102
DISPLAYNAME
  1
Metric50
102
FLAGS
 90
        0
  0
XRECORD
  5
939E
102
{ACAD_REACTORS
330
939D
102
}
330
939D
100
AcDbXrecord
280
     1
102
SHADEPLOT
 70
     0
102
SHADEPLOTRESLEVEL
 70
     2
102
SHADEPLOTCUSTOMDPI
 70
   300
  0
XRECORD
  5
93BE
102
{ACAD_REACTORS
330
93BD
102
}
330
93BD
100
AcDbXrecord
280
     1
102
SHADEPLOT
 70
     0
102
SHADEPLOTRESLEVEL
 70
     2
102
SHADEPLOTCUSTOMDPI
 70
   300
  0
XRECORD
  5
799E
102
{ACAD_REACTORS
330
799D
102
}
330
799D
100
AcDbXrecord
280
     1
102
MATERIAL
148
0.0
149
0.0
149
0.0
 93
        0
 94
      127
282
     0
 72
     1
 77
     1
171
     1
175
     1
179
     1
273
     0
  0
XRECORD
  5
799C
102
{ACAD_REACTORS
330
799B
102
}
330
799B
100
AcDbXrecord
280
     1
102
MATERIAL
148
0.0
149
0.0
149
0.0
 93
        0
 94
      127
282
     0
 72
     1
 77
     1
171
     1
175
     1
179
     1
273
     0
  0
XRECORD
  5
79A0
102
{ACAD_REACTORS
330
799F
102
}
330
799F
100
AcDbXrecord
280
     1
102
MATERIAL
148
0.0
149
0.0
149
0.0
 93
        0
 94
      127
282
     0
 72
     1
 77
     1
171
     1
175
     1
179
     1
273
     0
  0
XRECORD
  5
93A0
102
{ACAD_REACTORS
330
939F
102
}
330
939F
100
AcDbXrecord
280
     1
102
SHADEPLOT
 70
     1
102
SHADEPLOTRESLEVEL
 70
     4
102
SHADEPLOTCUSTOMDPI
 70
   300
  0
XRECORD
  5
93BA
102
{ACAD_REACTORS
330
93B9
102
}
330
93B9
100
AcDbXrecord
280
     1
102
DISPLAYNAME
  1
Imperial24
102
FLAGS
 90
        0
  0
XRECORD
  5
93B6
102
{ACAD_REACTORS
330
93B5
102
}
330
93B5
100
AcDbXrecord
280
     1
102
DISPLAYNAME
  1
Metric50
102
FLAGS
 90
        0
  0
CELLSTYLEMAP
  5
9376
102
{ACAD_REACTORS
330
177A
102
}
330
177A
100
AcDbCellStyleMap
 90
        3
300
CELLSTYLE
  1
TABLEFORMAT_BEGIN
 90
        5
170
     1
 91
        0
 92
    32768
 62
   257
 93
        1
300
CONTENTFORMAT
  1
CONTENTFORMAT_BEGIN
 90
        0
 91
        0
 92
      512
 93
        0
300

 40
0.0
140
1.0
 94
        5
 62
     0
340
26
144
6.0
309
CONTENTFORMAT_END
171
     1
301
MARGIN
  1
CELLMARGIN_BEGIN
 40
1.5
 40
1.5
 40
1.5
 40
1.5
 40
0.18
 40
0.18
309
CELLMARGIN_END
 94
        6
 95
        1
302
GRIDFORMAT
  1
GRIDFORMAT_BEGIN
 90
        0
 91
        1
 62
     0
 92
       -2
340
0
 93
        0
 40
0.045
309
GRIDFORMAT_END
 95
        2
302
GRIDFORMAT
  1
GRIDFORMAT_BEGIN
 90
        0
 91
        1
 62
     0
 92
       -2
340
0
 93
        0
 40
0.045
309
GRIDFORMAT_END
 95
        4
302
GRIDFORMAT
  1
GRIDFORMAT_BEGIN
 90
        0
 91
        1
 62
     0
 92
       -2
340
0
 93
        0
 40
0.045
309
GRIDFORMAT_END
 95
        8
302
GRIDFORMAT
  1
GRIDFORMAT_BEGIN
 90
        0
 91
        1
 62
     0
 92
       -2
340
0
 93
        0
 40
0.045
309
GRIDFORMAT_END
 95
       16
302
GRIDFORMAT
  1
GRIDFORMAT_BEGIN
 90
        0
 91
        1
 62
     0
 92
       -2
340
0
 93
        0
 40
0.045
309
GRIDFORMAT_END
 95
       32
302
GRIDFORMAT
  1
GRIDFORMAT_BEGIN
 90
        0
 91
        1
 62
     0
 92
       -2
340
0
 93
        0
 40
0.045
309
GRIDFORMAT_END
309
TABLEFORMAT_END
  1
CELLSTYLE_BEGIN
 90
        1
 91
        1
300
_TITLE
309
CELLSTYLE_END
300
CELLSTYLE
  1
TABLEFORMAT_BEGIN
 90
        5
170
     1
 91
        0
 92
        0
 62
   257
 93
        1
300
CONTENTFORMAT
  1
CONTENTFORMAT_BEGIN
 90
        0
 91
        0
 92
      512
 93
        0
300

 40
0.0
140
1.0
 94
        5
 62
     0
340
26
144
4.5
309
CONTENTFORMAT_END
171
     1
301
MARGIN
  1
CELLMARGIN_BEGIN
 40
1.5
 40
1.5
 40
1.5
 40
1.5
 40
0.18
 40
0.18
309
CELLMARGIN_END
 94
        6
 95
        1
302
GRIDFORMAT
  1
GRIDFORMAT_BEGIN
 90
        0
 91
        1
 62
     0
 92
       -2
340
0
 93
        0
 40
0.045
309
GRIDFORMAT_END
 95
        2
302
GRIDFORMAT
  1
GRIDFORMAT_BEGIN
 90
        0
 91
        1
 62
     0
 92
       -2
340
0
 93
        0
 40
0.045
309
GRIDFORMAT_END
 95
        4
302
GRIDFORMAT
  1
GRIDFORMAT_BEGIN
 90
        0
 91
        1
 62
     0
 92
       -2
340
0
 93
        0
 40
0.045
309
GRIDFORMAT_END
 95
        8
302
GRIDFORMAT
  1
GRIDFORMAT_BEGIN
 90
        0
 91
        1
 62
     0
 92
       -2
340
0
 93
        0
 40
0.045
309
GRIDFORMAT_END
 95
       16
302
GRIDFORMAT
  1
GRIDFORMAT_BEGIN
 90
        0
 91
        1
 62
     0
 92
       -2
340
0
 93
        0
 40
0.045
309
GRIDFORMAT_END
 95
       32
302
GRIDFORMAT
  1
GRIDFORMAT_BEGIN
 90
        0
 91
        1
 62
     0
 92
       -2
340
0
 93
        0
 40
0.045
309
GRIDFORMAT_END
309
TABLEFORMAT_END
  1
CELLSTYLE_BEGIN
 90
        2
 91
        1
300
_HEADER
309
CELLSTYLE_END
300
CELLSTYLE
  1
TABLEFORMAT_BEGIN
 90
        5
170
     1
 91
        0
 92
        0
 62
   257
 93
        1
300
CONTENTFORMAT
  1
CONTENTFORMAT_BEGIN
 90
        0
 91
        0
 92
      512
 93
        0
300

 40
0.0
140
1.0
 94
        2
 62
     0
340
26
144
4.5
309
CONTENTFORMAT_END
171
     1
301
MARGIN
  1
CELLMARGIN_BEGIN
 40
1.5
 40
1.5
 40
1.5
 40
1.5
 40
0.18
 40
0.18
309
CELLMARGIN_END
 94
        6
 95
        1
302
GRIDFORMAT
  1
GRIDFORMAT_BEGIN
 90
        0
 91
        1
 62
     0
 92
       -2
340
0
 93
        0
 40
0.045
309
GRIDFORMAT_END
 95
        2
302
GRIDFORMAT
  1
GRIDFORMAT_BEGIN
 90
        0
 91
        1
 62
     0
 92
       -2
340
0
 93
        0
 40
0.045
309
GRIDFORMAT_END
 95
        4
302
GRIDFORMAT
  1
GRIDFORMAT_BEGIN
 90
        0
 91
        1
 62
     0
 92
       -2
340
0
 93
        0
 40
0.045
309
GRIDFORMAT_END
 95
        8
302
GRIDFORMAT
  1
GRIDFORMAT_BEGIN
 90
        0
 91
        1
 62
     0
 92
       -2
340
0
 93
        0
 40
0.045
309
GRIDFORMAT_END
 95
       16
302
GRIDFORMAT
  1
GRIDFORMAT_BEGIN
 90
        0
 91
        1
 62
     0
 92
       -2
340
0
 93
        0
 40
0.045
309
GRIDFORMAT_END
 95
       32
302
GRIDFORMAT
  1
GRIDFORMAT_BEGIN
 90
        0
 91
        1
 62
     0
 92
       -2
340
0
 93
        0
 40
0.045
309
GRIDFORMAT_END
309
TABLEFORMAT_END
  1
CELLSTYLE_BEGIN
 90
        3
 91
        2
300
_DATA
309
CELLSTYLE_END
  0
XRECORD
  5
939C
102
{ACAD_REACTORS
330
177A
102
}
330
177A
100
AcDbXrecord
280
     1
102
ACAD_ROUNDTRIP_PRE2007_TABLESTYLE
 90
      512
 91
        0
  1

 92
      512
 93
        0
  2

 94
      512
 95
        0
  3

  0
XRECORD
  5
9387
102
{ACAD_REACTORS
330
9386
102
}
330
9386
100
AcDbXrecord
280
     1
102
RTVSPost2010Prop28
280
     1
102
RTVSPost2010PropOp28
 70
     1
102
RTVSPost2010Prop29
280
     1
102
RTVSPost2010PropOp29
 70
     1
102
RTVSPost2010Prop30
280
     0
102
RTVSPost2010PropOp30
 70
     1
102
RTVSPost2010Prop31
280
     0
102
RTVSPost2010PropOp31
 70
     1
102
RTVSPost2010Prop32
280
     0
102
RTVSPost2010PropOp32
 70
     1
102
RTVSPost2010Prop33
280
     0
102
RTVSPost2010PropOp33
 70
     1
102
RTVSPost2010Prop34
280
     0
102
RTVSPost2010PropOp34
 70
     1
102
RTVSPost2010Prop35
280
     0
102
RTVSPost2010PropOp35
 70
     1
102
RTVSPost2010Prop36
280
     0
102
RTVSPost2010PropOp36
 70
     1
102
RTVSPost2010Prop37
 90
       50
102
RTVSPost2010PropOp37
 70
     1
102
RTVSPost2010Prop38
140
0.0
102
RTVSPost2010PropOp38
 70
     1
102
RTVSPost2010Prop39
140
1.0
102
RTVSPost2010PropOp39
 70
     1
102
RTVSPost2010Prop40
 90
        0
102
RTVSPost2010PropOp40
 70
     1
102
RTVSPost2010Prop41ColorIndex
 90
       18
102
RTVSPost2010Prop41ColorRGB
 90
        0
102
RTVSPost2010PropOp41
 70
     1
102
RTVSPost2010Prop42
 90
       50
102
RTVSPost2010PropOp42
 70
     1
102
RTVSPost2010Prop43
 90
        3
102
RTVSPost2010PropOp43
 70
     1
102
RTVSPost2010Prop44ColorIndex
 90
        5
102
RTVSPost2010Prop44ColorRGB
 90
      255
102
RTVSPost2010PropOp44
 70
     1
102
RTVSPost2010Prop45
280
     0
102
RTVSPost2010PropOp45
 70
     1
102
RTVSPost2010Prop46
 90
       50
102
RTVSPost2010PropOp46
 70
     1
102
RTVSPost2010Prop47
 90
       50
102
RTVSPost2010PropOp47
 70
     1
102
RTVSPost2010Prop48
 90
       50
102
RTVSPost2010PropOp48
 70
     1
102
RTVSPost2010Prop49
280
     0
102
RTVSPost2010PropOp49
 70
     1
102
RTVSPost2010Prop50
 90
       50
102
RTVSPost2010PropOp50
 70
     1
102
RTVSPost2010Prop51ColorIndex
 90
      256
102
RTVSPost2010Prop51ColorRGB
 90
-16777216
102
RTVSPost2010PropOp51
 70
     0
102
RTVSPost2010Prop52
140
1.0
102
RTVSPost2010PropOp52
 70
     0
102
RTVSPost2010Prop53
 90
        2
102
RTVSPost2010PropOp53
 70
     1
102
RTVSPost2010Prop54
  1
strokes_ogs.tif
102
RTVSPost2010PropOp54
 70
     1
102
RTVSPost2010Prop55
280
     0
102
RTVSPost2010PropOp55
 70
     1
102
RTVSPost2010Prop56
140
1.0
102
RTVSPost2010PropOp56
 70
     1
102
RTVSPost2010Prop57
140
1.0
102
RTVSPost2010PropOp57
 70
     1
102
RTVSPropertyOp0
 70
     1
102
RTVSPropertyOp1
 70
     1
102
RTVSPropertyOp2
 70
     1
102
RTVSPropertyOp3
 70
     1
102
RTVSPropertyOp4
 70
     1
102
RTVSPropertyOp5
 70
     1
102
RTVSPropertyOp6
 70
     1
102
RTVSPropertyOp7
 70
     1
102
RTVSPropertyOp8
 70
     1
102
RTVSPropertyOp9
 70
     1
102
RTVSPropertyOp10
 70
     1
102
RTVSPropertyOp11
 70
     1
102
RTVSPropertyOp12
 70
     1
102
RTVSPropertyOp13
 70
     1
102
RTVSPropertyOp14
 70
     1
102
RTVSPropertyOp15
 70
     1
102
RTVSPropertyOp16
 70
     1
102
RTVSPropertyOp17
 70
     1
102
RTVSPropertyOp18
 70
     1
102
RTVSPropertyOp19
 70
     1
102
RTVSPropertyOp20
 70
     1
102
RTVSPropertyOp21
 70
     1
102
RTVSPropertyOp22
 70
     1
102
RTVSPropertyOp23
 70
     1
102
RTVSPropertyOp24
 70
     1
102
RTVSPropertyOp25
 70
     1
102
RTVSPropertyOp26
 70
     1
102
RTVSPropertyOp27
 70
     1
102
RTVSPropertyOp28
 70
     1
102
RTVSPropertyOp29
 70
     1
102
RTVSPropertyOp30
 70
     1
102
RTVSPropertyOp31
 70
     1
102
RTVSPropertyOp32
 70
     1
102
RTVSPropertyOp33
 70
     1
102
RTVSPropertyOp34
 70
     1
102
RTVSPropertyOp35
 70
     1
102
RTVSPropertyOp36
 70
     1
102
RTVSPropertyOp37
 70
     1
102
RTVSPropertyOp38
 70
     1
102
RTVSPropertyOp39
 70
     1
102
RTVSPropertyOp40
 70
     1
102
RTVSPropertyOp41
 70
     1
102
RTVSPropertyOp42
 70
     1
102
RTVSPropertyOp43
 70
     1
102
RTVSPropertyOp44
 70
     1
102
RTVSPropertyOp45
 70
     1
102
RTVSPropertyOp46
 70
     1
102
RTVSPropertyOp47
 70
     1
102
RTVSPropertyOp48
 70
     1
102
RTVSPropertyOp49
 70
     1
102
RTVSPropertyOp50
 70
     1
102
RTVSPropertyOp51
 70
     0
102
RTVSPropertyOp52
 70
     0
102
RTVSPropertyOp53
 70
     1
102
RTVSPropertyOp54
 70
     1
102
RTVSPropertyOp55
 70
     1
102
RTVSPropertyOp56
 70
     1
102
RTVSPropertyOp57
 70
     1
102
RTVSPropertyOp58
 70
     1
102
RTVSPropertyOp59
 70
     1
102
RTVSPropertyOp60
 70
     1
102
RTVSPropertyOp61
 70
     1
102
RTVSPropertyOp62
 70
     1
  0
XRECORD
  5
938B
102
{ACAD_REACTORS
330
938A
102
}
330
938A
100
AcDbXrecord
280
     1
102
RTVSPost2010Prop28
280
     0
102
RTVSPost2010PropOp28
 70
     1
102
RTVSPost2010Prop29
280
     1
102
RTVSPost2010PropOp29
 70
     1
102
RTVSPost2010Prop30
280
     1
102
RTVSPost2010PropOp30
 70
     1
102
RTVSPost2010Prop31
280
     0
102
RTVSPost2010PropOp31
 70
     1
102
RTVSPost2010Prop32
280
     0
102
RTVSPost2010PropOp32
 70
     1
102
RTVSPost2010Prop33
280
     0
102
RTVSPost2010PropOp33
 70
     1
102
RTVSPost2010Prop34
280
     0
102
RTVSPost2010PropOp34
 70
     1
102
RTVSPost2010Prop35
280
     0
102
RTVSPost2010PropOp35
 70
     1
102
RTVSPost2010Prop36
280
     0
102
RTVSPost2010PropOp36
 70
     1
102
RTVSPost2010Prop37
 90
       50
102
RTVSPost2010PropOp37
 70
     1
102
RTVSPost2010Prop38
140
0.0
102
RTVSPost2010PropOp38
 70
     1
102
RTVSPost2010Prop39
140
1.0
102
RTVSPost2010PropOp39
 70
     1
102
RTVSPost2010Prop40
 90
        0
102
RTVSPost2010PropOp40
 70
     1
102
RTVSPost2010Prop41ColorIndex
 90
       18
102
RTVSPost2010Prop41ColorRGB
 90
        0
102
RTVSPost2010PropOp41
 70
     1
102
RTVSPost2010Prop42
 90
       50
102
RTVSPost2010PropOp42
 70
     1
102
RTVSPost2010Prop43
 90
        3
102
RTVSPost2010PropOp43
 70
     1
102
RTVSPost2010Prop44ColorIndex
 90
        5
102
RTVSPost2010Prop44ColorRGB
 90
      255
102
RTVSPost2010PropOp44
 70
     1
102
RTVSPost2010Prop45
280
     0
102
RTVSPost2010PropOp45
 70
     1
102
RTVSPost2010Prop46
 90
       50
102
RTVSPost2010PropOp46
 70
     1
102
RTVSPost2010Prop47
 90
       50
102
RTVSPost2010PropOp47
 70
     1
102
RTVSPost2010Prop48
 90
       50
102
RTVSPost2010PropOp48
 70
     1
102
RTVSPost2010Prop49
280
     0
102
RTVSPost2010PropOp49
 70
     1
102
RTVSPost2010Prop50
 90
       50
102
RTVSPost2010PropOp50
 70
     1
102
RTVSPost2010Prop51ColorIndex
 90
      256
102
RTVSPost2010Prop51ColorRGB
 90
-16777216
102
RTVSPost2010PropOp51
 70
     0
102
RTVSPost2010Prop52
140
1.0
102
RTVSPost2010PropOp52
 70
     0
102
RTVSPost2010Prop53
 90
        2
102
RTVSPost2010PropOp53
 70
     1
102
RTVSPost2010Prop54
  1
strokes_ogs.tif
102
RTVSPost2010PropOp54
 70
     1
102
RTVSPost2010Prop55
280
     0
102
RTVSPost2010PropOp55
 70
     1
102
RTVSPost2010Prop56
140
1.0
102
RTVSPost2010PropOp56
 70
     1
102
RTVSPost2010Prop57
140
1.0
102
RTVSPost2010PropOp57
 70
     1
102
RTVSPropertyOp0
 70
     1
102
RTVSPropertyOp1
 70
     1
102
RTVSPropertyOp2
 70
     1
102
RTVSPropertyOp3
 70
     1
102
RTVSPropertyOp4
 70
     1
102
RTVSPropertyOp5
 70
     1
102
RTVSPropertyOp6
 70
     1
102
RTVSPropertyOp7
 70
     1
102
RTVSPropertyOp8
 70
     1
102
RTVSPropertyOp9
 70
     1
102
RTVSPropertyOp10
 70
     1
102
RTVSPropertyOp11
 70
     1
102
RTVSPropertyOp12
 70
     1
102
RTVSPropertyOp13
 70
     1
102
RTVSPropertyOp14
 70
     1
102
RTVSPropertyOp15
 70
     1
102
RTVSPropertyOp16
 70
     1
102
RTVSPropertyOp17
 70
     1
102
RTVSPropertyOp18
 70
     1
102
RTVSPropertyOp19
 70
     1
102
RTVSPropertyOp20
 70
     1
102
RTVSPropertyOp21
 70
     1
102
RTVSPropertyOp22
 70
     1
102
RTVSPropertyOp23
 70
     1
102
RTVSPropertyOp24
 70
     1
102
RTVSPropertyOp25
 70
     1
102
RTVSPropertyOp26
 70
     1
102
RTVSPropertyOp27
 70
     1
102
RTVSPropertyOp28
 70
     1
102
RTVSPropertyOp29
 70
     1
102
RTVSPropertyOp30
 70
     1
102
RTVSPropertyOp31
 70
     1
102
RTVSPropertyOp32
 70
     1
102
RTVSPropertyOp33
 70
     1
102
RTVSPropertyOp34
 70
     1
102
RTVSPropertyOp35
 70
     1
102
RTVSPropertyOp36
 70
     1
102
RTVSPropertyOp37
 70
     1
102
RTVSPropertyOp38
 70
     1
102
RTVSPropertyOp39
 70
     1
102
RTVSPropertyOp40
 70
     1
102
RTVSPropertyOp41
 70
     1
102
RTVSPropertyOp42
 70
     1
102
RTVSPropertyOp43
 70
     1
102
RTVSPropertyOp44
 70
     1
102
RTVSPropertyOp45
 70
     1
102
RTVSPropertyOp46
 70
     1
102
RTVSPropertyOp47
 70
     1
102
RTVSPropertyOp48
 70
     1
102
RTVSPropertyOp49
 70
     1
102
RTVSPropertyOp50
 70
     1
102
RTVSPropertyOp51
 70
     0
102
RTVSPropertyOp52
 70
     0
102
RTVSPropertyOp53
 70
     1
102
RTVSPropertyOp54
 70
     1
102
RTVSPropertyOp55
 70
     1
102
RTVSPropertyOp56
 70
     1
102
RTVSPropertyOp57
 70
     1
102
RTVSPropertyOp58
 70
     1
102
RTVSPropertyOp59
 70
     1
102
RTVSPropertyOp60
 70
     1
102
RTVSPropertyOp61
 70
     1
102
RTVSPropertyOp62
 70
     1
  0
XRECORD
  5
9389
102
{ACAD_REACTORS
330
9388
102
}
330
9388
100
AcDbXrecord
280
     1
102
RTVSPost2010Prop28
280
     0
102
RTVSPost2010PropOp28
 70
     1
102
RTVSPost2010Prop29
280
     1
102
RTVSPost2010PropOp29
 70
     1
102
RTVSPost2010Prop30
280
     1
102
RTVSPost2010PropOp30
 70
     1
102
RTVSPost2010Prop31
280
     0
102
RTVSPost2010PropOp31
 70
     1
102
RTVSPost2010Prop32
280
     0
102
RTVSPost2010PropOp32
 70
     1
102
RTVSPost2010Prop33
280
     0
102
RTVSPost2010PropOp33
 70
     1
102
RTVSPost2010Prop34
280
     0
102
RTVSPost2010PropOp34
 70
     1
102
RTVSPost2010Prop35
280
     0
102
RTVSPost2010PropOp35
 70
     1
102
RTVSPost2010Prop36
280
     0
102
RTVSPost2010PropOp36
 70
     1
102
RTVSPost2010Prop37
 90
       50
102
RTVSPost2010PropOp37
 70
     1
102
RTVSPost2010Prop38
140
0.0
102
RTVSPost2010PropOp38
 70
     1
102
RTVSPost2010Prop39
140
1.0
102
RTVSPost2010PropOp39
 70
     1
102
RTVSPost2010Prop40
 90
        0
102
RTVSPost2010PropOp40
 70
     1
102
RTVSPost2010Prop41ColorIndex
 90
       18
102
RTVSPost2010Prop41ColorRGB
 90
        0
102
RTVSPost2010PropOp41
 70
     1
102
RTVSPost2010Prop42
 90
       50
102
RTVSPost2010PropOp42
 70
     1
102
RTVSPost2010Prop43
 90
        3
102
RTVSPost2010PropOp43
 70
     1
102
RTVSPost2010Prop44ColorIndex
 90
        5
102
RTVSPost2010Prop44ColorRGB
 90
      255
102
RTVSPost2010PropOp44
 70
     1
102
RTVSPost2010Prop45
280
     0
102
RTVSPost2010PropOp45
 70
     1
102
RTVSPost2010Prop46
 90
       50
102
RTVSPost2010PropOp46
 70
     1
102
RTVSPost2010Prop47
 90
       50
102
RTVSPost2010PropOp47
 70
     1
102
RTVSPost2010Prop48
 90
       50
102
RTVSPost2010PropOp48
 70
     1
102
RTVSPost2010Prop49
280
     0
102
RTVSPost2010PropOp49
 70
     1
102
RTVSPost2010Prop50
 90
       50
102
RTVSPost2010PropOp50
 70
     1
102
RTVSPost2010Prop51ColorIndex
 90
      256
102
RTVSPost2010Prop51ColorRGB
 90
-16777216
102
RTVSPost2010PropOp51
 70
     0
102
RTVSPost2010Prop52
140
1.0
102
RTVSPost2010PropOp52
 70
     0
102
RTVSPost2010Prop53
 90
        2
102
RTVSPost2010PropOp53
 70
     1
102
RTVSPost2010Prop54
  1
strokes_ogs.tif
102
RTVSPost2010PropOp54
 70
     1
102
RTVSPost2010Prop55
280
     0
102
RTVSPost2010PropOp55
 70
     1
102
RTVSPost2010Prop56
140
1.0
102
RTVSPost2010PropOp56
 70
     1
102
RTVSPost2010Prop57
140
1.0
102
RTVSPost2010PropOp57
 70
     1
102
RTVSPropertyOp0
 70
     1
102
RTVSPropertyOp1
 70
     1
102
RTVSPropertyOp2
 70
     1
102
RTVSPropertyOp3
 70
     1
102
RTVSPropertyOp4
 70
     1
102
RTVSPropertyOp5
 70
     1
102
RTVSPropertyOp6
 70
     1
102
RTVSPropertyOp7
 70
     1
102
RTVSPropertyOp8
 70
     1
102
RTVSPropertyOp9
 70
     1
102
RTVSPropertyOp10
 70
     1
102
RTVSPropertyOp11
 70
     1
102
RTVSPropertyOp12
 70
     1
102
RTVSPropertyOp13
 70
     1
102
RTVSPropertyOp14
 70
     1
102
RTVSPropertyOp15
 70
     1
102
RTVSPropertyOp16
 70
     1
102
RTVSPropertyOp17
 70
     1
102
RTVSPropertyOp18
 70
     1
102
RTVSPropertyOp19
 70
     1
102
RTVSPropertyOp20
 70
     1
102
RTVSPropertyOp21
 70
     1
102
RTVSPropertyOp22
 70
     1
102
RTVSPropertyOp23
 70
     1
102
RTVSPropertyOp24
 70
     1
102
RTVSPropertyOp25
 70
     1
102
RTVSPropertyOp26
 70
     1
102
RTVSPropertyOp27
 70
     1
102
RTVSPropertyOp28
 70
     1
102
RTVSPropertyOp29
 70
     1
102
RTVSPropertyOp30
 70
     1
102
RTVSPropertyOp31
 70
     1
102
RTVSPropertyOp32
 70
     1
102
RTVSPropertyOp33
 70
     1
102
RTVSPropertyOp34
 70
     1
102
RTVSPropertyOp35
 70
     1
102
RTVSPropertyOp36
 70
     1
102
RTVSPropertyOp37
 70
     1
102
RTVSPropertyOp38
 70
     1
102
RTVSPropertyOp39
 70
     1
102
RTVSPropertyOp40
 70
     1
102
RTVSPropertyOp41
 70
     1
102
RTVSPropertyOp42
 70
     1
102
RTVSPropertyOp43
 70
     1
102
RTVSPropertyOp44
 70
     1
102
RTVSPropertyOp45
 70
     1
102
RTVSPropertyOp46
 70
     1
102
RTVSPropertyOp47
 70
     1
102
RTVSPropertyOp48
 70
     1
102
RTVSPropertyOp49
 70
     1
102
RTVSPropertyOp50
 70
     1
102
RTVSPropertyOp51
 70
     0
102
RTVSPropertyOp52
 70
     0
102
RTVSPropertyOp53
 70
     1
102
RTVSPropertyOp54
 70
     1
102
RTVSPropertyOp55
 70
     1
102
RTVSPropertyOp56
 70
     1
102
RTVSPropertyOp57
 70
     1
102
RTVSPropertyOp58
 70
     1
102
RTVSPropertyOp59
 70
     1
102
RTVSPropertyOp60
 70
     1
102
RTVSPropertyOp61
 70
     1
102
RTVSPropertyOp62
 70
     1
  0
XRECORD
  5
9385
102
{ACAD_REACTORS
330
9384
102
}
330
9384
100
AcDbXrecord
280
     1
102
RTVSPost2010Prop28
280
     0
102
RTVSPost2010PropOp28
 70
     1
102
RTVSPost2010Prop29
280
     1
102
RTVSPost2010PropOp29
 70
     1
102
RTVSPost2010Prop30
280
     1
102
RTVSPost2010PropOp30
 70
     1
102
RTVSPost2010Prop31
280
     0
102
RTVSPost2010PropOp31
 70
     1
102
RTVSPost2010Prop32
280
     0
102
RTVSPost2010PropOp32
 70
     1
102
RTVSPost2010Prop33
280
     0
102
RTVSPost2010PropOp33
 70
     1
102
RTVSPost2010Prop34
280
     0
102
RTVSPost2010PropOp34
 70
     1
102
RTVSPost2010Prop35
280
     0
102
RTVSPost2010PropOp35
 70
     1
102
RTVSPost2010Prop36
280
     0
102
RTVSPost2010PropOp36
 70
     1
102
RTVSPost2010Prop37
 90
       50
102
RTVSPost2010PropOp37
 70
     1
102
RTVSPost2010Prop38
140
0.0
102
RTVSPost2010PropOp38
 70
     1
102
RTVSPost2010Prop39
140
1.0
102
RTVSPost2010PropOp39
 70
     1
102
RTVSPost2010Prop40
 90
        0
102
RTVSPost2010PropOp40
 70
     1
102
RTVSPost2010Prop41ColorIndex
 90
       18
102
RTVSPost2010Prop41ColorRGB
 90
        0
102
RTVSPost2010PropOp41
 70
     1
102
RTVSPost2010Prop42
 90
       50
102
RTVSPost2010PropOp42
 70
     1
102
RTVSPost2010Prop43
 90
        3
102
RTVSPost2010PropOp43
 70
     1
102
RTVSPost2010Prop44ColorIndex
 90
        5
102
RTVSPost2010Prop44ColorRGB
 90
      255
102
RTVSPost2010PropOp44
 70
     1
102
RTVSPost2010Prop45
280
     0
102
RTVSPost2010PropOp45
 70
     1
102
RTVSPost2010Prop46
 90
       50
102
RTVSPost2010PropOp46
 70
     1
102
RTVSPost2010Prop47
 90
       50
102
RTVSPost2010PropOp47
 70
     1
102
RTVSPost2010Prop48
 90
       50
102
RTVSPost2010PropOp48
 70
     1
102
RTVSPost2010Prop49
280
     0
102
RTVSPost2010PropOp49
 70
     1
102
RTVSPost2010Prop50
 90
       50
102
RTVSPost2010PropOp50
 70
     1
102
RTVSPost2010Prop51ColorIndex
 90
      256
102
RTVSPost2010Prop51ColorRGB
 90
-16777216
102
RTVSPost2010PropOp51
 70
     0
102
RTVSPost2010Prop52
140
1.0
102
RTVSPost2010PropOp52
 70
     0
102
RTVSPost2010Prop53
 90
        2
102
RTVSPost2010PropOp53
 70
     1
102
RTVSPost2010Prop54
  1
strokes_ogs.tif
102
RTVSPost2010PropOp54
 70
     1
102
RTVSPost2010Prop55
280
     0
102
RTVSPost2010PropOp55
 70
     1
102
RTVSPost2010Prop56
140
1.0
102
RTVSPost2010PropOp56
 70
     1
102
RTVSPost2010Prop57
140
1.0
102
RTVSPost2010PropOp57
 70
     1
102
RTVSPropertyOp0
 70
     1
102
RTVSPropertyOp1
 70
     1
102
RTVSPropertyOp2
 70
     1
102
RTVSPropertyOp3
 70
     1
102
RTVSPropertyOp4
 70
     1
102
RTVSPropertyOp5
 70
     1
102
RTVSPropertyOp6
 70
     1
102
RTVSPropertyOp7
 70
     1
102
RTVSPropertyOp8
 70
     1
102
RTVSPropertyOp9
 70
     1
102
RTVSPropertyOp10
 70
     1
102
RTVSPropertyOp11
 70
     1
102
RTVSPropertyOp12
 70
     1
102
RTVSPropertyOp13
 70
     1
102
RTVSPropertyOp14
 70
     1
102
RTVSPropertyOp15
 70
     1
102
RTVSPropertyOp16
 70
     1
102
RTVSPropertyOp17
 70
     1
102
RTVSPropertyOp18
 70
     1
102
RTVSPropertyOp19
 70
     1
102
RTVSPropertyOp20
 70
     1
102
RTVSPropertyOp21
 70
     1
102
RTVSPropertyOp22
 70
     1
102
RTVSPropertyOp23
 70
     1
102
RTVSPropertyOp24
 70
     1
102
RTVSPropertyOp25
 70
     1
102
RTVSPropertyOp26
 70
     1
102
RTVSPropertyOp27
 70
     1
102
RTVSPropertyOp28
 70
     1
102
RTVSPropertyOp29
 70
     1
102
RTVSPropertyOp30
 70
     1
102
RTVSPropertyOp31
 70
     1
102
RTVSPropertyOp32
 70
     1
102
RTVSPropertyOp33
 70
     1
102
RTVSPropertyOp34
 70
     1
102
RTVSPropertyOp35
 70
     1
102
RTVSPropertyOp36
 70
     1
102
RTVSPropertyOp37
 70
     1
102
RTVSPropertyOp38
 70
     1
102
RTVSPropertyOp39
 70
     1
102
RTVSPropertyOp40
 70
     1
102
RTVSPropertyOp41
 70
     1
102
RTVSPropertyOp42
 70
     1
102
RTVSPropertyOp43
 70
     1
102
RTVSPropertyOp44
 70
     1
102
RTVSPropertyOp45
 70
     1
102
RTVSPropertyOp46
 70
     1
102
RTVSPropertyOp47
 70
     1
102
RTVSPropertyOp48
 70
     1
102
RTVSPropertyOp49
 70
     1
102
RTVSPropertyOp50
 70
     1
102
RTVSPropertyOp51
 70
     0
102
RTVSPropertyOp52
 70
     0
102
RTVSPropertyOp53
 70
     1
102
RTVSPropertyOp54
 70
     1
102
RTVSPropertyOp55
 70
     1
102
RTVSPropertyOp56
 70
     1
102
RTVSPropertyOp57
 70
     1
102
RTVSPropertyOp58
 70
     1
102
RTVSPropertyOp59
 70
     1
102
RTVSPropertyOp60
 70
     1
102
RTVSPropertyOp61
 70
     1
102
RTVSPropertyOp62
 70
     1
  0
XRECORD
  5
9393
102
{ACAD_REACTORS
330
9392
102
}
330
9392
100
AcDbXrecord
280
     1
102
RTVSPost2010Prop28
280
     0
102
RTVSPost2010PropOp28
 70
     1
102
RTVSPost2010Prop29
280
     1
102
RTVSPost2010PropOp29
 70
     1
102
RTVSPost2010Prop30
280
     1
102
RTVSPost2010PropOp30
 70
     1
102
RTVSPost2010Prop31
280
     0
102
RTVSPost2010PropOp31
 70
     1
102
RTVSPost2010Prop32
280
     0
102
RTVSPost2010PropOp32
 70
     1
102
RTVSPost2010Prop33
280
     0
102
RTVSPost2010PropOp33
 70
     1
102
RTVSPost2010Prop34
280
     0
102
RTVSPost2010PropOp34
 70
     1
102
RTVSPost2010Prop35
280
     0
102
RTVSPost2010PropOp35
 70
     1
102
RTVSPost2010Prop36
280
     0
102
RTVSPost2010PropOp36
 70
     1
102
RTVSPost2010Prop37
 90
       50
102
RTVSPost2010PropOp37
 70
     1
102
RTVSPost2010Prop38
140
0.0
102
RTVSPost2010PropOp38
 70
     1
102
RTVSPost2010Prop39
140
1.0
102
RTVSPost2010PropOp39
 70
     1
102
RTVSPost2010Prop40
 90
        0
102
RTVSPost2010PropOp40
 70
     1
102
RTVSPost2010Prop41ColorIndex
 90
       18
102
RTVSPost2010Prop41ColorRGB
 90
        0
102
RTVSPost2010PropOp41
 70
     1
102
RTVSPost2010Prop42
 90
       50
102
RTVSPost2010PropOp42
 70
     1
102
RTVSPost2010Prop43
 90
        3
102
RTVSPost2010PropOp43
 70
     1
102
RTVSPost2010Prop44ColorIndex
 90
        5
102
RTVSPost2010Prop44ColorRGB
 90
      255
102
RTVSPost2010PropOp44
 70
     1
102
RTVSPost2010Prop45
280
     0
102
RTVSPost2010PropOp45
 70
     1
102
RTVSPost2010Prop46
 90
       50
102
RTVSPost2010PropOp46
 70
     1
102
RTVSPost2010Prop47
 90
       50
102
RTVSPost2010PropOp47
 70
     1
102
RTVSPost2010Prop48
 90
       50
102
RTVSPost2010PropOp48
 70
     1
102
RTVSPost2010Prop49
280
     0
102
RTVSPost2010PropOp49
 70
     1
102
RTVSPost2010Prop50
 90
       50
102
RTVSPost2010PropOp50
 70
     1
102
RTVSPost2010Prop51ColorIndex
 90
      256
102
RTVSPost2010Prop51ColorRGB
 90
-16777216
102
RTVSPost2010PropOp51
 70
     0
102
RTVSPost2010Prop52
140
1.0
102
RTVSPost2010PropOp52
 70
     0
102
RTVSPost2010Prop53
 90
        2
102
RTVSPost2010PropOp53
 70
     1
102
RTVSPost2010Prop54
  1
strokes_ogs.tif
102
RTVSPost2010PropOp54
 70
     1
102
RTVSPost2010Prop55
280
     0
102
RTVSPost2010PropOp55
 70
     1
102
RTVSPost2010Prop56
140
1.0
102
RTVSPost2010PropOp56
 70
     1
102
RTVSPost2010Prop57
140
1.0
102
RTVSPost2010PropOp57
 70
     1
102
RTVSPropertyOp0
 70
     1
102
RTVSPropertyOp1
 70
     1
102
RTVSPropertyOp2
 70
     1
102
RTVSPropertyOp3
 70
     1
102
RTVSPropertyOp4
 70
     1
102
RTVSPropertyOp5
 70
     1
102
RTVSPropertyOp6
 70
     1
102
RTVSPropertyOp7
 70
     1
102
RTVSPropertyOp8
 70
     1
102
RTVSPropertyOp9
 70
     1
102
RTVSPropertyOp10
 70
     1
102
RTVSPropertyOp11
 70
     1
102
RTVSPropertyOp12
 70
     1
102
RTVSPropertyOp13
 70
     1
102
RTVSPropertyOp14
 70
     1
102
RTVSPropertyOp15
 70
     1
102
RTVSPropertyOp16
 70
     1
102
RTVSPropertyOp17
 70
     1
102
RTVSPropertyOp18
 70
     1
102
RTVSPropertyOp19
 70
     1
102
RTVSPropertyOp20
 70
     1
102
RTVSPropertyOp21
 70
     1
102
RTVSPropertyOp22
 70
     1
102
RTVSPropertyOp23
 70
     1
102
RTVSPropertyOp24
 70
     1
102
RTVSPropertyOp25
 70
     1
102
RTVSPropertyOp26
 70
     1
102
RTVSPropertyOp27
 70
     1
102
RTVSPropertyOp28
 70
     1
102
RTVSPropertyOp29
 70
     1
102
RTVSPropertyOp30
 70
     1
102
RTVSPropertyOp31
 70
     1
102
RTVSPropertyOp32
 70
     1
102
RTVSPropertyOp33
 70
     1
102
RTVSPropertyOp34
 70
     1
102
RTVSPropertyOp35
 70
     1
102
RTVSPropertyOp36
 70
     1
102
RTVSPropertyOp37
 70
     1
102
RTVSPropertyOp38
 70
     1
102
RTVSPropertyOp39
 70
     1
102
RTVSPropertyOp40
 70
     1
102
RTVSPropertyOp41
 70
     1
102
RTVSPropertyOp42
 70
     1
102
RTVSPropertyOp43
 70
     1
102
RTVSPropertyOp44
 70
     1
102
RTVSPropertyOp45
 70
     1
102
RTVSPropertyOp46
 70
     1
102
RTVSPropertyOp47
 70
     1
102
RTVSPropertyOp48
 70
     1
102
RTVSPropertyOp49
 70
     1
102
RTVSPropertyOp50
 70
     1
102
RTVSPropertyOp51
 70
     0
102
RTVSPropertyOp52
 70
     0
102
RTVSPropertyOp53
 70
     1
102
RTVSPropertyOp54
 70
     1
102
RTVSPropertyOp55
 70
     1
102
RTVSPropertyOp56
 70
     1
102
RTVSPropertyOp57
 70
     1
102
RTVSPropertyOp58
 70
     1
102
RTVSPropertyOp59
 70
     1
102
RTVSPropertyOp60
 70
     1
102
RTVSPropertyOp61
 70
     1
102
RTVSPropertyOp62
 70
     1
  0
XRECORD
  5
939B
102
{ACAD_REACTORS
330
939A
102
}
330
939A
100
AcDbXrecord
280
     1
102
RTVSPost2010Prop28
280
     0
102
RTVSPost2010PropOp28
 70
     1
102
RTVSPost2010Prop29
280
     1
102
RTVSPost2010PropOp29
 70
     1
102
RTVSPost2010Prop30
280
     1
102
RTVSPost2010PropOp30
 70
     1
102
RTVSPost2010Prop31
280
     0
102
RTVSPost2010PropOp31
 70
     1
102
RTVSPost2010Prop32
280
     0
102
RTVSPost2010PropOp32
 70
     1
102
RTVSPost2010Prop33
280
     0
102
RTVSPost2010PropOp33
 70
     1
102
RTVSPost2010Prop34
280
     0
102
RTVSPost2010PropOp34
 70
     1
102
RTVSPost2010Prop35
280
     0
102
RTVSPost2010PropOp35
 70
     1
102
RTVSPost2010Prop36
280
     0
102
RTVSPost2010PropOp36
 70
     1
102
RTVSPost2010Prop37
 90
       50
102
RTVSPost2010PropOp37
 70
     1
102
RTVSPost2010Prop38
140
0.0
102
RTVSPost2010PropOp38
 70
     1
102
RTVSPost2010Prop39
140
1.0
102
RTVSPost2010PropOp39
 70
     1
102
RTVSPost2010Prop40
 90
        0
102
RTVSPost2010PropOp40
 70
     1
102
RTVSPost2010Prop41ColorIndex
 90
       18
102
RTVSPost2010Prop41ColorRGB
 90
        0
102
RTVSPost2010PropOp41
 70
     1
102
RTVSPost2010Prop42
 90
       50
102
RTVSPost2010PropOp42
 70
     1
102
RTVSPost2010Prop43
 90
        3
102
RTVSPost2010PropOp43
 70
     1
102
RTVSPost2010Prop44ColorIndex
 90
        5
102
RTVSPost2010Prop44ColorRGB
 90
      255
102
RTVSPost2010PropOp44
 70
     1
102
RTVSPost2010Prop45
280
     0
102
RTVSPost2010PropOp45
 70
     1
102
RTVSPost2010Prop46
 90
       50
102
RTVSPost2010PropOp46
 70
     1
102
RTVSPost2010Prop47
 90
       50
102
RTVSPost2010PropOp47
 70
     1
102
RTVSPost2010Prop48
 90
       50
102
RTVSPost2010PropOp48
 70
     1
102
RTVSPost2010Prop49
280
     0
102
RTVSPost2010PropOp49
 70
     1
102
RTVSPost2010Prop50
 90
       50
102
RTVSPost2010PropOp50
 70
     1
102
RTVSPost2010Prop51ColorIndex
 90
      256
102
RTVSPost2010Prop51ColorRGB
 90
-16777216
102
RTVSPost2010PropOp51
 70
     0
102
RTVSPost2010Prop52
140
1.0
102
RTVSPost2010PropOp52
 70
     0
102
RTVSPost2010Prop53
 90
        2
102
RTVSPost2010PropOp53
 70
     1
102
RTVSPost2010Prop54
  1
strokes_ogs.tif
102
RTVSPost2010PropOp54
 70
     1
102
RTVSPost2010Prop55
280
     0
102
RTVSPost2010PropOp55
 70
     1
102
RTVSPost2010Prop56
140
1.0
102
RTVSPost2010PropOp56
 70
     1
102
RTVSPost2010Prop57
140
1.0
102
RTVSPost2010PropOp57
 70
     1
102
RTVSPropertyOp0
 70
     1
102
RTVSPropertyOp1
 70
     1
102
RTVSPropertyOp2
 70
     1
102
RTVSPropertyOp3
 70
     1
102
RTVSPropertyOp4
 70
     1
102
RTVSPropertyOp5
 70
     1
102
RTVSPropertyOp6
 70
     1
102
RTVSPropertyOp7
 70
     1
102
RTVSPropertyOp8
 70
     1
102
RTVSPropertyOp9
 70
     1
102
RTVSPropertyOp10
 70
     1
102
RTVSPropertyOp11
 70
     1
102
RTVSPropertyOp12
 70
     1
102
RTVSPropertyOp13
 70
     1
102
RTVSPropertyOp14
 70
     1
102
RTVSPropertyOp15
 70
     1
102
RTVSPropertyOp16
 70
     1
102
RTVSPropertyOp17
 70
     1
102
RTVSPropertyOp18
 70
     1
102
RTVSPropertyOp19
 70
     1
102
RTVSPropertyOp20
 70
     1
102
RTVSPropertyOp21
 70
     1
102
RTVSPropertyOp22
 70
     1
102
RTVSPropertyOp23
 70
     1
102
RTVSPropertyOp24
 70
     1
102
RTVSPropertyOp25
 70
     1
102
RTVSPropertyOp26
 70
     1
102
RTVSPropertyOp27
 70
     1
102
RTVSPropertyOp28
 70
     1
102
RTVSPropertyOp29
 70
     1
102
RTVSPropertyOp30
 70
     1
102
RTVSPropertyOp31
 70
     1
102
RTVSPropertyOp32
 70
     1
102
RTVSPropertyOp33
 70
     1
102
RTVSPropertyOp34
 70
     1
102
RTVSPropertyOp35
 70
     1
102
RTVSPropertyOp36
 70
     1
102
RTVSPropertyOp37
 70
     1
102
RTVSPropertyOp38
 70
     1
102
RTVSPropertyOp39
 70
     1
102
RTVSPropertyOp40
 70
     1
102
RTVSPropertyOp41
 70
     1
102
RTVSPropertyOp42
 70
     1
102
RTVSPropertyOp43
 70
     1
102
RTVSPropertyOp44
 70
     1
102
RTVSPropertyOp45
 70
     1
102
RTVSPropertyOp46
 70
     1
102
RTVSPropertyOp47
 70
     1
102
RTVSPropertyOp48
 70
     1
102
RTVSPropertyOp49
 70
     1
102
RTVSPropertyOp50
 70
     1
102
RTVSPropertyOp51
 70
     0
102
RTVSPropertyOp52
 70
     0
102
RTVSPropertyOp53
 70
     1
102
RTVSPropertyOp54
 70
     1
102
RTVSPropertyOp55
 70
     1
102
RTVSPropertyOp56
 70
     1
102
RTVSPropertyOp57
 70
     1
102
RTVSPropertyOp58
 70
     1
102
RTVSPropertyOp59
 70
     1
102
RTVSPropertyOp60
 70
     1
102
RTVSPropertyOp61
 70
     1
102
RTVSPropertyOp62
 70
     1
  0
XRECORD
  5
938D
102
{ACAD_REACTORS
330
938C
102
}
330
938C
100
AcDbXrecord
280
     1
102
RTVSPost2010Prop28
280
     0
102
RTVSPost2010PropOp28
 70
     1
102
RTVSPost2010Prop29
280
     1
102
RTVSPost2010PropOp29
 70
     1
102
RTVSPost2010Prop30
280
     1
102
RTVSPost2010PropOp30
 70
     1
102
RTVSPost2010Prop31
280
     0
102
RTVSPost2010PropOp31
 70
     1
102
RTVSPost2010Prop32
280
     0
102
RTVSPost2010PropOp32
 70
     1
102
RTVSPost2010Prop33
280
     0
102
RTVSPost2010PropOp33
 70
     1
102
RTVSPost2010Prop34
280
     0
102
RTVSPost2010PropOp34
 70
     1
102
RTVSPost2010Prop35
280
     0
102
RTVSPost2010PropOp35
 70
     1
102
RTVSPost2010Prop36
280
     0
102
RTVSPost2010PropOp36
 70
     1
102
RTVSPost2010Prop37
 90
       50
102
RTVSPost2010PropOp37
 70
     1
102
RTVSPost2010Prop38
140
0.0
102
RTVSPost2010PropOp38
 70
     1
102
RTVSPost2010Prop39
140
1.0
102
RTVSPost2010PropOp39
 70
     1
102
RTVSPost2010Prop40
 90
        0
102
RTVSPost2010PropOp40
 70
     1
102
RTVSPost2010Prop41ColorIndex
 90
       18
102
RTVSPost2010Prop41ColorRGB
 90
        0
102
RTVSPost2010PropOp41
 70
     1
102
RTVSPost2010Prop42
 90
       50
102
RTVSPost2010PropOp42
 70
     1
102
RTVSPost2010Prop43
 90
        3
102
RTVSPost2010PropOp43
 70
     1
102
RTVSPost2010Prop44ColorIndex
 90
        5
102
RTVSPost2010Prop44ColorRGB
 90
      255
102
RTVSPost2010PropOp44
 70
     1
102
RTVSPost2010Prop45
280
     0
102
RTVSPost2010PropOp45
 70
     1
102
RTVSPost2010Prop46
 90
       50
102
RTVSPost2010PropOp46
 70
     1
102
RTVSPost2010Prop47
 90
       50
102
RTVSPost2010PropOp47
 70
     1
102
RTVSPost2010Prop48
 90
       50
102
RTVSPost2010PropOp48
 70
     1
102
RTVSPost2010Prop49
280
     0
102
RTVSPost2010PropOp49
 70
     1
102
RTVSPost2010Prop50
 90
       50
102
RTVSPost2010PropOp50
 70
     1
102
RTVSPost2010Prop51ColorIndex
 90
      256
102
RTVSPost2010Prop51ColorRGB
 90
-16777216
102
RTVSPost2010PropOp51
 70
     0
102
RTVSPost2010Prop52
140
1.0
102
RTVSPost2010PropOp52
 70
     0
102
RTVSPost2010Prop53
 90
        2
102
RTVSPost2010PropOp53
 70
     1
102
RTVSPost2010Prop54
  1
strokes_ogs.tif
102
RTVSPost2010PropOp54
 70
     1
102
RTVSPost2010Prop55
280
     0
102
RTVSPost2010PropOp55
 70
     1
102
RTVSPost2010Prop56
140
1.0
102
RTVSPost2010PropOp56
 70
     1
102
RTVSPost2010Prop57
140
1.0
102
RTVSPost2010PropOp57
 70
     1
102
RTVSPropertyOp0
 70
     1
102
RTVSPropertyOp1
 70
     1
102
RTVSPropertyOp2
 70
     1
102
RTVSPropertyOp3
 70
     1
102
RTVSPropertyOp4
 70
     1
102
RTVSPropertyOp5
 70
     1
102
RTVSPropertyOp6
 70
     1
102
RTVSPropertyOp7
 70
     1
102
RTVSPropertyOp8
 70
     1
102
RTVSPropertyOp9
 70
     1
102
RTVSPropertyOp10
 70
     1
102
RTVSPropertyOp11
 70
     1
102
RTVSPropertyOp12
 70
     1
102
RTVSPropertyOp13
 70
     1
102
RTVSPropertyOp14
 70
     1
102
RTVSPropertyOp15
 70
     1
102
RTVSPropertyOp16
 70
     1
102
RTVSPropertyOp17
 70
     1
102
RTVSPropertyOp18
 70
     1
102
RTVSPropertyOp19
 70
     1
102
RTVSPropertyOp20
 70
     1
102
RTVSPropertyOp21
 70
     1
102
RTVSPropertyOp22
 70
     1
102
RTVSPropertyOp23
 70
     1
102
RTVSPropertyOp24
 70
     1
102
RTVSPropertyOp25
 70
     1
102
RTVSPropertyOp26
 70
     1
102
RTVSPropertyOp27
 70
     1
102
RTVSPropertyOp28
 70
     1
102
RTVSPropertyOp29
 70
     1
102
RTVSPropertyOp30
 70
     1
102
RTVSPropertyOp31
 70
     1
102
RTVSPropertyOp32
 70
     1
102
RTVSPropertyOp33
 70
     1
102
RTVSPropertyOp34
 70
     1
102
RTVSPropertyOp35
 70
     1
102
RTVSPropertyOp36
 70
     1
102
RTVSPropertyOp37
 70
     1
102
RTVSPropertyOp38
 70
     1
102
RTVSPropertyOp39
 70
     1
102
RTVSPropertyOp40
 70
     1
102
RTVSPropertyOp41
 70
     1
102
RTVSPropertyOp42
 70
     1
102
RTVSPropertyOp43
 70
     1
102
RTVSPropertyOp44
 70
     1
102
RTVSPropertyOp45
 70
     1
102
RTVSPropertyOp46
 70
     1
102
RTVSPropertyOp47
 70
     1
102
RTVSPropertyOp48
 70
     1
102
RTVSPropertyOp49
 70
     1
102
RTVSPropertyOp50
 70
     1
102
RTVSPropertyOp51
 70
     0
102
RTVSPropertyOp52
 70
     0
102
RTVSPropertyOp53
 70
     1
102
RTVSPropertyOp54
 70
     1
102
RTVSPropertyOp55
 70
     1
102
RTVSPropertyOp56
 70
     1
102
RTVSPropertyOp57
 70
     1
102
RTVSPropertyOp58
 70
     1
102
RTVSPropertyOp59
 70
     1
102
RTVSPropertyOp60
 70
     1
102
RTVSPropertyOp61
 70
     1
102
RTVSPropertyOp62
 70
     1
  0
XRECORD
  5
9391
102
{ACAD_REACTORS
330
9390
102
}
330
9390
100
AcDbXrecord
280
     1
102
RTVSPost2010Prop28
280
     0
102
RTVSPost2010PropOp28
 70
     1
102
RTVSPost2010Prop29
280
     1
102
RTVSPost2010PropOp29
 70
     1
102
RTVSPost2010Prop30
280
     1
102
RTVSPost2010PropOp30
 70
     1
102
RTVSPost2010Prop31
280
     0
102
RTVSPost2010PropOp31
 70
     1
102
RTVSPost2010Prop32
280
     0
102
RTVSPost2010PropOp32
 70
     1
102
RTVSPost2010Prop33
280
     0
102
RTVSPost2010PropOp33
 70
     1
102
RTVSPost2010Prop34
280
     0
102
RTVSPost2010PropOp34
 70
     1
102
RTVSPost2010Prop35
280
     0
102
RTVSPost2010PropOp35
 70
     1
102
RTVSPost2010Prop36
280
     0
102
RTVSPost2010PropOp36
 70
     1
102
RTVSPost2010Prop37
 90
       50
102
RTVSPost2010PropOp37
 70
     1
102
RTVSPost2010Prop38
140
0.0
102
RTVSPost2010PropOp38
 70
     1
102
RTVSPost2010Prop39
140
1.0
102
RTVSPost2010PropOp39
 70
     1
102
RTVSPost2010Prop40
 90
        0
102
RTVSPost2010PropOp40
 70
     1
102
RTVSPost2010Prop41ColorIndex
 90
       18
102
RTVSPost2010Prop41ColorRGB
 90
        0
102
RTVSPost2010PropOp41
 70
     1
102
RTVSPost2010Prop42
 90
       50
102
RTVSPost2010PropOp42
 70
     1
102
RTVSPost2010Prop43
 90
        3
102
RTVSPost2010PropOp43
 70
     1
102
RTVSPost2010Prop44ColorIndex
 90
        5
102
RTVSPost2010Prop44ColorRGB
 90
      255
102
RTVSPost2010PropOp44
 70
     1
102
RTVSPost2010Prop45
280
     0
102
RTVSPost2010PropOp45
 70
     1
102
RTVSPost2010Prop46
 90
       50
102
RTVSPost2010PropOp46
 70
     1
102
RTVSPost2010Prop47
 90
       50
102
RTVSPost2010PropOp47
 70
     1
102
RTVSPost2010Prop48
 90
       50
102
RTVSPost2010PropOp48
 70
     1
102
RTVSPost2010Prop49
280
     0
102
RTVSPost2010PropOp49
 70
     1
102
RTVSPost2010Prop50
 90
       50
102
RTVSPost2010PropOp50
 70
     1
102
RTVSPost2010Prop51ColorIndex
 90
      256
102
RTVSPost2010Prop51ColorRGB
 90
-16777216
102
RTVSPost2010PropOp51
 70
     0
102
RTVSPost2010Prop52
140
1.0
102
RTVSPost2010PropOp52
 70
     0
102
RTVSPost2010Prop53
 90
        2
102
RTVSPost2010PropOp53
 70
     1
102
RTVSPost2010Prop54
  1
strokes_ogs.tif
102
RTVSPost2010PropOp54
 70
     1
102
RTVSPost2010Prop55
280
     0
102
RTVSPost2010PropOp55
 70
     1
102
RTVSPost2010Prop56
140
1.0
102
RTVSPost2010PropOp56
 70
     1
102
RTVSPost2010Prop57
140
1.0
102
RTVSPost2010PropOp57
 70
     1
102
RTVSPropertyOp0
 70
     1
102
RTVSPropertyOp1
 70
     1
102
RTVSPropertyOp2
 70
     1
102
RTVSPropertyOp3
 70
     1
102
RTVSPropertyOp4
 70
     1
102
RTVSPropertyOp5
 70
     1
102
RTVSPropertyOp6
 70
     1
102
RTVSPropertyOp7
 70
     1
102
RTVSPropertyOp8
 70
     1
102
RTVSPropertyOp9
 70
     1
102
RTVSPropertyOp10
 70
     1
102
RTVSPropertyOp11
 70
     1
102
RTVSPropertyOp12
 70
     1
102
RTVSPropertyOp13
 70
     1
102
RTVSPropertyOp14
 70
     1
102
RTVSPropertyOp15
 70
     1
102
RTVSPropertyOp16
 70
     1
102
RTVSPropertyOp17
 70
     1
102
RTVSPropertyOp18
 70
     1
102
RTVSPropertyOp19
 70
     1
102
RTVSPropertyOp20
 70
     1
102
RTVSPropertyOp21
 70
     1
102
RTVSPropertyOp22
 70
     1
102
RTVSPropertyOp23
 70
     1
102
RTVSPropertyOp24
 70
     1
102
RTVSPropertyOp25
 70
     1
102
RTVSPropertyOp26
 70
     1
102
RTVSPropertyOp27
 70
     1
102
RTVSPropertyOp28
 70
     1
102
RTVSPropertyOp29
 70
     1
102
RTVSPropertyOp30
 70
     1
102
RTVSPropertyOp31
 70
     1
102
RTVSPropertyOp32
 70
     1
102
RTVSPropertyOp33
 70
     1
102
RTVSPropertyOp34
 70
     1
102
RTVSPropertyOp35
 70
     1
102
RTVSPropertyOp36
 70
     1
102
RTVSPropertyOp37
 70
     1
102
RTVSPropertyOp38
 70
     1
102
RTVSPropertyOp39
 70
     1
102
RTVSPropertyOp40
 70
     1
102
RTVSPropertyOp41
 70
     1
102
RTVSPropertyOp42
 70
     1
102
RTVSPropertyOp43
 70
     1
102
RTVSPropertyOp44
 70
     1
102
RTVSPropertyOp45
 70
     1
102
RTVSPropertyOp46
 70
     1
102
RTVSPropertyOp47
 70
     1
102
RTVSPropertyOp48
 70
     1
102
RTVSPropertyOp49
 70
     1
102
RTVSPropertyOp50
 70
     1
102
RTVSPropertyOp51
 70
     0
102
RTVSPropertyOp52
 70
     0
102
RTVSPropertyOp53
 70
     1
102
RTVSPropertyOp54
 70
     1
102
RTVSPropertyOp55
 70
     1
102
RTVSPropertyOp56
 70
     1
102
RTVSPropertyOp57
 70
     1
102
RTVSPropertyOp58
 70
     1
102
RTVSPropertyOp59
 70
     1
102
RTVSPropertyOp60
 70
     1
102
RTVSPropertyOp61
 70
     1
102
RTVSPropertyOp62
 70
     1
  0
XRECORD
  5
93B4
102
{ACAD_REACTORS
330
93B3
102
}
330
93B3
100
AcDbXrecord
280
     1
102
RTVSPost2010Prop28
280
     0
102
RTVSPost2010PropOp28
 70
     0
102
RTVSPost2010Prop29
280
     1
102
RTVSPost2010PropOp29
 70
     0
102
RTVSPost2010Prop30
280
     1
102
RTVSPost2010PropOp30
 70
     0
102
RTVSPost2010Prop31
280
     0
102
RTVSPost2010PropOp31
 70
     0
102
RTVSPost2010Prop32
280
     0
102
RTVSPost2010PropOp32
 70
     0
102
RTVSPost2010Prop33
280
     0
102
RTVSPost2010PropOp33
 70
     0
102
RTVSPost2010Prop34
280
     0
102
RTVSPost2010PropOp34
 70
     0
102
RTVSPost2010Prop35
280
     0
102
RTVSPost2010PropOp35
 70
     0
102
RTVSPost2010Prop36
280
     0
102
RTVSPost2010PropOp36
 70
     0
102
RTVSPost2010Prop37
 90
       50
102
RTVSPost2010PropOp37
 70
     0
102
RTVSPost2010Prop38
140
0.0
102
RTVSPost2010PropOp38
 70
     0
102
RTVSPost2010Prop39
140
1.0
102
RTVSPost2010PropOp39
 70
     0
102
RTVSPost2010Prop40
 90
        0
102
RTVSPost2010PropOp40
 70
     0
102
RTVSPost2010Prop41ColorIndex
 90
       18
102
RTVSPost2010Prop41ColorRGB
 90
        0
102
RTVSPost2010PropOp41
 70
     0
102
RTVSPost2010Prop42
 90
       50
102
RTVSPost2010PropOp42
 70
     0
102
RTVSPost2010Prop43
 90
        3
102
RTVSPost2010PropOp43
 70
     0
102
RTVSPost2010Prop44ColorIndex
 90
        5
102
RTVSPost2010Prop44ColorRGB
 90
      255
102
RTVSPost2010PropOp44
 70
     0
102
RTVSPost2010Prop45
280
     0
102
RTVSPost2010PropOp45
 70
     0
102
RTVSPost2010Prop46
 90
       50
102
RTVSPost2010PropOp46
 70
     0
102
RTVSPost2010Prop47
 90
       50
102
RTVSPost2010PropOp47
 70
     0
102
RTVSPost2010Prop48
 90
       50
102
RTVSPost2010PropOp48
 70
     0
102
RTVSPost2010Prop49
280
     0
102
RTVSPost2010PropOp49
 70
     0
102
RTVSPost2010Prop50
 90
       50
102
RTVSPost2010PropOp50
 70
     0
102
RTVSPost2010Prop51ColorIndex
 90
      256
102
RTVSPost2010Prop51ColorRGB
 90
-16777216
102
RTVSPost2010PropOp51
 70
     0
102
RTVSPost2010Prop52
140
1.0
102
RTVSPost2010PropOp52
 70
     0
102
RTVSPost2010Prop53
 90
        2
102
RTVSPost2010PropOp53
 70
     0
102
RTVSPost2010Prop54
  1
strokes_ogs.tif
102
RTVSPost2010PropOp54
 70
     0
102
RTVSPost2010Prop55
280
     0
102
RTVSPost2010PropOp55
 70
     0
102
RTVSPost2010Prop56
140
1.0
102
RTVSPost2010PropOp56
 70
     0
102
RTVSPost2010Prop57
140
1.0
102
RTVSPost2010PropOp57
 70
     0
102
RTVSPropertyOp0
 70
     0
102
RTVSPropertyOp1
 70
     0
102
RTVSPropertyOp2
 70
     0
102
RTVSPropertyOp3
 70
     0
102
RTVSPropertyOp4
 70
     0
102
RTVSPropertyOp5
 70
     0
102
RTVSPropertyOp6
 70
     0
102
RTVSPropertyOp7
 70
     0
102
RTVSPropertyOp8
 70
     0
102
RTVSPropertyOp9
 70
     0
102
RTVSPropertyOp10
 70
     0
102
RTVSPropertyOp11
 70
     0
102
RTVSPropertyOp12
 70
     0
102
RTVSPropertyOp13
 70
     0
102
RTVSPropertyOp14
 70
     2
102
RTVSPropertyOp15
 70
     0
102
RTVSPropertyOp16
 70
     0
102
RTVSPropertyOp17
 70
     0
102
RTVSPropertyOp18
 70
     0
102
RTVSPropertyOp19
 70
     0
102
RTVSPropertyOp20
 70
     0
102
RTVSPropertyOp21
 70
     0
102
RTVSPropertyOp22
 70
     0
102
RTVSPropertyOp23
 70
     0
102
RTVSPropertyOp24
 70
     0
102
RTVSPropertyOp25
 70
     0
102
RTVSPropertyOp26
 70
     0
102
RTVSPropertyOp27
 70
     0
102
RTVSPropertyOp28
 70
     0
102
RTVSPropertyOp29
 70
     0
102
RTVSPropertyOp30
 70
     0
102
RTVSPropertyOp31
 70
     0
102
RTVSPropertyOp32
 70
     0
102
RTVSPropertyOp33
 70
     0
102
RTVSPropertyOp34
 70
     0
102
RTVSPropertyOp35
 70
     0
102
RTVSPropertyOp36
 70
     0
102
RTVSPropertyOp37
 70
     0
102
RTVSPropertyOp38
 70
     0
102
RTVSPropertyOp39
 70
     0
102
RTVSPropertyOp40
 70
     0
102
RTVSPropertyOp41
 70
     0
102
RTVSPropertyOp42
 70
     0
102
RTVSPropertyOp43
 70
     0
102
RTVSPropertyOp44
 70
     0
102
RTVSPropertyOp45
 70
     0
102
RTVSPropertyOp46
 70
     0
102
RTVSPropertyOp47
 70
     0
102
RTVSPropertyOp48
 70
     0
102
RTVSPropertyOp49
 70
     0
102
RTVSPropertyOp50
 70
     0
102
RTVSPropertyOp51
 70
     0
102
RTVSPropertyOp52
 70
     0
102
RTVSPropertyOp53
 70
     0
102
RTVSPropertyOp54
 70
     0
102
RTVSPropertyOp55
 70
     0
102
RTVSPropertyOp56
 70
     0
102
RTVSPropertyOp57
 70
     0
102
RTVSPropertyOp58
 70
     1
102
RTVSPropertyOp59
 70
     1
102
RTVSPropertyOp60
 70
     1
102
RTVSPropertyOp61
 70
     1
102
RTVSPropertyOp62
 70
     1
  0
XRECORD
  5
9399
102
{ACAD_REACTORS
330
9398
102
}
330
9398
100
AcDbXrecord
280
     1
102
RTVSPost2010Prop28
280
     0
102
RTVSPost2010PropOp28
 70
     1
102
RTVSPost2010Prop29
280
     1
102
RTVSPost2010PropOp29
 70
     1
102
RTVSPost2010Prop30
280
     1
102
RTVSPost2010PropOp30
 70
     1
102
RTVSPost2010Prop31
280
     0
102
RTVSPost2010PropOp31
 70
     1
102
RTVSPost2010Prop32
280
     0
102
RTVSPost2010PropOp32
 70
     1
102
RTVSPost2010Prop33
280
     0
102
RTVSPost2010PropOp33
 70
     1
102
RTVSPost2010Prop34
280
     0
102
RTVSPost2010PropOp34
 70
     1
102
RTVSPost2010Prop35
280
     0
102
RTVSPost2010PropOp35
 70
     1
102
RTVSPost2010Prop36
280
     0
102
RTVSPost2010PropOp36
 70
     1
102
RTVSPost2010Prop37
 90
       50
102
RTVSPost2010PropOp37
 70
     1
102
RTVSPost2010Prop38
140
0.0
102
RTVSPost2010PropOp38
 70
     1
102
RTVSPost2010Prop39
140
1.0
102
RTVSPost2010PropOp39
 70
     1
102
RTVSPost2010Prop40
 90
        0
102
RTVSPost2010PropOp40
 70
     1
102
RTVSPost2010Prop41ColorIndex
 90
       18
102
RTVSPost2010Prop41ColorRGB
 90
        0
102
RTVSPost2010PropOp41
 70
     1
102
RTVSPost2010Prop42
 90
       50
102
RTVSPost2010PropOp42
 70
     1
102
RTVSPost2010Prop43
 90
        3
102
RTVSPost2010PropOp43
 70
     1
102
RTVSPost2010Prop44ColorIndex
 90
        5
102
RTVSPost2010Prop44ColorRGB
 90
      255
102
RTVSPost2010PropOp44
 70
     1
102
RTVSPost2010Prop45
280
     0
102
RTVSPost2010PropOp45
 70
     1
102
RTVSPost2010Prop46
 90
       50
102
RTVSPost2010PropOp46
 70
     1
102
RTVSPost2010Prop47
 90
       50
102
RTVSPost2010PropOp47
 70
     1
102
RTVSPost2010Prop48
 90
       50
102
RTVSPost2010PropOp48
 70
     1
102
RTVSPost2010Prop49
280
     0
102
RTVSPost2010PropOp49
 70
     1
102
RTVSPost2010Prop50
 90
       50
102
RTVSPost2010PropOp50
 70
     1
102
RTVSPost2010Prop51ColorIndex
 90
      256
102
RTVSPost2010Prop51ColorRGB
 90
-16777216
102
RTVSPost2010PropOp51
 70
     0
102
RTVSPost2010Prop52
140
1.0
102
RTVSPost2010PropOp52
 70
     0
102
RTVSPost2010Prop53
 90
        2
102
RTVSPost2010PropOp53
 70
     1
102
RTVSPost2010Prop54
  1
strokes_ogs.tif
102
RTVSPost2010PropOp54
 70
     1
102
RTVSPost2010Prop55
280
     0
102
RTVSPost2010PropOp55
 70
     1
102
RTVSPost2010Prop56
140
1.0
102
RTVSPost2010PropOp56
 70
     1
102
RTVSPost2010Prop57
140
1.0
102
RTVSPost2010PropOp57
 70
     1
102
RTVSPropertyOp0
 70
     1
102
RTVSPropertyOp1
 70
     1
102
RTVSPropertyOp2
 70
     1
102
RTVSPropertyOp3
 70
     1
102
RTVSPropertyOp4
 70
     1
102
RTVSPropertyOp5
 70
     1
102
RTVSPropertyOp6
 70
     1
102
RTVSPropertyOp7
 70
     1
102
RTVSPropertyOp8
 70
     1
102
RTVSPropertyOp9
 70
     1
102
RTVSPropertyOp10
 70
     1
102
RTVSPropertyOp11
 70
     1
102
RTVSPropertyOp12
 70
     1
102
RTVSPropertyOp13
 70
     1
102
RTVSPropertyOp14
 70
     1
102
RTVSPropertyOp15
 70
     1
102
RTVSPropertyOp16
 70
     1
102
RTVSPropertyOp17
 70
     1
102
RTVSPropertyOp18
 70
     1
102
RTVSPropertyOp19
 70
     1
102
RTVSPropertyOp20
 70
     1
102
RTVSPropertyOp21
 70
     1
102
RTVSPropertyOp22
 70
     1
102
RTVSPropertyOp23
 70
     1
102
RTVSPropertyOp24
 70
     1
102
RTVSPropertyOp25
 70
     1
102
RTVSPropertyOp26
 70
     1
102
RTVSPropertyOp27
 70
     1
102
RTVSPropertyOp28
 70
     1
102
RTVSPropertyOp29
 70
     1
102
RTVSPropertyOp30
 70
     1
102
RTVSPropertyOp31
 70
     1
102
RTVSPropertyOp32
 70
     1
102
RTVSPropertyOp33
 70
     1
102
RTVSPropertyOp34
 70
     1
102
RTVSPropertyOp35
 70
     1
102
RTVSPropertyOp36
 70
     1
102
RTVSPropertyOp37
 70
     1
102
RTVSPropertyOp38
 70
     1
102
RTVSPropertyOp39
 70
     1
102
RTVSPropertyOp40
 70
     1
102
RTVSPropertyOp41
 70
     1
102
RTVSPropertyOp42
 70
     1
102
RTVSPropertyOp43
 70
     1
102
RTVSPropertyOp44
 70
     1
102
RTVSPropertyOp45
 70
     1
102
RTVSPropertyOp46
 70
     1
102
RTVSPropertyOp47
 70
     1
102
RTVSPropertyOp48
 70
     1
102
RTVSPropertyOp49
 70
     1
102
RTVSPropertyOp50
 70
     1
102
RTVSPropertyOp51
 70
     0
102
RTVSPropertyOp52
 70
     0
102
RTVSPropertyOp53
 70
     1
102
RTVSPropertyOp54
 70
     1
102
RTVSPropertyOp55
 70
     1
102
RTVSPropertyOp56
 70
     1
102
RTVSPropertyOp57
 70
     1
102
RTVSPropertyOp58
 70
     1
102
RTVSPropertyOp59
 70
     1
102
RTVSPropertyOp60
 70
     1
102
RTVSPropertyOp61
 70
     1
102
RTVSPropertyOp62
 70
     1
  0
XRECORD
  5
937D
102
{ACAD_REACTORS
330
937C
102
}
330
937C
100
AcDbXrecord
280
     1
102
RTVSPost2010Prop28
280
     0
102
RTVSPost2010PropOp28
 70
     1
102
RTVSPost2010Prop29
280
     1
102
RTVSPost2010PropOp29
 70
     1
102
RTVSPost2010Prop30
280
     1
102
RTVSPost2010PropOp30
 70
     1
102
RTVSPost2010Prop31
280
     0
102
RTVSPost2010PropOp31
 70
     1
102
RTVSPost2010Prop32
280
     0
102
RTVSPost2010PropOp32
 70
     1
102
RTVSPost2010Prop33
280
     0
102
RTVSPost2010PropOp33
 70
     1
102
RTVSPost2010Prop34
280
     0
102
RTVSPost2010PropOp34
 70
     1
102
RTVSPost2010Prop35
280
     0
102
RTVSPost2010PropOp35
 70
     1
102
RTVSPost2010Prop36
280
     0
102
RTVSPost2010PropOp36
 70
     1
102
RTVSPost2010Prop37
 90
       50
102
RTVSPost2010PropOp37
 70
     1
102
RTVSPost2010Prop38
140
0.0
102
RTVSPost2010PropOp38
 70
     1
102
RTVSPost2010Prop39
140
1.0
102
RTVSPost2010PropOp39
 70
     1
102
RTVSPost2010Prop40
 90
        0
102
RTVSPost2010PropOp40
 70
     1
102
RTVSPost2010Prop41ColorIndex
 90
       18
102
RTVSPost2010Prop41ColorRGB
 90
        0
102
RTVSPost2010PropOp41
 70
     1
102
RTVSPost2010Prop42
 90
       50
102
RTVSPost2010PropOp42
 70
     1
102
RTVSPost2010Prop43
 90
        3
102
RTVSPost2010PropOp43
 70
     1
102
RTVSPost2010Prop44ColorIndex
 90
        5
102
RTVSPost2010Prop44ColorRGB
 90
      255
102
RTVSPost2010PropOp44
 70
     1
102
RTVSPost2010Prop45
280
     0
102
RTVSPost2010PropOp45
 70
     1
102
RTVSPost2010Prop46
 90
       50
102
RTVSPost2010PropOp46
 70
     1
102
RTVSPost2010Prop47
 90
       50
102
RTVSPost2010PropOp47
 70
     1
102
RTVSPost2010Prop48
 90
       50
102
RTVSPost2010PropOp48
 70
     1
102
RTVSPost2010Prop49
280
     0
102
RTVSPost2010PropOp49
 70
     1
102
RTVSPost2010Prop50
 90
       50
102
RTVSPost2010PropOp50
 70
     1
102
RTVSPost2010Prop51ColorIndex
 90
      256
102
RTVSPost2010Prop51ColorRGB
 90
-16777216
102
RTVSPost2010PropOp51
 70
     0
102
RTVSPost2010Prop52
140
1.0
102
RTVSPost2010PropOp52
 70
     0
102
RTVSPost2010Prop53
 90
        2
102
RTVSPost2010PropOp53
 70
     1
102
RTVSPost2010Prop54
  1
strokes_ogs.tif
102
RTVSPost2010PropOp54
 70
     1
102
RTVSPost2010Prop55
280
     0
102
RTVSPost2010PropOp55
 70
     1
102
RTVSPost2010Prop56
140
1.0
102
RTVSPost2010PropOp56
 70
     1
102
RTVSPost2010Prop57
140
1.0
102
RTVSPost2010PropOp57
 70
     1
102
RTVSPropertyOp0
 70
     1
102
RTVSPropertyOp1
 70
     1
102
RTVSPropertyOp2
 70
     1
102
RTVSPropertyOp3
 70
     1
102
RTVSPropertyOp4
 70
     1
102
RTVSPropertyOp5
 70
     1
102
RTVSPropertyOp6
 70
     1
102
RTVSPropertyOp7
 70
     1
102
RTVSPropertyOp8
 70
     1
102
RTVSPropertyOp9
 70
     1
102
RTVSPropertyOp10
 70
     1
102
RTVSPropertyOp11
 70
     1
102
RTVSPropertyOp12
 70
     1
102
RTVSPropertyOp13
 70
     1
102
RTVSPropertyOp14
 70
     1
102
RTVSPropertyOp15
 70
     1
102
RTVSPropertyOp16
 70
     1
102
RTVSPropertyOp17
 70
     1
102
RTVSPropertyOp18
 70
     1
102
RTVSPropertyOp19
 70
     1
102
RTVSPropertyOp20
 70
     1
102
RTVSPropertyOp21
 70
     1
102
RTVSPropertyOp22
 70
     1
102
RTVSPropertyOp23
 70
     1
102
RTVSPropertyOp24
 70
     1
102
RTVSPropertyOp25
 70
     1
102
RTVSPropertyOp26
 70
     1
102
RTVSPropertyOp27
 70
     1
102
RTVSPropertyOp28
 70
     1
102
RTVSPropertyOp29
 70
     1
102
RTVSPropertyOp30
 70
     1
102
RTVSPropertyOp31
 70
     1
102
RTVSPropertyOp32
 70
     1
102
RTVSPropertyOp33
 70
     1
102
RTVSPropertyOp34
 70
     1
102
RTVSPropertyOp35
 70
     1
102
RTVSPropertyOp36
 70
     1
102
RTVSPropertyOp37
 70
     1
102
RTVSPropertyOp38
 70
     1
102
RTVSPropertyOp39
 70
     1
102
RTVSPropertyOp40
 70
     1
102
RTVSPropertyOp41
 70
     1
102
RTVSPropertyOp42
 70
     1
102
RTVSPropertyOp43
 70
     1
102
RTVSPropertyOp44
 70
     1
102
RTVSPropertyOp45
 70
     1
102
RTVSPropertyOp46
 70
     1
102
RTVSPropertyOp47
 70
     1
102
RTVSPropertyOp48
 70
     1
102
RTVSPropertyOp49
 70
     1
102
RTVSPropertyOp50
 70
     1
102
RTVSPropertyOp51
 70
     0
102
RTVSPropertyOp52
 70
     0
102
RTVSPropertyOp53
 70
     1
102
RTVSPropertyOp54
 70
     1
102
RTVSPropertyOp55
 70
     1
102
RTVSPropertyOp56
 70
     1
102
RTVSPropertyOp57
 70
     1
102
RTVSPropertyOp58
 70
     1
102
RTVSPropertyOp59
 70
     1
102
RTVSPropertyOp60
 70
     1
102
RTVSPropertyOp61
 70
     1
102
RTVSPropertyOp62
 70
     1
  0
XRECORD
  5
937F
102
{ACAD_REACTORS
330
937E
102
}
330
937E
100
AcDbXrecord
280
     1
102
RTVSPost2010Prop28
280
     0
102
RTVSPost2010PropOp28
 70
     1
102
RTVSPost2010Prop29
280
     1
102
RTVSPost2010PropOp29
 70
     1
102
RTVSPost2010Prop30
280
     1
102
RTVSPost2010PropOp30
 70
     1
102
RTVSPost2010Prop31
280
     0
102
RTVSPost2010PropOp31
 70
     1
102
RTVSPost2010Prop32
280
     0
102
RTVSPost2010PropOp32
 70
     1
102
RTVSPost2010Prop33
280
     0
102
RTVSPost2010PropOp33
 70
     1
102
RTVSPost2010Prop34
280
     0
102
RTVSPost2010PropOp34
 70
     1
102
RTVSPost2010Prop35
280
     0
102
RTVSPost2010PropOp35
 70
     1
102
RTVSPost2010Prop36
280
     0
102
RTVSPost2010PropOp36
 70
     1
102
RTVSPost2010Prop37
 90
       50
102
RTVSPost2010PropOp37
 70
     1
102
RTVSPost2010Prop38
140
0.0
102
RTVSPost2010PropOp38
 70
     1
102
RTVSPost2010Prop39
140
1.0
102
RTVSPost2010PropOp39
 70
     1
102
RTVSPost2010Prop40
 90
        0
102
RTVSPost2010PropOp40
 70
     1
102
RTVSPost2010Prop41ColorIndex
 90
       18
102
RTVSPost2010Prop41ColorRGB
 90
        0
102
RTVSPost2010PropOp41
 70
     1
102
RTVSPost2010Prop42
 90
       50
102
RTVSPost2010PropOp42
 70
     1
102
RTVSPost2010Prop43
 90
        3
102
RTVSPost2010PropOp43
 70
     1
102
RTVSPost2010Prop44ColorIndex
 90
        5
102
RTVSPost2010Prop44ColorRGB
 90
      255
102
RTVSPost2010PropOp44
 70
     1
102
RTVSPost2010Prop45
280
     0
102
RTVSPost2010PropOp45
 70
     1
102
RTVSPost2010Prop46
 90
       50
102
RTVSPost2010PropOp46
 70
     1
102
RTVSPost2010Prop47
 90
       50
102
RTVSPost2010PropOp47
 70
     1
102
RTVSPost2010Prop48
 90
       50
102
RTVSPost2010PropOp48
 70
     1
102
RTVSPost2010Prop49
280
     0
102
RTVSPost2010PropOp49
 70
     1
102
RTVSPost2010Prop50
 90
       50
102
RTVSPost2010PropOp50
 70
     1
102
RTVSPost2010Prop51ColorIndex
 90
      256
102
RTVSPost2010Prop51ColorRGB
 90
-16777216
102
RTVSPost2010PropOp51
 70
     0
102
RTVSPost2010Prop52
140
1.0
102
RTVSPost2010PropOp52
 70
     0
102
RTVSPost2010Prop53
 90
        2
102
RTVSPost2010PropOp53
 70
     1
102
RTVSPost2010Prop54
  1
strokes_ogs.tif
102
RTVSPost2010PropOp54
 70
     1
102
RTVSPost2010Prop55
280
     0
102
RTVSPost2010PropOp55
 70
     1
102
RTVSPost2010Prop56
140
1.0
102
RTVSPost2010PropOp56
 70
     1
102
RTVSPost2010Prop57
140
1.0
102
RTVSPost2010PropOp57
 70
     1
102
RTVSPropertyOp0
 70
     1
102
RTVSPropertyOp1
 70
     1
102
RTVSPropertyOp2
 70
     1
102
RTVSPropertyOp3
 70
     1
102
RTVSPropertyOp4
 70
     1
102
RTVSPropertyOp5
 70
     1
102
RTVSPropertyOp6
 70
     1
102
RTVSPropertyOp7
 70
     1
102
RTVSPropertyOp8
 70
     1
102
RTVSPropertyOp9
 70
     1
102
RTVSPropertyOp10
 70
     1
102
RTVSPropertyOp11
 70
     1
102
RTVSPropertyOp12
 70
     1
102
RTVSPropertyOp13
 70
     1
102
RTVSPropertyOp14
 70
     1
102
RTVSPropertyOp15
 70
     1
102
RTVSPropertyOp16
 70
     1
102
RTVSPropertyOp17
 70
     1
102
RTVSPropertyOp18
 70
     1
102
RTVSPropertyOp19
 70
     1
102
RTVSPropertyOp20
 70
     1
102
RTVSPropertyOp21
 70
     1
102
RTVSPropertyOp22
 70
     1
102
RTVSPropertyOp23
 70
     1
102
RTVSPropertyOp24
 70
     1
102
RTVSPropertyOp25
 70
     1
102
RTVSPropertyOp26
 70
     1
102
RTVSPropertyOp27
 70
     1
102
RTVSPropertyOp28
 70
     1
102
RTVSPropertyOp29
 70
     1
102
RTVSPropertyOp30
 70
     1
102
RTVSPropertyOp31
 70
     1
102
RTVSPropertyOp32
 70
     1
102
RTVSPropertyOp33
 70
     1
102
RTVSPropertyOp34
 70
     1
102
RTVSPropertyOp35
 70
     1
102
RTVSPropertyOp36
 70
     1
102
RTVSPropertyOp37
 70
     1
102
RTVSPropertyOp38
 70
     1
102
RTVSPropertyOp39
 70
     1
102
RTVSPropertyOp40
 70
     1
102
RTVSPropertyOp41
 70
     1
102
RTVSPropertyOp42
 70
     1
102
RTVSPropertyOp43
 70
     1
102
RTVSPropertyOp44
 70
     1
102
RTVSPropertyOp45
 70
     1
102
RTVSPropertyOp46
 70
     1
102
RTVSPropertyOp47
 70
     1
102
RTVSPropertyOp48
 70
     1
102
RTVSPropertyOp49
 70
     1
102
RTVSPropertyOp50
 70
     1
102
RTVSPropertyOp51
 70
     0
102
RTVSPropertyOp52
 70
     0
102
RTVSPropertyOp53
 70
     1
102
RTVSPropertyOp54
 70
     1
102
RTVSPropertyOp55
 70
     1
102
RTVSPropertyOp56
 70
     1
102
RTVSPropertyOp57
 70
     1
102
RTVSPropertyOp58
 70
     1
102
RTVSPropertyOp59
 70
     1
102
RTVSPropertyOp60
 70
     1
102
RTVSPropertyOp61
 70
     1
102
RTVSPropertyOp62
 70
     1
  0
XRECORD
  5
9381
102
{ACAD_REACTORS
330
9380
102
}
330
9380
100
AcDbXrecord
280
     1
102
RTVSPost2010Prop28
280
     0
102
RTVSPost2010PropOp28
 70
     1
102
RTVSPost2010Prop29
280
     1
102
RTVSPost2010PropOp29
 70
     1
102
RTVSPost2010Prop30
280
     1
102
RTVSPost2010PropOp30
 70
     1
102
RTVSPost2010Prop31
280
     0
102
RTVSPost2010PropOp31
 70
     1
102
RTVSPost2010Prop32
280
     0
102
RTVSPost2010PropOp32
 70
     1
102
RTVSPost2010Prop33
280
     0
102
RTVSPost2010PropOp33
 70
     1
102
RTVSPost2010Prop34
280
     0
102
RTVSPost2010PropOp34
 70
     1
102
RTVSPost2010Prop35
280
     0
102
RTVSPost2010PropOp35
 70
     1
102
RTVSPost2010Prop36
280
     0
102
RTVSPost2010PropOp36
 70
     1
102
RTVSPost2010Prop37
 90
       50
102
RTVSPost2010PropOp37
 70
     1
102
RTVSPost2010Prop38
140
0.0
102
RTVSPost2010PropOp38
 70
     1
102
RTVSPost2010Prop39
140
1.0
102
RTVSPost2010PropOp39
 70
     1
102
RTVSPost2010Prop40
 90
        0
102
RTVSPost2010PropOp40
 70
     1
102
RTVSPost2010Prop41ColorIndex
 90
       18
102
RTVSPost2010Prop41ColorRGB
 90
        0
102
RTVSPost2010PropOp41
 70
     1
102
RTVSPost2010Prop42
 90
       50
102
RTVSPost2010PropOp42
 70
     1
102
RTVSPost2010Prop43
 90
        3
102
RTVSPost2010PropOp43
 70
     1
102
RTVSPost2010Prop44ColorIndex
 90
        5
102
RTVSPost2010Prop44ColorRGB
 90
      255
102
RTVSPost2010PropOp44
 70
     1
102
RTVSPost2010Prop45
280
     0
102
RTVSPost2010PropOp45
 70
     1
102
RTVSPost2010Prop46
 90
       50
102
RTVSPost2010PropOp46
 70
     1
102
RTVSPost2010Prop47
 90
       50
102
RTVSPost2010PropOp47
 70
     1
102
RTVSPost2010Prop48
 90
       50
102
RTVSPost2010PropOp48
 70
     1
102
RTVSPost2010Prop49
280
     0
102
RTVSPost2010PropOp49
 70
     1
102
RTVSPost2010Prop50
 90
       50
102
RTVSPost2010PropOp50
 70
     1
102
RTVSPost2010Prop51ColorIndex
 90
      256
102
RTVSPost2010Prop51ColorRGB
 90
-16777216
102
RTVSPost2010PropOp51
 70
     0
102
RTVSPost2010Prop52
140
1.0
102
RTVSPost2010PropOp52
 70
     0
102
RTVSPost2010Prop53
 90
        2
102
RTVSPost2010PropOp53
 70
     1
102
RTVSPost2010Prop54
  1
strokes_ogs.tif
102
RTVSPost2010PropOp54
 70
     1
102
RTVSPost2010Prop55
280
     0
102
RTVSPost2010PropOp55
 70
     1
102
RTVSPost2010Prop56
140
1.0
102
RTVSPost2010PropOp56
 70
     1
102
RTVSPost2010Prop57
140
1.0
102
RTVSPost2010PropOp57
 70
     1
102
RTVSPropertyOp0
 70
     1
102
RTVSPropertyOp1
 70
     1
102
RTVSPropertyOp2
 70
     1
102
RTVSPropertyOp3
 70
     1
102
RTVSPropertyOp4
 70
     1
102
RTVSPropertyOp5
 70
     1
102
RTVSPropertyOp6
 70
     1
102
RTVSPropertyOp7
 70
     1
102
RTVSPropertyOp8
 70
     1
102
RTVSPropertyOp9
 70
     1
102
RTVSPropertyOp10
 70
     1
102
RTVSPropertyOp11
 70
     1
102
RTVSPropertyOp12
 70
     1
102
RTVSPropertyOp13
 70
     1
102
RTVSPropertyOp14
 70
     1
102
RTVSPropertyOp15
 70
     1
102
RTVSPropertyOp16
 70
     1
102
RTVSPropertyOp17
 70
     1
102
RTVSPropertyOp18
 70
     1
102
RTVSPropertyOp19
 70
     1
102
RTVSPropertyOp20
 70
     1
102
RTVSPropertyOp21
 70
     1
102
RTVSPropertyOp22
 70
     1
102
RTVSPropertyOp23
 70
     1
102
RTVSPropertyOp24
 70
     1
102
RTVSPropertyOp25
 70
     1
102
RTVSPropertyOp26
 70
     1
102
RTVSPropertyOp27
 70
     1
102
RTVSPropertyOp28
 70
     1
102
RTVSPropertyOp29
 70
     1
102
RTVSPropertyOp30
 70
     1
102
RTVSPropertyOp31
 70
     1
102
RTVSPropertyOp32
 70
     1
102
RTVSPropertyOp33
 70
     1
102
RTVSPropertyOp34
 70
     1
102
RTVSPropertyOp35
 70
     1
102
RTVSPropertyOp36
 70
     1
102
RTVSPropertyOp37
 70
     1
102
RTVSPropertyOp38
 70
     1
102
RTVSPropertyOp39
 70
     1
102
RTVSPropertyOp40
 70
     1
102
RTVSPropertyOp41
 70
     1
102
RTVSPropertyOp42
 70
     1
102
RTVSPropertyOp43
 70
     1
102
RTVSPropertyOp44
 70
     1
102
RTVSPropertyOp45
 70
     1
102
RTVSPropertyOp46
 70
     1
102
RTVSPropertyOp47
 70
     1
102
RTVSPropertyOp48
 70
     1
102
RTVSPropertyOp49
 70
     1
102
RTVSPropertyOp50
 70
     1
102
RTVSPropertyOp51
 70
     0
102
RTVSPropertyOp52
 70
     0
102
RTVSPropertyOp53
 70
     1
102
RTVSPropertyOp54
 70
     1
102
RTVSPropertyOp55
 70
     1
102
RTVSPropertyOp56
 70
     1
102
RTVSPropertyOp57
 70
     1
102
RTVSPropertyOp58
 70
     1
102
RTVSPropertyOp59
 70
     1
102
RTVSPropertyOp60
 70
     1
102
RTVSPropertyOp61
 70
     1
102
RTVSPropertyOp62
 70
     1
  0
XRECORD
  5
9383
102
{ACAD_REACTORS
330
9382
102
}
330
9382
100
AcDbXrecord
280
     1
102
RTVSPost2010Prop28
280
     0
102
RTVSPost2010PropOp28
 70
     1
102
RTVSPost2010Prop29
280
     1
102
RTVSPost2010PropOp29
 70
     1
102
RTVSPost2010Prop30
280
     1
102
RTVSPost2010PropOp30
 70
     1
102
RTVSPost2010Prop31
280
     0
102
RTVSPost2010PropOp31
 70
     1
102
RTVSPost2010Prop32
280
     0
102
RTVSPost2010PropOp32
 70
     1
102
RTVSPost2010Prop33
280
     0
102
RTVSPost2010PropOp33
 70
     1
102
RTVSPost2010Prop34
280
     0
102
RTVSPost2010PropOp34
 70
     1
102
RTVSPost2010Prop35
280
     0
102
RTVSPost2010PropOp35
 70
     1
102
RTVSPost2010Prop36
280
     0
102
RTVSPost2010PropOp36
 70
     1
102
RTVSPost2010Prop37
 90
       50
102
RTVSPost2010PropOp37
 70
     1
102
RTVSPost2010Prop38
140
0.0
102
RTVSPost2010PropOp38
 70
     1
102
RTVSPost2010Prop39
140
1.0
102
RTVSPost2010PropOp39
 70
     1
102
RTVSPost2010Prop40
 90
        0
102
RTVSPost2010PropOp40
 70
     1
102
RTVSPost2010Prop41ColorIndex
 90
       18
102
RTVSPost2010Prop41ColorRGB
 90
        0
102
RTVSPost2010PropOp41
 70
     1
102
RTVSPost2010Prop42
 90
       50
102
RTVSPost2010PropOp42
 70
     1
102
RTVSPost2010Prop43
 90
        3
102
RTVSPost2010PropOp43
 70
     1
102
RTVSPost2010Prop44ColorIndex
 90
        5
102
RTVSPost2010Prop44ColorRGB
 90
      255
102
RTVSPost2010PropOp44
 70
     1
102
RTVSPost2010Prop45
280
     0
102
RTVSPost2010PropOp45
 70
     1
102
RTVSPost2010Prop46
 90
       50
102
RTVSPost2010PropOp46
 70
     1
102
RTVSPost2010Prop47
 90
       50
102
RTVSPost2010PropOp47
 70
     1
102
RTVSPost2010Prop48
 90
       50
102
RTVSPost2010PropOp48
 70
     1
102
RTVSPost2010Prop49
280
     0
102
RTVSPost2010PropOp49
 70
     1
102
RTVSPost2010Prop50
 90
       50
102
RTVSPost2010PropOp50
 70
     1
102
RTVSPost2010Prop51ColorIndex
 90
      256
102
RTVSPost2010Prop51ColorRGB
 90
-16777216
102
RTVSPost2010PropOp51
 70
     0
102
RTVSPost2010Prop52
140
1.0
102
RTVSPost2010PropOp52
 70
     0
102
RTVSPost2010Prop53
 90
        2
102
RTVSPost2010PropOp53
 70
     1
102
RTVSPost2010Prop54
  1
strokes_ogs.tif
102
RTVSPost2010PropOp54
 70
     1
102
RTVSPost2010Prop55
280
     0
102
RTVSPost2010PropOp55
 70
     1
102
RTVSPost2010Prop56
140
1.0
102
RTVSPost2010PropOp56
 70
     1
102
RTVSPost2010Prop57
140
1.0
102
RTVSPost2010PropOp57
 70
     1
102
RTVSPropertyOp0
 70
     1
102
RTVSPropertyOp1
 70
     1
102
RTVSPropertyOp2
 70
     1
102
RTVSPropertyOp3
 70
     1
102
RTVSPropertyOp4
 70
     1
102
RTVSPropertyOp5
 70
     1
102
RTVSPropertyOp6
 70
     1
102
RTVSPropertyOp7
 70
     1
102
RTVSPropertyOp8
 70
     1
102
RTVSPropertyOp9
 70
     1
102
RTVSPropertyOp10
 70
     1
102
RTVSPropertyOp11
 70
     1
102
RTVSPropertyOp12
 70
     1
102
RTVSPropertyOp13
 70
     1
102
RTVSPropertyOp14
 70
     1
102
RTVSPropertyOp15
 70
     1
102
RTVSPropertyOp16
 70
     1
102
RTVSPropertyOp17
 70
     1
102
RTVSPropertyOp18
 70
     1
102
RTVSPropertyOp19
 70
     1
102
RTVSPropertyOp20
 70
     1
102
RTVSPropertyOp21
 70
     1
102
RTVSPropertyOp22
 70
     1
102
RTVSPropertyOp23
 70
     1
102
RTVSPropertyOp24
 70
     1
102
RTVSPropertyOp25
 70
     1
102
RTVSPropertyOp26
 70
     1
102
RTVSPropertyOp27
 70
     1
102
RTVSPropertyOp28
 70
     1
102
RTVSPropertyOp29
 70
     1
102
RTVSPropertyOp30
 70
     1
102
RTVSPropertyOp31
 70
     1
102
RTVSPropertyOp32
 70
     1
102
RTVSPropertyOp33
 70
     1
102
RTVSPropertyOp34
 70
     1
102
RTVSPropertyOp35
 70
     1
102
RTVSPropertyOp36
 70
     1
102
RTVSPropertyOp37
 70
     1
102
RTVSPropertyOp38
 70
     1
102
RTVSPropertyOp39
 70
     1
102
RTVSPropertyOp40
 70
     1
102
RTVSPropertyOp41
 70
     1
102
RTVSPropertyOp42
 70
     1
102
RTVSPropertyOp43
 70
     1
102
RTVSPropertyOp44
 70
     1
102
RTVSPropertyOp45
 70
     1
102
RTVSPropertyOp46
 70
     1
102
RTVSPropertyOp47
 70
     1
102
RTVSPropertyOp48
 70
     1
102
RTVSPropertyOp49
 70
     1
102
RTVSPropertyOp50
 70
     1
102
RTVSPropertyOp51
 70
     0
102
RTVSPropertyOp52
 70
     0
102
RTVSPropertyOp53
 70
     1
102
RTVSPropertyOp54
 70
     1
102
RTVSPropertyOp55
 70
     1
102
RTVSPropertyOp56
 70
     1
102
RTVSPropertyOp57
 70
     1
102
RTVSPropertyOp58
 70
     1
102
RTVSPropertyOp59
 70
     1
102
RTVSPropertyOp60
 70
     1
102
RTVSPropertyOp61
 70
     1
102
RTVSPropertyOp62
 70
     1
  0
XRECORD
  5
93A4
102
{ACAD_REACTORS
330
93A3
102
}
330
93A3
100
AcDbXrecord
280
     1
102
RTVSPost2010Prop28
280
     0
102
RTVSPost2010PropOp28
 70
     1
102
RTVSPost2010Prop29
280
     1
102
RTVSPost2010PropOp29
 70
     1
102
RTVSPost2010Prop30
280
     1
102
RTVSPost2010PropOp30
 70
     1
102
RTVSPost2010Prop31
280
     0
102
RTVSPost2010PropOp31
 70
     1
102
RTVSPost2010Prop32
280
     0
102
RTVSPost2010PropOp32
 70
     1
102
RTVSPost2010Prop33
280
     0
102
RTVSPost2010PropOp33
 70
     1
102
RTVSPost2010Prop34
280
     0
102
RTVSPost2010PropOp34
 70
     1
102
RTVSPost2010Prop35
280
     0
102
RTVSPost2010PropOp35
 70
     1
102
RTVSPost2010Prop36
280
     0
102
RTVSPost2010PropOp36
 70
     1
102
RTVSPost2010Prop37
 90
       50
102
RTVSPost2010PropOp37
 70
     1
102
RTVSPost2010Prop38
140
0.0
102
RTVSPost2010PropOp38
 70
     1
102
RTVSPost2010Prop39
140
1.0
102
RTVSPost2010PropOp39
 70
     1
102
RTVSPost2010Prop40
 90
        0
102
RTVSPost2010PropOp40
 70
     1
102
RTVSPost2010Prop41ColorIndex
 90
       18
102
RTVSPost2010Prop41ColorRGB
 90
        0
102
RTVSPost2010PropOp41
 70
     1
102
RTVSPost2010Prop42
 90
       50
102
RTVSPost2010PropOp42
 70
     1
102
RTVSPost2010Prop43
 90
        3
102
RTVSPost2010PropOp43
 70
     1
102
RTVSPost2010Prop44ColorIndex
 90
        5
102
RTVSPost2010Prop44ColorRGB
 90
      255
102
RTVSPost2010PropOp44
 70
     1
102
RTVSPost2010Prop45
280
     0
102
RTVSPost2010PropOp45
 70
     1
102
RTVSPost2010Prop46
 90
       50
102
RTVSPost2010PropOp46
 70
     1
102
RTVSPost2010Prop47
 90
       50
102
RTVSPost2010PropOp47
 70
     1
102
RTVSPost2010Prop48
 90
       50
102
RTVSPost2010PropOp48
 70
     1
102
RTVSPost2010Prop49
280
     0
102
RTVSPost2010PropOp49
 70
     1
102
RTVSPost2010Prop50
 90
       50
102
RTVSPost2010PropOp50
 70
     1
102
RTVSPost2010Prop51ColorIndex
 90
      256
102
RTVSPost2010Prop51ColorRGB
 90
-16777216
102
RTVSPost2010PropOp51
 70
     0
102
RTVSPost2010Prop52
140
1.0
102
RTVSPost2010PropOp52
 70
     0
102
RTVSPost2010Prop53
 90
        2
102
RTVSPost2010PropOp53
 70
     1
102
RTVSPost2010Prop54
  1
strokes_ogs.tif
102
RTVSPost2010PropOp54
 70
     1
102
RTVSPost2010Prop55
280
     0
102
RTVSPost2010PropOp55
 70
     1
102
RTVSPost2010Prop56
140
1.0
102
RTVSPost2010PropOp56
 70
     1
102
RTVSPost2010Prop57
140
1.0
102
RTVSPost2010PropOp57
 70
     1
102
RTVSPropertyOp0
 70
     1
102
RTVSPropertyOp1
 70
     1
102
RTVSPropertyOp2
 70
     1
102
RTVSPropertyOp3
 70
     1
102
RTVSPropertyOp4
 70
     1
102
RTVSPropertyOp5
 70
     1
102
RTVSPropertyOp6
 70
     1
102
RTVSPropertyOp7
 70
     1
102
RTVSPropertyOp8
 70
     1
102
RTVSPropertyOp9
 70
     1
102
RTVSPropertyOp10
 70
     1
102
RTVSPropertyOp11
 70
     1
102
RTVSPropertyOp12
 70
     1
102
RTVSPropertyOp13
 70
     1
102
RTVSPropertyOp14
 70
     1
102
RTVSPropertyOp15
 70
     1
102
RTVSPropertyOp16
 70
     1
102
RTVSPropertyOp17
 70
     1
102
RTVSPropertyOp18
 70
     1
102
RTVSPropertyOp19
 70
     1
102
RTVSPropertyOp20
 70
     1
102
RTVSPropertyOp21
 70
     1
102
RTVSPropertyOp22
 70
     1
102
RTVSPropertyOp23
 70
     1
102
RTVSPropertyOp24
 70
     1
102
RTVSPropertyOp25
 70
     1
102
RTVSPropertyOp26
 70
     1
102
RTVSPropertyOp27
 70
     1
102
RTVSPropertyOp28
 70
     1
102
RTVSPropertyOp29
 70
     1
102
RTVSPropertyOp30
 70
     1
102
RTVSPropertyOp31
 70
     1
102
RTVSPropertyOp32
 70
     1
102
RTVSPropertyOp33
 70
     1
102
RTVSPropertyOp34
 70
     1
102
RTVSPropertyOp35
 70
     1
102
RTVSPropertyOp36
 70
     1
102
RTVSPropertyOp37
 70
     1
102
RTVSPropertyOp38
 70
     1
102
RTVSPropertyOp39
 70
     1
102
RTVSPropertyOp40
 70
     1
102
RTVSPropertyOp41
 70
     1
102
RTVSPropertyOp42
 70
     1
102
RTVSPropertyOp43
 70
     1
102
RTVSPropertyOp44
 70
     1
102
RTVSPropertyOp45
 70
     1
102
RTVSPropertyOp46
 70
     1
102
RTVSPropertyOp47
 70
     1
102
RTVSPropertyOp48
 70
     1
102
RTVSPropertyOp49
 70
     1
102
RTVSPropertyOp50
 70
     1
102
RTVSPropertyOp51
 70
     0
102
RTVSPropertyOp52
 70
     0
102
RTVSPropertyOp53
 70
     1
102
RTVSPropertyOp54
 70
     1
102
RTVSPropertyOp55
 70
     1
102
RTVSPropertyOp56
 70
     1
102
RTVSPropertyOp57
 70
     1
102
RTVSPropertyOp58
 70
     1
102
RTVSPropertyOp59
 70
     1
102
RTVSPropertyOp60
 70
     1
102
RTVSPropertyOp61
 70
     1
102
RTVSPropertyOp62
 70
     1
  0
XRECORD
  5
93B0
102
{ACAD_REACTORS
330
93AF
102
}
330
93AF
100
AcDbXrecord
280
     1
102
RTVSPost2010Prop28
280
     0
102
RTVSPost2010PropOp28
 70
     0
102
RTVSPost2010Prop29
280
     1
102
RTVSPost2010PropOp29
 70
     0
102
RTVSPost2010Prop30
280
     1
102
RTVSPost2010PropOp30
 70
     0
102
RTVSPost2010Prop31
280
     0
102
RTVSPost2010PropOp31
 70
     0
102
RTVSPost2010Prop32
280
     0
102
RTVSPost2010PropOp32
 70
     0
102
RTVSPost2010Prop33
280
     0
102
RTVSPost2010PropOp33
 70
     0
102
RTVSPost2010Prop34
280
     0
102
RTVSPost2010PropOp34
 70
     0
102
RTVSPost2010Prop35
280
     0
102
RTVSPost2010PropOp35
 70
     0
102
RTVSPost2010Prop36
280
     0
102
RTVSPost2010PropOp36
 70
     0
102
RTVSPost2010Prop37
 90
       50
102
RTVSPost2010PropOp37
 70
     0
102
RTVSPost2010Prop38
140
0.0
102
RTVSPost2010PropOp38
 70
     0
102
RTVSPost2010Prop39
140
1.0
102
RTVSPost2010PropOp39
 70
     0
102
RTVSPost2010Prop40
 90
        0
102
RTVSPost2010PropOp40
 70
     0
102
RTVSPost2010Prop41ColorIndex
 90
       18
102
RTVSPost2010Prop41ColorRGB
 90
        0
102
RTVSPost2010PropOp41
 70
     0
102
RTVSPost2010Prop42
 90
       50
102
RTVSPost2010PropOp42
 70
     0
102
RTVSPost2010Prop43
 90
        3
102
RTVSPost2010PropOp43
 70
     0
102
RTVSPost2010Prop44ColorIndex
 90
        5
102
RTVSPost2010Prop44ColorRGB
 90
      255
102
RTVSPost2010PropOp44
 70
     0
102
RTVSPost2010Prop45
280
     0
102
RTVSPost2010PropOp45
 70
     0
102
RTVSPost2010Prop46
 90
       50
102
RTVSPost2010PropOp46
 70
     0
102
RTVSPost2010Prop47
 90
       50
102
RTVSPost2010PropOp47
 70
     0
102
RTVSPost2010Prop48
 90
       50
102
RTVSPost2010PropOp48
 70
     0
102
RTVSPost2010Prop49
280
     0
102
RTVSPost2010PropOp49
 70
     0
102
RTVSPost2010Prop50
 90
       50
102
RTVSPost2010PropOp50
 70
     0
102
RTVSPost2010Prop51ColorIndex
 90
      256
102
RTVSPost2010Prop51ColorRGB
 90
-16777216
102
RTVSPost2010PropOp51
 70
     0
102
RTVSPost2010Prop52
140
1.0
102
RTVSPost2010PropOp52
 70
     0
102
RTVSPost2010Prop53
 90
        2
102
RTVSPost2010PropOp53
 70
     0
102
RTVSPost2010Prop54
  1
strokes_ogs.tif
102
RTVSPost2010PropOp54
 70
     0
102
RTVSPost2010Prop55
280
     0
102
RTVSPost2010PropOp55
 70
     0
102
RTVSPost2010Prop56
140
1.0
102
RTVSPost2010PropOp56
 70
     0
102
RTVSPost2010Prop57
140
1.0
102
RTVSPost2010PropOp57
 70
     0
102
RTVSPropertyOp0
 70
     0
102
RTVSPropertyOp1
 70
     0
102
RTVSPropertyOp2
 70
     0
102
RTVSPropertyOp3
 70
     0
102
RTVSPropertyOp4
 70
     0
102
RTVSPropertyOp5
 70
     0
102
RTVSPropertyOp6
 70
     0
102
RTVSPropertyOp7
 70
     0
102
RTVSPropertyOp8
 70
     0
102
RTVSPropertyOp9
 70
     0
102
RTVSPropertyOp10
 70
     0
102
RTVSPropertyOp11
 70
     0
102
RTVSPropertyOp12
 70
     0
102
RTVSPropertyOp13
 70
     0
102
RTVSPropertyOp14
 70
     2
102
RTVSPropertyOp15
 70
     0
102
RTVSPropertyOp16
 70
     0
102
RTVSPropertyOp17
 70
     0
102
RTVSPropertyOp18
 70
     0
102
RTVSPropertyOp19
 70
     0
102
RTVSPropertyOp20
 70
     0
102
RTVSPropertyOp21
 70
     0
102
RTVSPropertyOp22
 70
     0
102
RTVSPropertyOp23
 70
     0
102
RTVSPropertyOp24
 70
     0
102
RTVSPropertyOp25
 70
     0
102
RTVSPropertyOp26
 70
     0
102
RTVSPropertyOp27
 70
     0
102
RTVSPropertyOp28
 70
     0
102
RTVSPropertyOp29
 70
     0
102
RTVSPropertyOp30
 70
     0
102
RTVSPropertyOp31
 70
     0
102
RTVSPropertyOp32
 70
     0
102
RTVSPropertyOp33
 70
     0
102
RTVSPropertyOp34
 70
     0
102
RTVSPropertyOp35
 70
     0
102
RTVSPropertyOp36
 70
     0
102
RTVSPropertyOp37
 70
     0
102
RTVSPropertyOp38
 70
     0
102
RTVSPropertyOp39
 70
     0
102
RTVSPropertyOp40
 70
     0
102
RTVSPropertyOp41
 70
     0
102
RTVSPropertyOp42
 70
     0
102
RTVSPropertyOp43
 70
     0
102
RTVSPropertyOp44
 70
     0
102
RTVSPropertyOp45
 70
     0
102
RTVSPropertyOp46
 70
     0
102
RTVSPropertyOp47
 70
     0
102
RTVSPropertyOp48
 70
     0
102
RTVSPropertyOp49
 70
     0
102
RTVSPropertyOp50
 70
     0
102
RTVSPropertyOp51
 70
     0
102
RTVSPropertyOp52
 70
     0
102
RTVSPropertyOp53
 70
     0
102
RTVSPropertyOp54
 70
     0
102
RTVSPropertyOp55
 70
     0
102
RTVSPropertyOp56
 70
     0
102
RTVSPropertyOp57
 70
     0
102
RTVSPropertyOp58
 70
     1
102
RTVSPropertyOp59
 70
     1
102
RTVSPropertyOp60
 70
     1
102
RTVSPropertyOp61
 70
     1
102
RTVSPropertyOp62
 70
     1
  0
XRECORD
  5
9397
102
{ACAD_REACTORS
330
9396
102
}
330
9396
100
AcDbXrecord
280
     1
102
RTVSPost2010Prop28
280
     0
102
RTVSPost2010PropOp28
 70
     1
102
RTVSPost2010Prop29
280
     1
102
RTVSPost2010PropOp29
 70
     1
102
RTVSPost2010Prop30
280
     1
102
RTVSPost2010PropOp30
 70
     1
102
RTVSPost2010Prop31
280
     0
102
RTVSPost2010PropOp31
 70
     1
102
RTVSPost2010Prop32
280
     0
102
RTVSPost2010PropOp32
 70
     1
102
RTVSPost2010Prop33
280
     0
102
RTVSPost2010PropOp33
 70
     1
102
RTVSPost2010Prop34
280
     0
102
RTVSPost2010PropOp34
 70
     1
102
RTVSPost2010Prop35
280
     0
102
RTVSPost2010PropOp35
 70
     1
102
RTVSPost2010Prop36
280
     0
102
RTVSPost2010PropOp36
 70
     1
102
RTVSPost2010Prop37
 90
       50
102
RTVSPost2010PropOp37
 70
     1
102
RTVSPost2010Prop38
140
0.0
102
RTVSPost2010PropOp38
 70
     1
102
RTVSPost2010Prop39
140
1.0
102
RTVSPost2010PropOp39
 70
     1
102
RTVSPost2010Prop40
 90
        0
102
RTVSPost2010PropOp40
 70
     1
102
RTVSPost2010Prop41ColorIndex
 90
       18
102
RTVSPost2010Prop41ColorRGB
 90
        0
102
RTVSPost2010PropOp41
 70
     1
102
RTVSPost2010Prop42
 90
       50
102
RTVSPost2010PropOp42
 70
     1
102
RTVSPost2010Prop43
 90
        3
102
RTVSPost2010PropOp43
 70
     1
102
RTVSPost2010Prop44ColorIndex
 90
        5
102
RTVSPost2010Prop44ColorRGB
 90
      255
102
RTVSPost2010PropOp44
 70
     1
102
RTVSPost2010Prop45
280
     0
102
RTVSPost2010PropOp45
 70
     1
102
RTVSPost2010Prop46
 90
       50
102
RTVSPost2010PropOp46
 70
     1
102
RTVSPost2010Prop47
 90
       50
102
RTVSPost2010PropOp47
 70
     1
102
RTVSPost2010Prop48
 90
       50
102
RTVSPost2010PropOp48
 70
     1
102
RTVSPost2010Prop49
280
     0
102
RTVSPost2010PropOp49
 70
     1
102
RTVSPost2010Prop50
 90
       50
102
RTVSPost2010PropOp50
 70
     1
102
RTVSPost2010Prop51ColorIndex
 90
      256
102
RTVSPost2010Prop51ColorRGB
 90
-16777216
102
RTVSPost2010PropOp51
 70
     0
102
RTVSPost2010Prop52
140
1.0
102
RTVSPost2010PropOp52
 70
     0
102
RTVSPost2010Prop53
 90
        2
102
RTVSPost2010PropOp53
 70
     1
102
RTVSPost2010Prop54
  1
strokes_ogs.tif
102
RTVSPost2010PropOp54
 70
     1
102
RTVSPost2010Prop55
280
     0
102
RTVSPost2010PropOp55
 70
     1
102
RTVSPost2010Prop56
140
1.0
102
RTVSPost2010PropOp56
 70
     1
102
RTVSPost2010Prop57
140
1.0
102
RTVSPost2010PropOp57
 70
     1
102
RTVSPropertyOp0
 70
     1
102
RTVSPropertyOp1
 70
     1
102
RTVSPropertyOp2
 70
     1
102
RTVSPropertyOp3
 70
     1
102
RTVSPropertyOp4
 70
     1
102
RTVSPropertyOp5
 70
     1
102
RTVSPropertyOp6
 70
     1
102
RTVSPropertyOp7
 70
     1
102
RTVSPropertyOp8
 70
     1
102
RTVSPropertyOp9
 70
     1
102
RTVSPropertyOp10
 70
     1
102
RTVSPropertyOp11
 70
     1
102
RTVSPropertyOp12
 70
     1
102
RTVSPropertyOp13
 70
     1
102
RTVSPropertyOp14
 70
     1
102
RTVSPropertyOp15
 70
     1
102
RTVSPropertyOp16
 70
     1
102
RTVSPropertyOp17
 70
     1
102
RTVSPropertyOp18
 70
     1
102
RTVSPropertyOp19
 70
     1
102
RTVSPropertyOp20
 70
     1
102
RTVSPropertyOp21
 70
     1
102
RTVSPropertyOp22
 70
     1
102
RTVSPropertyOp23
 70
     1
102
RTVSPropertyOp24
 70
     1
102
RTVSPropertyOp25
 70
     1
102
RTVSPropertyOp26
 70
     1
102
RTVSPropertyOp27
 70
     1
102
RTVSPropertyOp28
 70
     1
102
RTVSPropertyOp29
 70
     1
102
RTVSPropertyOp30
 70
     1
102
RTVSPropertyOp31
 70
     1
102
RTVSPropertyOp32
 70
     1
102
RTVSPropertyOp33
 70
     1
102
RTVSPropertyOp34
 70
     1
102
RTVSPropertyOp35
 70
     1
102
RTVSPropertyOp36
 70
     1
102
RTVSPropertyOp37
 70
     1
102
RTVSPropertyOp38
 70
     1
102
RTVSPropertyOp39
 70
     1
102
RTVSPropertyOp40
 70
     1
102
RTVSPropertyOp41
 70
     1
102
RTVSPropertyOp42
 70
     1
102
RTVSPropertyOp43
 70
     1
102
RTVSPropertyOp44
 70
     1
102
RTVSPropertyOp45
 70
     1
102
RTVSPropertyOp46
 70
     1
102
RTVSPropertyOp47
 70
     1
102
RTVSPropertyOp48
 70
     1
102
RTVSPropertyOp49
 70
     1
102
RTVSPropertyOp50
 70
     1
102
RTVSPropertyOp51
 70
     0
102
RTVSPropertyOp52
 70
     0
102
RTVSPropertyOp53
 70
     1
102
RTVSPropertyOp54
 70
     1
102
RTVSPropertyOp55
 70
     1
102
RTVSPropertyOp56
 70
     1
102
RTVSPropertyOp57
 70
     1
102
RTVSPropertyOp58
 70
     1
102
RTVSPropertyOp59
 70
     1
102
RTVSPropertyOp60
 70
     1
102
RTVSPropertyOp61
 70
     1
102
RTVSPropertyOp62
 70
     1
  0
XRECORD
  5
93B2
102
{ACAD_REACTORS
330
93B1
102
}
330
93B1
100
AcDbXrecord
280
     1
102
RTVSPost2010Prop28
280
     0
102
RTVSPost2010PropOp28
 70
     0
102
RTVSPost2010Prop29
280
     1
102
RTVSPost2010PropOp29
 70
     0
102
RTVSPost2010Prop30
280
     1
102
RTVSPost2010PropOp30
 70
     0
102
RTVSPost2010Prop31
280
     0
102
RTVSPost2010PropOp31
 70
     0
102
RTVSPost2010Prop32
280
     0
102
RTVSPost2010PropOp32
 70
     0
102
RTVSPost2010Prop33
280
     0
102
RTVSPost2010PropOp33
 70
     0
102
RTVSPost2010Prop34
280
     0
102
RTVSPost2010PropOp34
 70
     0
102
RTVSPost2010Prop35
280
     0
102
RTVSPost2010PropOp35
 70
     0
102
RTVSPost2010Prop36
280
     0
102
RTVSPost2010PropOp36
 70
     0
102
RTVSPost2010Prop37
 90
       50
102
RTVSPost2010PropOp37
 70
     0
102
RTVSPost2010Prop38
140
0.0
102
RTVSPost2010PropOp38
 70
     0
102
RTVSPost2010Prop39
140
1.0
102
RTVSPost2010PropOp39
 70
     0
102
RTVSPost2010Prop40
 90
        0
102
RTVSPost2010PropOp40
 70
     0
102
RTVSPost2010Prop41ColorIndex
 90
       18
102
RTVSPost2010Prop41ColorRGB
 90
        0
102
RTVSPost2010PropOp41
 70
     0
102
RTVSPost2010Prop42
 90
       50
102
RTVSPost2010PropOp42
 70
     0
102
RTVSPost2010Prop43
 90
        3
102
RTVSPost2010PropOp43
 70
     0
102
RTVSPost2010Prop44ColorIndex
 90
        5
102
RTVSPost2010Prop44ColorRGB
 90
      255
102
RTVSPost2010PropOp44
 70
     0
102
RTVSPost2010Prop45
280
     0
102
RTVSPost2010PropOp45
 70
     0
102
RTVSPost2010Prop46
 90
       50
102
RTVSPost2010PropOp46
 70
     0
102
RTVSPost2010Prop47
 90
       50
102
RTVSPost2010PropOp47
 70
     0
102
RTVSPost2010Prop48
 90
       50
102
RTVSPost2010PropOp48
 70
     0
102
RTVSPost2010Prop49
280
     0
102
RTVSPost2010PropOp49
 70
     0
102
RTVSPost2010Prop50
 90
       50
102
RTVSPost2010PropOp50
 70
     0
102
RTVSPost2010Prop51ColorIndex
 90
      256
102
RTVSPost2010Prop51ColorRGB
 90
-16777216
102
RTVSPost2010PropOp51
 70
     0
102
RTVSPost2010Prop52
140
1.0
102
RTVSPost2010PropOp52
 70
     0
102
RTVSPost2010Prop53
 90
        2
102
RTVSPost2010PropOp53
 70
     0
102
RTVSPost2010Prop54
  1
strokes_ogs.tif
102
RTVSPost2010PropOp54
 70
     0
102
RTVSPost2010Prop55
280
     0
102
RTVSPost2010PropOp55
 70
     0
102
RTVSPost2010Prop56
140
1.0
102
RTVSPost2010PropOp56
 70
     0
102
RTVSPost2010Prop57
140
1.0
102
RTVSPost2010PropOp57
 70
     0
102
RTVSPropertyOp0
 70
     0
102
RTVSPropertyOp1
 70
     0
102
RTVSPropertyOp2
 70
     0
102
RTVSPropertyOp3
 70
     0
102
RTVSPropertyOp4
 70
     0
102
RTVSPropertyOp5
 70
     0
102
RTVSPropertyOp6
 70
     0
102
RTVSPropertyOp7
 70
     0
102
RTVSPropertyOp8
 70
     0
102
RTVSPropertyOp9
 70
     0
102
RTVSPropertyOp10
 70
     0
102
RTVSPropertyOp11
 70
     0
102
RTVSPropertyOp12
 70
     0
102
RTVSPropertyOp13
 70
     0
102
RTVSPropertyOp14
 70
     2
102
RTVSPropertyOp15
 70
     0
102
RTVSPropertyOp16
 70
     0
102
RTVSPropertyOp17
 70
     0
102
RTVSPropertyOp18
 70
     0
102
RTVSPropertyOp19
 70
     0
102
RTVSPropertyOp20
 70
     0
102
RTVSPropertyOp21
 70
     0
102
RTVSPropertyOp22
 70
     0
102
RTVSPropertyOp23
 70
     0
102
RTVSPropertyOp24
 70
     0
102
RTVSPropertyOp25
 70
     0
102
RTVSPropertyOp26
 70
     0
102
RTVSPropertyOp27
 70
     0
102
RTVSPropertyOp28
 70
     0
102
RTVSPropertyOp29
 70
     0
102
RTVSPropertyOp30
 70
     0
102
RTVSPropertyOp31
 70
     0
102
RTVSPropertyOp32
 70
     0
102
RTVSPropertyOp33
 70
     0
102
RTVSPropertyOp34
 70
     0
102
RTVSPropertyOp35
 70
     0
102
RTVSPropertyOp36
 70
     0
102
RTVSPropertyOp37
 70
     0
102
RTVSPropertyOp38
 70
     0
102
RTVSPropertyOp39
 70
     0
102
RTVSPropertyOp40
 70
     0
102
RTVSPropertyOp41
 70
     0
102
RTVSPropertyOp42
 70
     0
102
RTVSPropertyOp43
 70
     0
102
RTVSPropertyOp44
 70
     0
102
RTVSPropertyOp45
 70
     0
102
RTVSPropertyOp46
 70
     0
102
RTVSPropertyOp47
 70
     0
102
RTVSPropertyOp48
 70
     0
102
RTVSPropertyOp49
 70
     0
102
RTVSPropertyOp50
 70
     0
102
RTVSPropertyOp51
 70
     0
102
RTVSPropertyOp52
 70
     0
102
RTVSPropertyOp53
 70
     0
102
RTVSPropertyOp54
 70
     0
102
RTVSPropertyOp55
 70
     0
102
RTVSPropertyOp56
 70
     0
102
RTVSPropertyOp57
 70
     0
102
RTVSPropertyOp58
 70
     1
102
RTVSPropertyOp59
 70
     1
102
RTVSPropertyOp60
 70
     1
102
RTVSPropertyOp61
 70
     1
102
RTVSPropertyOp62
 70
     1
  0
XRECORD
  5
938F
102
{ACAD_REACTORS
330
938E
102
}
330
938E
100
AcDbXrecord
280
     1
102
RTVSPost2010Prop28
280
     0
102
RTVSPost2010PropOp28
 70
     1
102
RTVSPost2010Prop29
280
     1
102
RTVSPost2010PropOp29
 70
     1
102
RTVSPost2010Prop30
280
     1
102
RTVSPost2010PropOp30
 70
     1
102
RTVSPost2010Prop31
280
     0
102
RTVSPost2010PropOp31
 70
     1
102
RTVSPost2010Prop32
280
     0
102
RTVSPost2010PropOp32
 70
     1
102
RTVSPost2010Prop33
280
     0
102
RTVSPost2010PropOp33
 70
     1
102
RTVSPost2010Prop34
280
     0
102
RTVSPost2010PropOp34
 70
     1
102
RTVSPost2010Prop35
280
     0
102
RTVSPost2010PropOp35
 70
     1
102
RTVSPost2010Prop36
280
     0
102
RTVSPost2010PropOp36
 70
     1
102
RTVSPost2010Prop37
 90
       50
102
RTVSPost2010PropOp37
 70
     1
102
RTVSPost2010Prop38
140
0.0
102
RTVSPost2010PropOp38
 70
     1
102
RTVSPost2010Prop39
140
1.0
102
RTVSPost2010PropOp39
 70
     1
102
RTVSPost2010Prop40
 90
        0
102
RTVSPost2010PropOp40
 70
     1
102
RTVSPost2010Prop41ColorIndex
 90
       18
102
RTVSPost2010Prop41ColorRGB
 90
        0
102
RTVSPost2010PropOp41
 70
     1
102
RTVSPost2010Prop42
 90
       50
102
RTVSPost2010PropOp42
 70
     1
102
RTVSPost2010Prop43
 90
        3
102
RTVSPost2010PropOp43
 70
     1
102
RTVSPost2010Prop44ColorIndex
 90
        5
102
RTVSPost2010Prop44ColorRGB
 90
      255
102
RTVSPost2010PropOp44
 70
     1
102
RTVSPost2010Prop45
280
     0
102
RTVSPost2010PropOp45
 70
     1
102
RTVSPost2010Prop46
 90
       50
102
RTVSPost2010PropOp46
 70
     1
102
RTVSPost2010Prop47
 90
       50
102
RTVSPost2010PropOp47
 70
     1
102
RTVSPost2010Prop48
 90
       50
102
RTVSPost2010PropOp48
 70
     1
102
RTVSPost2010Prop49
280
     0
102
RTVSPost2010PropOp49
 70
     1
102
RTVSPost2010Prop50
 90
       50
102
RTVSPost2010PropOp50
 70
     1
102
RTVSPost2010Prop51ColorIndex
 90
      256
102
RTVSPost2010Prop51ColorRGB
 90
-16777216
102
RTVSPost2010PropOp51
 70
     0
102
RTVSPost2010Prop52
140
1.0
102
RTVSPost2010PropOp52
 70
     0
102
RTVSPost2010Prop53
 90
        2
102
RTVSPost2010PropOp53
 70
     1
102
RTVSPost2010Prop54
  1
strokes_ogs.tif
102
RTVSPost2010PropOp54
 70
     1
102
RTVSPost2010Prop55
280
     0
102
RTVSPost2010PropOp55
 70
     1
102
RTVSPost2010Prop56
140
1.0
102
RTVSPost2010PropOp56
 70
     1
102
RTVSPost2010Prop57
140
1.0
102
RTVSPost2010PropOp57
 70
     1
102
RTVSPropertyOp0
 70
     1
102
RTVSPropertyOp1
 70
     1
102
RTVSPropertyOp2
 70
     1
102
RTVSPropertyOp3
 70
     1
102
RTVSPropertyOp4
 70
     1
102
RTVSPropertyOp5
 70
     1
102
RTVSPropertyOp6
 70
     1
102
RTVSPropertyOp7
 70
     1
102
RTVSPropertyOp8
 70
     1
102
RTVSPropertyOp9
 70
     1
102
RTVSPropertyOp10
 70
     1
102
RTVSPropertyOp11
 70
     1
102
RTVSPropertyOp12
 70
     1
102
RTVSPropertyOp13
 70
     1
102
RTVSPropertyOp14
 70
     1
102
RTVSPropertyOp15
 70
     1
102
RTVSPropertyOp16
 70
     1
102
RTVSPropertyOp17
 70
     1
102
RTVSPropertyOp18
 70
     1
102
RTVSPropertyOp19
 70
     1
102
RTVSPropertyOp20
 70
     1
102
RTVSPropertyOp21
 70
     1
102
RTVSPropertyOp22
 70
     1
102
RTVSPropertyOp23
 70
     1
102
RTVSPropertyOp24
 70
     1
102
RTVSPropertyOp25
 70
     1
102
RTVSPropertyOp26
 70
     1
102
RTVSPropertyOp27
 70
     1
102
RTVSPropertyOp28
 70
     1
102
RTVSPropertyOp29
 70
     1
102
RTVSPropertyOp30
 70
     1
102
RTVSPropertyOp31
 70
     1
102
RTVSPropertyOp32
 70
     1
102
RTVSPropertyOp33
 70
     1
102
RTVSPropertyOp34
 70
     1
102
RTVSPropertyOp35
 70
     1
102
RTVSPropertyOp36
 70
     1
102
RTVSPropertyOp37
 70
     1
102
RTVSPropertyOp38
 70
     1
102
RTVSPropertyOp39
 70
     1
102
RTVSPropertyOp40
 70
     1
102
RTVSPropertyOp41
 70
     1
102
RTVSPropertyOp42
 70
     1
102
RTVSPropertyOp43
 70
     1
102
RTVSPropertyOp44
 70
     1
102
RTVSPropertyOp45
 70
     1
102
RTVSPropertyOp46
 70
     1
102
RTVSPropertyOp47
 70
     1
102
RTVSPropertyOp48
 70
     1
102
RTVSPropertyOp49
 70
     1
102
RTVSPropertyOp50
 70
     1
102
RTVSPropertyOp51
 70
     0
102
RTVSPropertyOp52
 70
     0
102
RTVSPropertyOp53
 70
     1
102
RTVSPropertyOp54
 70
     1
102
RTVSPropertyOp55
 70
     1
102
RTVSPropertyOp56
 70
     1
102
RTVSPropertyOp57
 70
     1
102
RTVSPropertyOp58
 70
     1
102
RTVSPropertyOp59
 70
     1
102
RTVSPropertyOp60
 70
     1
102
RTVSPropertyOp61
 70
     1
102
RTVSPropertyOp62
 70
     1
  0
XRECORD
  5
93AE
102
{ACAD_REACTORS
330
93AD
102
}
330
93AD
100
AcDbXrecord
280
     1
102
RTVSPost2010Prop28
280
     0
102
RTVSPost2010PropOp28
 70
     1
102
RTVSPost2010Prop29
280
     1
102
RTVSPost2010PropOp29
 70
     1
102
RTVSPost2010Prop30
280
     1
102
RTVSPost2010PropOp30
 70
     1
102
RTVSPost2010Prop31
280
     0
102
RTVSPost2010PropOp31
 70
     1
102
RTVSPost2010Prop32
280
     0
102
RTVSPost2010PropOp32
 70
     1
102
RTVSPost2010Prop33
280
     0
102
RTVSPost2010PropOp33
 70
     1
102
RTVSPost2010Prop34
280
     0
102
RTVSPost2010PropOp34
 70
     1
102
RTVSPost2010Prop35
280
     0
102
RTVSPost2010PropOp35
 70
     1
102
RTVSPost2010Prop36
280
     0
102
RTVSPost2010PropOp36
 70
     1
102
RTVSPost2010Prop37
 90
       50
102
RTVSPost2010PropOp37
 70
     1
102
RTVSPost2010Prop38
140
0.0
102
RTVSPost2010PropOp38
 70
     1
102
RTVSPost2010Prop39
140
1.0
102
RTVSPost2010PropOp39
 70
     1
102
RTVSPost2010Prop40
 90
        0
102
RTVSPost2010PropOp40
 70
     1
102
RTVSPost2010Prop41ColorIndex
 90
       18
102
RTVSPost2010Prop41ColorRGB
 90
        0
102
RTVSPost2010PropOp41
 70
     1
102
RTVSPost2010Prop42
 90
       50
102
RTVSPost2010PropOp42
 70
     1
102
RTVSPost2010Prop43
 90
        3
102
RTVSPost2010PropOp43
 70
     1
102
RTVSPost2010Prop44ColorIndex
 90
        5
102
RTVSPost2010Prop44ColorRGB
 90
      255
102
RTVSPost2010PropOp44
 70
     1
102
RTVSPost2010Prop45
280
     0
102
RTVSPost2010PropOp45
 70
     1
102
RTVSPost2010Prop46
 90
       50
102
RTVSPost2010PropOp46
 70
     1
102
RTVSPost2010Prop47
 90
       50
102
RTVSPost2010PropOp47
 70
     1
102
RTVSPost2010Prop48
 90
       50
102
RTVSPost2010PropOp48
 70
     1
102
RTVSPost2010Prop49
280
     0
102
RTVSPost2010PropOp49
 70
     1
102
RTVSPost2010Prop50
 90
       50
102
RTVSPost2010PropOp50
 70
     1
102
RTVSPost2010Prop51ColorIndex
 90
      256
102
RTVSPost2010Prop51ColorRGB
 90
-16777216
102
RTVSPost2010PropOp51
 70
     0
102
RTVSPost2010Prop52
140
1.0
102
RTVSPost2010PropOp52
 70
     0
102
RTVSPost2010Prop53
 90
        2
102
RTVSPost2010PropOp53
 70
     1
102
RTVSPost2010Prop54
  1
strokes_ogs.tif
102
RTVSPost2010PropOp54
 70
     1
102
RTVSPost2010Prop55
280
     0
102
RTVSPost2010PropOp55
 70
     1
102
RTVSPost2010Prop56
140
1.0
102
RTVSPost2010PropOp56
 70
     1
102
RTVSPost2010Prop57
140
1.0
102
RTVSPost2010PropOp57
 70
     1
102
RTVSPropertyOp0
 70
     1
102
RTVSPropertyOp1
 70
     1
102
RTVSPropertyOp2
 70
     1
102
RTVSPropertyOp3
 70
     1
102
RTVSPropertyOp4
 70
     1
102
RTVSPropertyOp5
 70
     1
102
RTVSPropertyOp6
 70
     1
102
RTVSPropertyOp7
 70
     1
102
RTVSPropertyOp8
 70
     1
102
RTVSPropertyOp9
 70
     1
102
RTVSPropertyOp10
 70
     1
102
RTVSPropertyOp11
 70
     1
102
RTVSPropertyOp12
 70
     1
102
RTVSPropertyOp13
 70
     1
102
RTVSPropertyOp14
 70
     1
102
RTVSPropertyOp15
 70
     1
102
RTVSPropertyOp16
 70
     1
102
RTVSPropertyOp17
 70
     1
102
RTVSPropertyOp18
 70
     1
102
RTVSPropertyOp19
 70
     1
102
RTVSPropertyOp20
 70
     1
102
RTVSPropertyOp21
 70
     1
102
RTVSPropertyOp22
 70
     1
102
RTVSPropertyOp23
 70
     1
102
RTVSPropertyOp24
 70
     1
102
RTVSPropertyOp25
 70
     1
102
RTVSPropertyOp26
 70
     1
102
RTVSPropertyOp27
 70
     1
102
RTVSPropertyOp28
 70
     1
102
RTVSPropertyOp29
 70
     1
102
RTVSPropertyOp30
 70
     1
102
RTVSPropertyOp31
 70
     1
102
RTVSPropertyOp32
 70
     1
102
RTVSPropertyOp33
 70
     1
102
RTVSPropertyOp34
 70
     1
102
RTVSPropertyOp35
 70
     1
102
RTVSPropertyOp36
 70
     1
102
RTVSPropertyOp37
 70
     1
102
RTVSPropertyOp38
 70
     1
102
RTVSPropertyOp39
 70
     1
102
RTVSPropertyOp40
 70
     1
102
RTVSPropertyOp41
 70
     1
102
RTVSPropertyOp42
 70
     1
102
RTVSPropertyOp43
 70
     1
102
RTVSPropertyOp44
 70
     1
102
RTVSPropertyOp45
 70
     1
102
RTVSPropertyOp46
 70
     1
102
RTVSPropertyOp47
 70
     1
102
RTVSPropertyOp48
 70
     1
102
RTVSPropertyOp49
 70
     1
102
RTVSPropertyOp50
 70
     1
102
RTVSPropertyOp51
 70
     0
102
RTVSPropertyOp52
 70
     0
102
RTVSPropertyOp53
 70
     1
102
RTVSPropertyOp54
 70
     1
102
RTVSPropertyOp55
 70
     1
102
RTVSPropertyOp56
 70
     1
102
RTVSPropertyOp57
 70
     1
102
RTVSPropertyOp58
 70
     1
102
RTVSPropertyOp59
 70
     1
102
RTVSPropertyOp60
 70
     1
102
RTVSPropertyOp61
 70
     1
102
RTVSPropertyOp62
 70
     1
  0
XRECORD
  5
93AC
102
{ACAD_REACTORS
330
93AB
102
}
330
93AB
100
AcDbXrecord
280
     1
102
RTVSPost2010Prop28
280
     0
102
RTVSPost2010PropOp28
 70
     1
102
RTVSPost2010Prop29
280
     1
102
RTVSPost2010PropOp29
 70
     1
102
RTVSPost2010Prop30
280
     1
102
RTVSPost2010PropOp30
 70
     1
102
RTVSPost2010Prop31
280
     0
102
RTVSPost2010PropOp31
 70
     1
102
RTVSPost2010Prop32
280
     0
102
RTVSPost2010PropOp32
 70
     1
102
RTVSPost2010Prop33
280
     0
102
RTVSPost2010PropOp33
 70
     1
102
RTVSPost2010Prop34
280
     0
102
RTVSPost2010PropOp34
 70
     1
102
RTVSPost2010Prop35
280
     0
102
RTVSPost2010PropOp35
 70
     1
102
RTVSPost2010Prop36
280
     0
102
RTVSPost2010PropOp36
 70
     1
102
RTVSPost2010Prop37
 90
       50
102
RTVSPost2010PropOp37
 70
     1
102
RTVSPost2010Prop38
140
0.0
102
RTVSPost2010PropOp38
 70
     1
102
RTVSPost2010Prop39
140
1.0
102
RTVSPost2010PropOp39
 70
     1
102
RTVSPost2010Prop40
 90
        0
102
RTVSPost2010PropOp40
 70
     1
102
RTVSPost2010Prop41ColorIndex
 90
       18
102
RTVSPost2010Prop41ColorRGB
 90
        0
102
RTVSPost2010PropOp41
 70
     1
102
RTVSPost2010Prop42
 90
       50
102
RTVSPost2010PropOp42
 70
     1
102
RTVSPost2010Prop43
 90
        3
102
RTVSPost2010PropOp43
 70
     1
102
RTVSPost2010Prop44ColorIndex
 90
        5
102
RTVSPost2010Prop44ColorRGB
 90
      255
102
RTVSPost2010PropOp44
 70
     1
102
RTVSPost2010Prop45
280
     0
102
RTVSPost2010PropOp45
 70
     1
102
RTVSPost2010Prop46
 90
       50
102
RTVSPost2010PropOp46
 70
     1
102
RTVSPost2010Prop47
 90
       50
102
RTVSPost2010PropOp47
 70
     1
102
RTVSPost2010Prop48
 90
       50
102
RTVSPost2010PropOp48
 70
     1
102
RTVSPost2010Prop49
280
     0
102
RTVSPost2010PropOp49
 70
     1
102
RTVSPost2010Prop50
 90
       50
102
RTVSPost2010PropOp50
 70
     1
102
RTVSPost2010Prop51ColorIndex
 90
      256
102
RTVSPost2010Prop51ColorRGB
 90
-16777216
102
RTVSPost2010PropOp51
 70
     0
102
RTVSPost2010Prop52
140
1.0
102
RTVSPost2010PropOp52
 70
     0
102
RTVSPost2010Prop53
 90
        2
102
RTVSPost2010PropOp53
 70
     1
102
RTVSPost2010Prop54
  1
strokes_ogs.tif
102
RTVSPost2010PropOp54
 70
     1
102
RTVSPost2010Prop55
280
     0
102
RTVSPost2010PropOp55
 70
     1
102
RTVSPost2010Prop56
140
1.0
102
RTVSPost2010PropOp56
 70
     1
102
RTVSPost2010Prop57
140
1.0
102
RTVSPost2010PropOp57
 70
     1
102
RTVSPropertyOp0
 70
     1
102
RTVSPropertyOp1
 70
     1
102
RTVSPropertyOp2
 70
     1
102
RTVSPropertyOp3
 70
     1
102
RTVSPropertyOp4
 70
     1
102
RTVSPropertyOp5
 70
     1
102
RTVSPropertyOp6
 70
     1
102
RTVSPropertyOp7
 70
     1
102
RTVSPropertyOp8
 70
     1
102
RTVSPropertyOp9
 70
     1
102
RTVSPropertyOp10
 70
     1
102
RTVSPropertyOp11
 70
     1
102
RTVSPropertyOp12
 70
     1
102
RTVSPropertyOp13
 70
     1
102
RTVSPropertyOp14
 70
     1
102
RTVSPropertyOp15
 70
     1
102
RTVSPropertyOp16
 70
     1
102
RTVSPropertyOp17
 70
     1
102
RTVSPropertyOp18
 70
     1
102
RTVSPropertyOp19
 70
     1
102
RTVSPropertyOp20
 70
     1
102
RTVSPropertyOp21
 70
     1
102
RTVSPropertyOp22
 70
     1
102
RTVSPropertyOp23
 70
     1
102
RTVSPropertyOp24
 70
     1
102
RTVSPropertyOp25
 70
     1
102
RTVSPropertyOp26
 70
     1
102
RTVSPropertyOp27
 70
     1
102
RTVSPropertyOp28
 70
     1
102
RTVSPropertyOp29
 70
     1
102
RTVSPropertyOp30
 70
     1
102
RTVSPropertyOp31
 70
     1
102
RTVSPropertyOp32
 70
     1
102
RTVSPropertyOp33
 70
     1
102
RTVSPropertyOp34
 70
     1
102
RTVSPropertyOp35
 70
     1
102
RTVSPropertyOp36
 70
     1
102
RTVSPropertyOp37
 70
     1
102
RTVSPropertyOp38
 70
     1
102
RTVSPropertyOp39
 70
     1
102
RTVSPropertyOp40
 70
     1
102
RTVSPropertyOp41
 70
     1
102
RTVSPropertyOp42
 70
     1
102
RTVSPropertyOp43
 70
     1
102
RTVSPropertyOp44
 70
     1
102
RTVSPropertyOp45
 70
     1
102
RTVSPropertyOp46
 70
     1
102
RTVSPropertyOp47
 70
     1
102
RTVSPropertyOp48
 70
     1
102
RTVSPropertyOp49
 70
     1
102
RTVSPropertyOp50
 70
     1
102
RTVSPropertyOp51
 70
     0
102
RTVSPropertyOp52
 70
     0
102
RTVSPropertyOp53
 70
     1
102
RTVSPropertyOp54
 70
     1
102
RTVSPropertyOp55
 70
     1
102
RTVSPropertyOp56
 70
     1
102
RTVSPropertyOp57
 70
     1
102
RTVSPropertyOp58
 70
     1
102
RTVSPropertyOp59
 70
     1
102
RTVSPropertyOp60
 70
     1
102
RTVSPropertyOp61
 70
     1
102
RTVSPropertyOp62
 70
     1
  0
XRECORD
  5
93A6
102
{ACAD_REACTORS
330
93A5
102
}
330
93A5
100
AcDbXrecord
280
     1
102
RTVSPost2010Prop28
280
     0
102
RTVSPost2010PropOp28
 70
     1
102
RTVSPost2010Prop29
280
     1
102
RTVSPost2010PropOp29
 70
     1
102
RTVSPost2010Prop30
280
     1
102
RTVSPost2010PropOp30
 70
     1
102
RTVSPost2010Prop31
280
     0
102
RTVSPost2010PropOp31
 70
     1
102
RTVSPost2010Prop32
280
     0
102
RTVSPost2010PropOp32
 70
     1
102
RTVSPost2010Prop33
280
     0
102
RTVSPost2010PropOp33
 70
     1
102
RTVSPost2010Prop34
280
     0
102
RTVSPost2010PropOp34
 70
     1
102
RTVSPost2010Prop35
280
     0
102
RTVSPost2010PropOp35
 70
     1
102
RTVSPost2010Prop36
280
     0
102
RTVSPost2010PropOp36
 70
     1
102
RTVSPost2010Prop37
 90
       50
102
RTVSPost2010PropOp37
 70
     1
102
RTVSPost2010Prop38
140
0.0
102
RTVSPost2010PropOp38
 70
     1
102
RTVSPost2010Prop39
140
1.0
102
RTVSPost2010PropOp39
 70
     1
102
RTVSPost2010Prop40
 90
        0
102
RTVSPost2010PropOp40
 70
     1
102
RTVSPost2010Prop41ColorIndex
 90
       18
102
RTVSPost2010Prop41ColorRGB
 90
        0
102
RTVSPost2010PropOp41
 70
     1
102
RTVSPost2010Prop42
 90
       50
102
RTVSPost2010PropOp42
 70
     1
102
RTVSPost2010Prop43
 90
        3
102
RTVSPost2010PropOp43
 70
     1
102
RTVSPost2010Prop44ColorIndex
 90
        5
102
RTVSPost2010Prop44ColorRGB
 90
      255
102
RTVSPost2010PropOp44
 70
     1
102
RTVSPost2010Prop45
280
     0
102
RTVSPost2010PropOp45
 70
     1
102
RTVSPost2010Prop46
 90
       50
102
RTVSPost2010PropOp46
 70
     1
102
RTVSPost2010Prop47
 90
       50
102
RTVSPost2010PropOp47
 70
     1
102
RTVSPost2010Prop48
 90
       50
102
RTVSPost2010PropOp48
 70
     1
102
RTVSPost2010Prop49
280
     0
102
RTVSPost2010PropOp49
 70
     1
102
RTVSPost2010Prop50
 90
       50
102
RTVSPost2010PropOp50
 70
     1
102
RTVSPost2010Prop51ColorIndex
 90
      256
102
RTVSPost2010Prop51ColorRGB
 90
-16777216
102
RTVSPost2010PropOp51
 70
     0
102
RTVSPost2010Prop52
140
1.0
102
RTVSPost2010PropOp52
 70
     0
102
RTVSPost2010Prop53
 90
        2
102
RTVSPost2010PropOp53
 70
     1
102
RTVSPost2010Prop54
  1
strokes_ogs.tif
102
RTVSPost2010PropOp54
 70
     1
102
RTVSPost2010Prop55
280
     0
102
RTVSPost2010PropOp55
 70
     1
102
RTVSPost2010Prop56
140
1.0
102
RTVSPost2010PropOp56
 70
     1
102
RTVSPost2010Prop57
140
1.0
102
RTVSPost2010PropOp57
 70
     1
102
RTVSPropertyOp0
 70
     1
102
RTVSPropertyOp1
 70
     1
102
RTVSPropertyOp2
 70
     1
102
RTVSPropertyOp3
 70
     1
102
RTVSPropertyOp4
 70
     1
102
RTVSPropertyOp5
 70
     1
102
RTVSPropertyOp6
 70
     1
102
RTVSPropertyOp7
 70
     1
102
RTVSPropertyOp8
 70
     1
102
RTVSPropertyOp9
 70
     1
102
RTVSPropertyOp10
 70
     1
102
RTVSPropertyOp11
 70
     1
102
RTVSPropertyOp12
 70
     1
102
RTVSPropertyOp13
 70
     1
102
RTVSPropertyOp14
 70
     1
102
RTVSPropertyOp15
 70
     1
102
RTVSPropertyOp16
 70
     1
102
RTVSPropertyOp17
 70
     1
102
RTVSPropertyOp18
 70
     1
102
RTVSPropertyOp19
 70
     1
102
RTVSPropertyOp20
 70
     1
102
RTVSPropertyOp21
 70
     1
102
RTVSPropertyOp22
 70
     1
102
RTVSPropertyOp23
 70
     1
102
RTVSPropertyOp24
 70
     1
102
RTVSPropertyOp25
 70
     1
102
RTVSPropertyOp26
 70
     1
102
RTVSPropertyOp27
 70
     1
102
RTVSPropertyOp28
 70
     1
102
RTVSPropertyOp29
 70
     1
102
RTVSPropertyOp30
 70
     1
102
RTVSPropertyOp31
 70
     1
102
RTVSPropertyOp32
 70
     1
102
RTVSPropertyOp33
 70
     1
102
RTVSPropertyOp34
 70
     1
102
RTVSPropertyOp35
 70
     1
102
RTVSPropertyOp36
 70
     1
102
RTVSPropertyOp37
 70
     1
102
RTVSPropertyOp38
 70
     1
102
RTVSPropertyOp39
 70
     1
102
RTVSPropertyOp40
 70
     1
102
RTVSPropertyOp41
 70
     1
102
RTVSPropertyOp42
 70
     1
102
RTVSPropertyOp43
 70
     1
102
RTVSPropertyOp44
 70
     1
102
RTVSPropertyOp45
 70
     1
102
RTVSPropertyOp46
 70
     1
102
RTVSPropertyOp47
 70
     1
102
RTVSPropertyOp48
 70
     1
102
RTVSPropertyOp49
 70
     1
102
RTVSPropertyOp50
 70
     1
102
RTVSPropertyOp51
 70
     0
102
RTVSPropertyOp52
 70
     0
102
RTVSPropertyOp53
 70
     1
102
RTVSPropertyOp54
 70
     1
102
RTVSPropertyOp55
 70
     1
102
RTVSPropertyOp56
 70
     1
102
RTVSPropertyOp57
 70
     1
102
RTVSPropertyOp58
 70
     1
102
RTVSPropertyOp59
 70
     1
102
RTVSPropertyOp60
 70
     1
102
RTVSPropertyOp61
 70
     1
102
RTVSPropertyOp62
 70
     1
  0
XRECORD
  5
93A8
102
{ACAD_REACTORS
330
93A7
102
}
330
93A7
100
AcDbXrecord
280
     1
102
RTVSPost2010Prop28
280
     0
102
RTVSPost2010PropOp28
 70
     1
102
RTVSPost2010Prop29
280
     1
102
RTVSPost2010PropOp29
 70
     1
102
RTVSPost2010Prop30
280
     1
102
RTVSPost2010PropOp30
 70
     1
102
RTVSPost2010Prop31
280
     0
102
RTVSPost2010PropOp31
 70
     1
102
RTVSPost2010Prop32
280
     0
102
RTVSPost2010PropOp32
 70
     1
102
RTVSPost2010Prop33
280
     0
102
RTVSPost2010PropOp33
 70
     1
102
RTVSPost2010Prop34
280
     0
102
RTVSPost2010PropOp34
 70
     1
102
RTVSPost2010Prop35
280
     0
102
RTVSPost2010PropOp35
 70
     1
102
RTVSPost2010Prop36
280
     0
102
RTVSPost2010PropOp36
 70
     1
102
RTVSPost2010Prop37
 90
       50
102
RTVSPost2010PropOp37
 70
     1
102
RTVSPost2010Prop38
140
0.0
102
RTVSPost2010PropOp38
 70
     1
102
RTVSPost2010Prop39
140
1.0
102
RTVSPost2010PropOp39
 70
     1
102
RTVSPost2010Prop40
 90
        0
102
RTVSPost2010PropOp40
 70
     1
102
RTVSPost2010Prop41ColorIndex
 90
       18
102
RTVSPost2010Prop41ColorRGB
 90
        0
102
RTVSPost2010PropOp41
 70
     1
102
RTVSPost2010Prop42
 90
       50
102
RTVSPost2010PropOp42
 70
     1
102
RTVSPost2010Prop43
 90
        3
102
RTVSPost2010PropOp43
 70
     1
102
RTVSPost2010Prop44ColorIndex
 90
        5
102
RTVSPost2010Prop44ColorRGB
 90
      255
102
RTVSPost2010PropOp44
 70
     1
102
RTVSPost2010Prop45
280
     0
102
RTVSPost2010PropOp45
 70
     1
102
RTVSPost2010Prop46
 90
       50
102
RTVSPost2010PropOp46
 70
     1
102
RTVSPost2010Prop47
 90
       50
102
RTVSPost2010PropOp47
 70
     1
102
RTVSPost2010Prop48
 90
       50
102
RTVSPost2010PropOp48
 70
     1
102
RTVSPost2010Prop49
280
     0
102
RTVSPost2010PropOp49
 70
     1
102
RTVSPost2010Prop50
 90
       50
102
RTVSPost2010PropOp50
 70
     1
102
RTVSPost2010Prop51ColorIndex
 90
      256
102
RTVSPost2010Prop51ColorRGB
 90
-16777216
102
RTVSPost2010PropOp51
 70
     0
102
RTVSPost2010Prop52
140
1.0
102
RTVSPost2010PropOp52
 70
     0
102
RTVSPost2010Prop53
 90
        2
102
RTVSPost2010PropOp53
 70
     1
102
RTVSPost2010Prop54
  1
strokes_ogs.tif
102
RTVSPost2010PropOp54
 70
     1
102
RTVSPost2010Prop55
280
     0
102
RTVSPost2010PropOp55
 70
     1
102
RTVSPost2010Prop56
140
1.0
102
RTVSPost2010PropOp56
 70
     1
102
RTVSPost2010Prop57
140
1.0
102
RTVSPost2010PropOp57
 70
     1
102
RTVSPropertyOp0
 70
     1
102
RTVSPropertyOp1
 70
     1
102
RTVSPropertyOp2
 70
     1
102
RTVSPropertyOp3
 70
     1
102
RTVSPropertyOp4
 70
     1
102
RTVSPropertyOp5
 70
     1
102
RTVSPropertyOp6
 70
     1
102
RTVSPropertyOp7
 70
     1
102
RTVSPropertyOp8
 70
     1
102
RTVSPropertyOp9
 70
     1
102
RTVSPropertyOp10
 70
     1
102
RTVSPropertyOp11
 70
     1
102
RTVSPropertyOp12
 70
     1
102
RTVSPropertyOp13
 70
     1
102
RTVSPropertyOp14
 70
     1
102
RTVSPropertyOp15
 70
     1
102
RTVSPropertyOp16
 70
     1
102
RTVSPropertyOp17
 70
     1
102
RTVSPropertyOp18
 70
     1
102
RTVSPropertyOp19
 70
     1
102
RTVSPropertyOp20
 70
     1
102
RTVSPropertyOp21
 70
     1
102
RTVSPropertyOp22
 70
     1
102
RTVSPropertyOp23
 70
     1
102
RTVSPropertyOp24
 70
     1
102
RTVSPropertyOp25
 70
     1
102
RTVSPropertyOp26
 70
     1
102
RTVSPropertyOp27
 70
     1
102
RTVSPropertyOp28
 70
     1
102
RTVSPropertyOp29
 70
     1
102
RTVSPropertyOp30
 70
     1
102
RTVSPropertyOp31
 70
     1
102
RTVSPropertyOp32
 70
     1
102
RTVSPropertyOp33
 70
     1
102
RTVSPropertyOp34
 70
     1
102
RTVSPropertyOp35
 70
     1
102
RTVSPropertyOp36
 70
     1
102
RTVSPropertyOp37
 70
     1
102
RTVSPropertyOp38
 70
     1
102
RTVSPropertyOp39
 70
     1
102
RTVSPropertyOp40
 70
     1
102
RTVSPropertyOp41
 70
     1
102
RTVSPropertyOp42
 70
     1
102
RTVSPropertyOp43
 70
     1
102
RTVSPropertyOp44
 70
     1
102
RTVSPropertyOp45
 70
     1
102
RTVSPropertyOp46
 70
     1
102
RTVSPropertyOp47
 70
     1
102
RTVSPropertyOp48
 70
     1
102
RTVSPropertyOp49
 70
     1
102
RTVSPropertyOp50
 70
     1
102
RTVSPropertyOp51
 70
     0
102
RTVSPropertyOp52
 70
     0
102
RTVSPropertyOp53
 70
     1
102
RTVSPropertyOp54
 70
     1
102
RTVSPropertyOp55
 70
     1
102
RTVSPropertyOp56
 70
     1
102
RTVSPropertyOp57
 70
     1
102
RTVSPropertyOp58
 70
     1
102
RTVSPropertyOp59
 70
     1
102
RTVSPropertyOp60
 70
     1
102
RTVSPropertyOp61
 70
     1
102
RTVSPropertyOp62
 70
     1
  0
XRECORD
  5
9395
102
{ACAD_REACTORS
330
9394
102
}
330
9394
100
AcDbXrecord
280
     1
102
RTVSPost2010Prop28
280
     0
102
RTVSPost2010PropOp28
 70
     1
102
RTVSPost2010Prop29
280
     1
102
RTVSPost2010PropOp29
 70
     1
102
RTVSPost2010Prop30
280
     1
102
RTVSPost2010PropOp30
 70
     1
102
RTVSPost2010Prop31
280
     0
102
RTVSPost2010PropOp31
 70
     1
102
RTVSPost2010Prop32
280
     0
102
RTVSPost2010PropOp32
 70
     1
102
RTVSPost2010Prop33
280
     0
102
RTVSPost2010PropOp33
 70
     1
102
RTVSPost2010Prop34
280
     0
102
RTVSPost2010PropOp34
 70
     1
102
RTVSPost2010Prop35
280
     0
102
RTVSPost2010PropOp35
 70
     1
102
RTVSPost2010Prop36
280
     0
102
RTVSPost2010PropOp36
 70
     1
102
RTVSPost2010Prop37
 90
       50
102
RTVSPost2010PropOp37
 70
     1
102
RTVSPost2010Prop38
140
0.0
102
RTVSPost2010PropOp38
 70
     1
102
RTVSPost2010Prop39
140
1.0
102
RTVSPost2010PropOp39
 70
     1
102
RTVSPost2010Prop40
 90
        0
102
RTVSPost2010PropOp40
 70
     1
102
RTVSPost2010Prop41ColorIndex
 90
       18
102
RTVSPost2010Prop41ColorRGB
 90
        0
102
RTVSPost2010PropOp41
 70
     1
102
RTVSPost2010Prop42
 90
       50
102
RTVSPost2010PropOp42
 70
     1
102
RTVSPost2010Prop43
 90
        3
102
RTVSPost2010PropOp43
 70
     1
102
RTVSPost2010Prop44ColorIndex
 90
        5
102
RTVSPost2010Prop44ColorRGB
 90
      255
102
RTVSPost2010PropOp44
 70
     1
102
RTVSPost2010Prop45
280
     0
102
RTVSPost2010PropOp45
 70
     1
102
RTVSPost2010Prop46
 90
       50
102
RTVSPost2010PropOp46
 70
     1
102
RTVSPost2010Prop47
 90
       50
102
RTVSPost2010PropOp47
 70
     1
102
RTVSPost2010Prop48
 90
       50
102
RTVSPost2010PropOp48
 70
     1
102
RTVSPost2010Prop49
280
     0
102
RTVSPost2010PropOp49
 70
     1
102
RTVSPost2010Prop50
 90
       50
102
RTVSPost2010PropOp50
 70
     1
102
RTVSPost2010Prop51ColorIndex
 90
      256
102
RTVSPost2010Prop51ColorRGB
 90
-16777216
102
RTVSPost2010PropOp51
 70
     0
102
RTVSPost2010Prop52
140
1.0
102
RTVSPost2010PropOp52
 70
     0
102
RTVSPost2010Prop53
 90
        2
102
RTVSPost2010PropOp53
 70
     1
102
RTVSPost2010Prop54
  1
strokes_ogs.tif
102
RTVSPost2010PropOp54
 70
     1
102
RTVSPost2010Prop55
280
     0
102
RTVSPost2010PropOp55
 70
     1
102
RTVSPost2010Prop56
140
1.0
102
RTVSPost2010PropOp56
 70
     1
102
RTVSPost2010Prop57
140
1.0
102
RTVSPost2010PropOp57
 70
     1
102
RTVSPropertyOp0
 70
     1
102
RTVSPropertyOp1
 70
     1
102
RTVSPropertyOp2
 70
     1
102
RTVSPropertyOp3
 70
     1
102
RTVSPropertyOp4
 70
     1
102
RTVSPropertyOp5
 70
     1
102
RTVSPropertyOp6
 70
     1
102
RTVSPropertyOp7
 70
     1
102
RTVSPropertyOp8
 70
     1
102
RTVSPropertyOp9
 70
     1
102
RTVSPropertyOp10
 70
     1
102
RTVSPropertyOp11
 70
     1
102
RTVSPropertyOp12
 70
     1
102
RTVSPropertyOp13
 70
     1
102
RTVSPropertyOp14
 70
     1
102
RTVSPropertyOp15
 70
     1
102
RTVSPropertyOp16
 70
     1
102
RTVSPropertyOp17
 70
     1
102
RTVSPropertyOp18
 70
     1
102
RTVSPropertyOp19
 70
     1
102
RTVSPropertyOp20
 70
     1
102
RTVSPropertyOp21
 70
     1
102
RTVSPropertyOp22
 70
     1
102
RTVSPropertyOp23
 70
     1
102
RTVSPropertyOp24
 70
     1
102
RTVSPropertyOp25
 70
     1
102
RTVSPropertyOp26
 70
     1
102
RTVSPropertyOp27
 70
     1
102
RTVSPropertyOp28
 70
     1
102
RTVSPropertyOp29
 70
     1
102
RTVSPropertyOp30
 70
     1
102
RTVSPropertyOp31
 70
     1
102
RTVSPropertyOp32
 70
     1
102
RTVSPropertyOp33
 70
     1
102
RTVSPropertyOp34
 70
     1
102
RTVSPropertyOp35
 70
     1
102
RTVSPropertyOp36
 70
     1
102
RTVSPropertyOp37
 70
     1
102
RTVSPropertyOp38
 70
     1
102
RTVSPropertyOp39
 70
     1
102
RTVSPropertyOp40
 70
     1
102
RTVSPropertyOp41
 70
     1
102
RTVSPropertyOp42
 70
     1
102
RTVSPropertyOp43
 70
     1
102
RTVSPropertyOp44
 70
     1
102
RTVSPropertyOp45
 70
     1
102
RTVSPropertyOp46
 70
     1
102
RTVSPropertyOp47
 70
     1
102
RTVSPropertyOp48
 70
     1
102
RTVSPropertyOp49
 70
     1
102
RTVSPropertyOp50
 70
     1
102
RTVSPropertyOp51
 70
     0
102
RTVSPropertyOp52
 70
     0
102
RTVSPropertyOp53
 70
     1
102
RTVSPropertyOp54
 70
     1
102
RTVSPropertyOp55
 70
     1
102
RTVSPropertyOp56
 70
     1
102
RTVSPropertyOp57
 70
     1
102
RTVSPropertyOp58
 70
     1
102
RTVSPropertyOp59
 70
     1
102
RTVSPropertyOp60
 70
     1
102
RTVSPropertyOp61
 70
     1
102
RTVSPropertyOp62
 70
     1
  0
XRECORD
  5
93A2
102
{ACAD_REACTORS
330
93A1
102
}
330
93A1
100
AcDbXrecord
280
     1
102
RTVSPost2010Prop28
280
     0
102
RTVSPost2010PropOp28
 70
     1
102
RTVSPost2010Prop29
280
     1
102
RTVSPost2010PropOp29
 70
     1
102
RTVSPost2010Prop30
280
     1
102
RTVSPost2010PropOp30
 70
     1
102
RTVSPost2010Prop31
280
     0
102
RTVSPost2010PropOp31
 70
     1
102
RTVSPost2010Prop32
280
     0
102
RTVSPost2010PropOp32
 70
     1
102
RTVSPost2010Prop33
280
     0
102
RTVSPost2010PropOp33
 70
     1
102
RTVSPost2010Prop34
280
     0
102
RTVSPost2010PropOp34
 70
     1
102
RTVSPost2010Prop35
280
     0
102
RTVSPost2010PropOp35
 70
     1
102
RTVSPost2010Prop36
280
     0
102
RTVSPost2010PropOp36
 70
     1
102
RTVSPost2010Prop37
 90
       50
102
RTVSPost2010PropOp37
 70
     1
102
RTVSPost2010Prop38
140
0.0
102
RTVSPost2010PropOp38
 70
     1
102
RTVSPost2010Prop39
140
1.0
102
RTVSPost2010PropOp39
 70
     1
102
RTVSPost2010Prop40
 90
        0
102
RTVSPost2010PropOp40
 70
     1
102
RTVSPost2010Prop41ColorIndex
 90
       18
102
RTVSPost2010Prop41ColorRGB
 90
        0
102
RTVSPost2010PropOp41
 70
     1
102
RTVSPost2010Prop42
 90
       50
102
RTVSPost2010PropOp42
 70
     1
102
RTVSPost2010Prop43
 90
        3
102
RTVSPost2010PropOp43
 70
     1
102
RTVSPost2010Prop44ColorIndex
 90
        5
102
RTVSPost2010Prop44ColorRGB
 90
      255
102
RTVSPost2010PropOp44
 70
     1
102
RTVSPost2010Prop45
280
     0
102
RTVSPost2010PropOp45
 70
     1
102
RTVSPost2010Prop46
 90
       50
102
RTVSPost2010PropOp46
 70
     1
102
RTVSPost2010Prop47
 90
       50
102
RTVSPost2010PropOp47
 70
     1
102
RTVSPost2010Prop48
 90
       50
102
RTVSPost2010PropOp48
 70
     1
102
RTVSPost2010Prop49
280
     0
102
RTVSPost2010PropOp49
 70
     1
102
RTVSPost2010Prop50
 90
       50
102
RTVSPost2010PropOp50
 70
     1
102
RTVSPost2010Prop51ColorIndex
 90
      256
102
RTVSPost2010Prop51ColorRGB
 90
-16777216
102
RTVSPost2010PropOp51
 70
     0
102
RTVSPost2010Prop52
140
1.0
102
RTVSPost2010PropOp52
 70
     0
102
RTVSPost2010Prop53
 90
        2
102
RTVSPost2010PropOp53
 70
     1
102
RTVSPost2010Prop54
  1
strokes_ogs.tif
102
RTVSPost2010PropOp54
 70
     1
102
RTVSPost2010Prop55
280
     0
102
RTVSPost2010PropOp55
 70
     1
102
RTVSPost2010Prop56
140
1.0
102
RTVSPost2010PropOp56
 70
     1
102
RTVSPost2010Prop57
140
1.0
102
RTVSPost2010PropOp57
 70
     1
102
RTVSPropertyOp0
 70
     1
102
RTVSPropertyOp1
 70
     1
102
RTVSPropertyOp2
 70
     1
102
RTVSPropertyOp3
 70
     1
102
RTVSPropertyOp4
 70
     1
102
RTVSPropertyOp5
 70
     1
102
RTVSPropertyOp6
 70
     1
102
RTVSPropertyOp7
 70
     1
102
RTVSPropertyOp8
 70
     1
102
RTVSPropertyOp9
 70
     1
102
RTVSPropertyOp10
 70
     1
102
RTVSPropertyOp11
 70
     1
102
RTVSPropertyOp12
 70
     1
102
RTVSPropertyOp13
 70
     1
102
RTVSPropertyOp14
 70
     1
102
RTVSPropertyOp15
 70
     1
102
RTVSPropertyOp16
 70
     1
102
RTVSPropertyOp17
 70
     1
102
RTVSPropertyOp18
 70
     1
102
RTVSPropertyOp19
 70
     1
102
RTVSPropertyOp20
 70
     1
102
RTVSPropertyOp21
 70
     1
102
RTVSPropertyOp22
 70
     1
102
RTVSPropertyOp23
 70
     1
102
RTVSPropertyOp24
 70
     1
102
RTVSPropertyOp25
 70
     1
102
RTVSPropertyOp26
 70
     1
102
RTVSPropertyOp27
 70
     1
102
RTVSPropertyOp28
 70
     1
102
RTVSPropertyOp29
 70
     1
102
RTVSPropertyOp30
 70
     1
102
RTVSPropertyOp31
 70
     1
102
RTVSPropertyOp32
 70
     1
102
RTVSPropertyOp33
 70
     1
102
RTVSPropertyOp34
 70
     1
102
RTVSPropertyOp35
 70
     1
102
RTVSPropertyOp36
 70
     1
102
RTVSPropertyOp37
 70
     1
102
RTVSPropertyOp38
 70
     1
102
RTVSPropertyOp39
 70
     1
102
RTVSPropertyOp40
 70
     1
102
RTVSPropertyOp41
 70
     1
102
RTVSPropertyOp42
 70
     1
102
RTVSPropertyOp43
 70
     1
102
RTVSPropertyOp44
 70
     1
102
RTVSPropertyOp45
 70
     1
102
RTVSPropertyOp46
 70
     1
102
RTVSPropertyOp47
 70
     1
102
RTVSPropertyOp48
 70
     1
102
RTVSPropertyOp49
 70
     1
102
RTVSPropertyOp50
 70
     1
102
RTVSPropertyOp51
 70
     0
102
RTVSPropertyOp52
 70
     0
102
RTVSPropertyOp53
 70
     1
102
RTVSPropertyOp54
 70
     1
102
RTVSPropertyOp55
 70
     1
102
RTVSPropertyOp56
 70
     1
102
RTVSPropertyOp57
 70
     1
102
RTVSPropertyOp58
 70
     1
102
RTVSPropertyOp59
 70
     1
102
RTVSPropertyOp60
 70
     1
102
RTVSPropertyOp61
 70
     1
102
RTVSPropertyOp62
 70
     1
  0
XRECORD
  5
93AA
102
{ACAD_REACTORS
330
93A9
102
}
330
93A9
100
AcDbXrecord
280
     1
102
RTVSPost2010Prop28
280
     0
102
RTVSPost2010PropOp28
 70
     1
102
RTVSPost2010Prop29
280
     1
102
RTVSPost2010PropOp29
 70
     1
102
RTVSPost2010Prop30
280
     1
102
RTVSPost2010PropOp30
 70
     1
102
RTVSPost2010Prop31
280
     0
102
RTVSPost2010PropOp31
 70
     1
102
RTVSPost2010Prop32
280
     0
102
RTVSPost2010PropOp32
 70
     1
102
RTVSPost2010Prop33
280
     0
102
RTVSPost2010PropOp33
 70
     1
102
RTVSPost2010Prop34
280
     0
102
RTVSPost2010PropOp34
 70
     1
102
RTVSPost2010Prop35
280
     0
102
RTVSPost2010PropOp35
 70
     1
102
RTVSPost2010Prop36
280
     0
102
RTVSPost2010PropOp36
 70
     1
102
RTVSPost2010Prop37
 90
       50
102
RTVSPost2010PropOp37
 70
     1
102
RTVSPost2010Prop38
140
0.0
102
RTVSPost2010PropOp38
 70
     1
102
RTVSPost2010Prop39
140
1.0
102
RTVSPost2010PropOp39
 70
     1
102
RTVSPost2010Prop40
 90
        0
102
RTVSPost2010PropOp40
 70
     1
102
RTVSPost2010Prop41ColorIndex
 90
       18
102
RTVSPost2010Prop41ColorRGB
 90
        0
102
RTVSPost2010PropOp41
 70
     1
102
RTVSPost2010Prop42
 90
       50
102
RTVSPost2010PropOp42
 70
     1
102
RTVSPost2010Prop43
 90
        3
102
RTVSPost2010PropOp43
 70
     1
102
RTVSPost2010Prop44ColorIndex
 90
        5
102
RTVSPost2010Prop44ColorRGB
 90
      255
102
RTVSPost2010PropOp44
 70
     1
102
RTVSPost2010Prop45
280
     0
102
RTVSPost2010PropOp45
 70
     1
102
RTVSPost2010Prop46
 90
       50
102
RTVSPost2010PropOp46
 70
     1
102
RTVSPost2010Prop47
 90
       50
102
RTVSPost2010PropOp47
 70
     1
102
RTVSPost2010Prop48
 90
       50
102
RTVSPost2010PropOp48
 70
     1
102
RTVSPost2010Prop49
280
     0
102
RTVSPost2010PropOp49
 70
     1
102
RTVSPost2010Prop50
 90
       50
102
RTVSPost2010PropOp50
 70
     1
102
RTVSPost2010Prop51ColorIndex
 90
      256
102
RTVSPost2010Prop51ColorRGB
 90
-16777216
102
RTVSPost2010PropOp51
 70
     0
102
RTVSPost2010Prop52
140
1.0
102
RTVSPost2010PropOp52
 70
     0
102
RTVSPost2010Prop53
 90
        2
102
RTVSPost2010PropOp53
 70
     1
102
RTVSPost2010Prop54
  1
strokes_ogs.tif
102
RTVSPost2010PropOp54
 70
     1
102
RTVSPost2010Prop55
280
     0
102
RTVSPost2010PropOp55
 70
     1
102
RTVSPost2010Prop56
140
1.0
102
RTVSPost2010PropOp56
 70
     1
102
RTVSPost2010Prop57
140
1.0
102
RTVSPost2010PropOp57
 70
     1
102
RTVSPropertyOp0
 70
     1
102
RTVSPropertyOp1
 70
     1
102
RTVSPropertyOp2
 70
     1
102
RTVSPropertyOp3
 70
     1
102
RTVSPropertyOp4
 70
     1
102
RTVSPropertyOp5
 70
     1
102
RTVSPropertyOp6
 70
     1
102
RTVSPropertyOp7
 70
     1
102
RTVSPropertyOp8
 70
     1
102
RTVSPropertyOp9
 70
     1
102
RTVSPropertyOp10
 70
     1
102
RTVSPropertyOp11
 70
     1
102
RTVSPropertyOp12
 70
     1
102
RTVSPropertyOp13
 70
     1
102
RTVSPropertyOp14
 70
     1
102
RTVSPropertyOp15
 70
     1
102
RTVSPropertyOp16
 70
     1
102
RTVSPropertyOp17
 70
     1
102
RTVSPropertyOp18
 70
     1
102
RTVSPropertyOp19
 70
     1
102
RTVSPropertyOp20
 70
     1
102
RTVSPropertyOp21
 70
     1
102
RTVSPropertyOp22
 70
     1
102
RTVSPropertyOp23
 70
     1
102
RTVSPropertyOp24
 70
     1
102
RTVSPropertyOp25
 70
     1
102
RTVSPropertyOp26
 70
     1
102
RTVSPropertyOp27
 70
     1
102
RTVSPropertyOp28
 70
     1
102
RTVSPropertyOp29
 70
     1
102
RTVSPropertyOp30
 70
     1
102
RTVSPropertyOp31
 70
     1
102
RTVSPropertyOp32
 70
     1
102
RTVSPropertyOp33
 70
     1
102
RTVSPropertyOp34
 70
     1
102
RTVSPropertyOp35
 70
     1
102
RTVSPropertyOp36
 70
     1
102
RTVSPropertyOp37
 70
     1
102
RTVSPropertyOp38
 70
     1
102
RTVSPropertyOp39
 70
     1
102
RTVSPropertyOp40
 70
     1
102
RTVSPropertyOp41
 70
     1
102
RTVSPropertyOp42
 70
     1
102
RTVSPropertyOp43
 70
     1
102
RTVSPropertyOp44
 70
     1
102
RTVSPropertyOp45
 70
     1
102
RTVSPropertyOp46
 70
     1
102
RTVSPropertyOp47
 70
     1
102
RTVSPropertyOp48
 70
     1
102
RTVSPropertyOp49
 70
     1
102
RTVSPropertyOp50
 70
     1
102
RTVSPropertyOp51
 70
     0
102
RTVSPropertyOp52
 70
     0
102
RTVSPropertyOp53
 70
     1
102
RTVSPropertyOp54
 70
     1
102
RTVSPropertyOp55
 70
     1
102
RTVSPropertyOp56
 70
     1
102
RTVSPropertyOp57
 70
     1
102
RTVSPropertyOp58
 70
     1
102
RTVSPropertyOp59
 70
     1
102
RTVSPropertyOp60
 70
     1
102
RTVSPropertyOp61
 70
     1
102
RTVSPropertyOp62
 70
     1
  0
XRECORD
  5
487A
102
{ACAD_REACTORS
330
4879
102
}
330
4879
100
AcDbXrecord
280
     1
330
1736
  0
ENDSEC
  0
EOF
