  0
SECTION
  2
HEADER
  9
$ACADVER
  1
AC1015
  9
$ACADMAINTVER
 70
    20
  9
$DWGCODEPAGE
  3
ANSI_932
  9
$INSBASE
 10
0.0
 20
0.0
 30
0.0
  9
$EXTMIN
 10
771.5663179399207
 20
-49.5511030409084
 30
-0.0000000349181948
  9
$EXTMAX
 10
1564.435470021729
 20
1090.973680025308
 30
0.0000000814935747
  9
$LIMMIN
 10
0.0
 20
0.0
  9
$LIMMAX
 10
420.0
 20
297.0
  9
$ORTHOMODE
 70
     0
  9
$REGENMODE
 70
     1
  9
$FILLMODE
 70
     1
  9
$QTEXTMODE
 70
     0
  9
$MIRRTEXT
 70
     0
  9
$LTSCALE
 40
1.0
  9
$ATTMODE
 70
     1
  9
$TEXTSIZE
 40
2.5
  9
$TRACEWID
 40
1.0
  9
$TEXTSTYLE
  7
STANDARD
  9
$CLAYER
  8
0
  9
$CELTYPE
  6
ByLayer
  9
$CECOLOR
 62
   256
  9
$CELTSCALE
 40
1.0
  9
$DISPSILH
 70
     0
  9
$DIMSCALE
 40
1.0
  9
$DIMASZ
 40
3.0
  9
$DIMEXO
 40
2.0
  9
$DIMDLI
 40
10.0
  9
$DIMRND
 40
0.0
  9
$DIMDLE
 40
0.0
  9
$DIMEXE
 40
2.5
  9
$DIMTP
 40
0.0
  9
$DIMTM
 40
0.0
  9
$DIMTXT
 40
5.0
  9
$DIMCEN
 40
3.0
  9
$DIMTSZ
 40
0.0
  9
$DIMTOL
 70
     0
  9
$DIMLIM
 70
     0
  9
$DIMTIH
 70
     0
  9
$DIMTOH
 70
     0
  9
$DIMSE1
 70
     0
  9
$DIMSE2
 70
     0
  9
$DIMTAD
 70
     1
  9
$DIMZIN
 70
     8
  9
$DIMBLK
  1

  9
$DIMASO
 70
     1
  9
$DIMSHO
 70
     1
  9
$DIMPOST
  1

  9
$DIMAPOST
  1

  9
$DIMALT
 70
     0
  9
$DIMALTD
 70
     2
  9
$DIMALTF
 40
25.4
  9
$DIMLFAC
 40
1.0
  9
$DIMTOFL
 70
     1
  9
$DIMTVP
 40
0.0
  9
$DIMTIX
 70
     0
  9
$DIMSOXD
 70
     0
  9
$DIMSAH
 70
     0
  9
$DIMBLK1
  1

  9
$DIMBLK2
  1

  9
$DIMSTYLE
  2
STANDARD
  9
$DIMCLRD
 70
     0
  9
$DIMCLRE
 70
     0
  9
$DIMCLRT
 70
     0
  9
$DIMTFAC
 40
1.0
  9
$DIMGAP
 40
2.0
  9
$DIMJUST
 70
     0
  9
$DIMSD1
 70
     0
  9
$DIMSD2
 70
     0
  9
$DIMTOLJ
 70
     1
  9
$DIMTZIN
 70
     8
  9
$DIMALTZ
 70
     0
  9
$DIMALTTZ
 70
     0
  9
$DIMUPT
 70
     0
  9
$DIMDEC
 70
     2
  9
$DIMTDEC
 70
     2
  9
$DIMALTU
 70
     2
  9
$DIMALTTD
 70
     2
  9
$DIMTXSTY
  7
STANDARD
  9
$DIMAUNIT
 70
     0
  9
$DIMADEC
 70
     0
  9
$DIMALTRND
 40
0.0
  9
$DIMAZIN
 70
     0
  9
$DIMDSEP
 70
    46
  9
$DIMATFIT
 70
     3
  9
$DIMFRAC
 70
     0
  9
$DIMLDRBLK
  1

  9
$DIMLUNIT
 70
     2
  9
$DIMLWD
 70
    -2
  9
$DIMLWE
 70
    -2
  9
$DIMTMOVE
 70
     0
  9
$LUNITS
 70
     2
  9
$LUPREC
 70
     2
  9
$SKETCHINC
 40
1.0
  9
$FILLETRAD
 40
0.0
  9
$AUNITS
 70
     0
  9
$AUPREC
 70
     0
  9
$MENU
  1
.
  9
$ELEVATION
 40
0.0
  9
$PELEVATION
 40
0.0
  9
$THICKNESS
 40
0.0
  9
$LIMCHECK
 70
     0
  9
$CHAMFERA
 40
1.0
  9
$CHAMFERB
 40
1.0
  9
$CHAMFERC
 40
0.0
  9
$CHAMFERD
 40
0.0
  9
$SKPOLY
 70
     0
  9
$TDCREATE
 40
2453620.443977141
  9
$TDUCREATE
 40
2453620.068977141
  9
$TDUPDATE
 40
2456669.445237917
  9
$TDUUPDATE
 40
2456669.070237917
  9
$TDINDWG
 40
2.4617278241
  9
$TDUSRTIMER
 40
2.4617276852
  9
$USRTIMER
 70
     1
  9
$ANGBASE
 50
0.0
  9
$ANGDIR
 70
     0
  9
$PDMODE
 70
    35
  9
$PDSIZE
 40
2.0
  9
$PLINEWID
 40
0.0
  9
$SPLFRAME
 70
     0
  9
$SPLINETYPE
 70
     6
  9
$SPLINESEGS
 70
     8
  9
$HANDSEED
  5
14BF2
  9
$SURFTAB1
 70
     6
  9
$SURFTAB2
 70
     6
  9
$SURFTYPE
 70
     6
  9
$SURFU
 70
     6
  9
$SURFV
 70
     6
  9
$UCSBASE
  2

  9
$UCSNAME
  2

  9
$UCSORG
 10
0.0
 20
0.0
 30
0.0
  9
$UCSXDIR
 10
1.0
 20
0.0
 30
0.0
  9
$UCSYDIR
 10
0.0
 20
1.0
 30
0.0
  9
$UCSORTHOREF
  2

  9
$UCSORTHOVIEW
 70
     0
  9
$UCSORGTOP
 10
0.0
 20
0.0
 30
0.0
  9
$UCSORGBOTTOM
 10
0.0
 20
0.0
 30
0.0
  9
$UCSORGLEFT
 10
0.0
 20
0.0
 30
0.0
  9
$UCSORGRIGHT
 10
0.0
 20
0.0
 30
0.0
  9
$UCSORGFRONT
 10
0.0
 20
0.0
 30
0.0
  9
$UCSORGBACK
 10
0.0
 20
0.0
 30
0.0
  9
$PUCSBASE
  2

  9
$PUCSNAME
  2

  9
$PUCSORG
 10
0.0
 20
0.0
 30
0.0
  9
$PUCSXDIR
 10
1.0
 20
0.0
 30
0.0
  9
$PUCSYDIR
 10
0.0
 20
1.0
 30
0.0
  9
$PUCSORTHOREF
  2

  9
$PUCSORTHOVIEW
 70
     0
  9
$PUCSORGTOP
 10
0.0
 20
0.0
 30
0.0
  9
$PUCSORGBOTTOM
 10
0.0
 20
0.0
 30
0.0
  9
$PUCSORGLEFT
 10
0.0
 20
0.0
 30
0.0
  9
$PUCSORGRIGHT
 10
0.0
 20
0.0
 30
0.0
  9
$PUCSORGFRONT
 10
0.0
 20
0.0
 30
0.0
  9
$PUCSORGBACK
 10
0.0
 20
0.0
 30
0.0
  9
$USERI1
 70
     0
  9
$USERI2
 70
     0
  9
$USERI3
 70
     0
  9
$USERI4
 70
     0
  9
$USERI5
 70
     0
  9
$USERR1
 40
0.0
  9
$USERR2
 40
0.0
  9
$USERR3
 40
0.0
  9
$USERR4
 40
0.0
  9
$USERR5
 40
0.0
  9
$WORLDVIEW
 70
     1
  9
$SHADEDGE
 70
     3
  9
$SHADEDIF
 70
    70
  9
$TILEMODE
 70
     1
  9
$MAXACTVP
 70
    64
  9
$PINSBASE
 10
0.0
 20
0.0
 30
0.0
  9
$PLIMCHECK
 70
     0
  9
$PEXTMIN
 10
0.0
 20
0.0
 30
0.0
  9
$PEXTMAX
 10
0.0
 20
0.0
 30
0.0
  9
$PLIMMIN
 10
0.0
 20
0.0
  9
$PLIMMAX
 10
12.0
 20
9.0
  9
$UNITMODE
 70
     0
  9
$VISRETAIN
 70
     1
  9
$PLINEGEN
 70
     0
  9
$PSLTSCALE
 70
     1
  9
$TREEDEPTH
 70
  3020
  9
$CMLSTYLE
  2
Standard
  9
$CMLJUST
 70
     0
  9
$CMLSCALE
 40
20.0
  9
$PROXYGRAPHICS
 70
     1
  9
$MEASUREMENT
 70
     1
  9
$CELWEIGHT
370
    -1
  9
$ENDCAPS
280
     0
  9
$JOINSTYLE
280
     0
  9
$LWDISPLAY
290
     0
  9
$INSUNITS
 70
     4
  9
$HYPERLINKBASE
  1

  9
$STYLESHEET
  1

  9
$XEDIT
290
     1
  9
$CEPSNTYPE
380
     0
  9
$PSTYLEMODE
290
     1
  9
$FINGERPRINTGUID
  2
{735518FF-4C42-43D0-B189-DED2AEF0B6CB}
  9
$VERSIONGUID
  2
{01276591-A2F1-48B0-BC98-3503C6810199}
  9
$EXTNAMES
290
     1
  9
$PSVPSCALE
 40
0.0
  9
$OLESTARTUP
290
     0
  0
ENDSEC
  0
SECTION
  2
CLASSES
  0
CLASS
  1
ACDBDICTIONARYWDFLT
  2
AcDbDictionaryWithDefault
  3
ObjectDBX Classes
 90
        0
280
     0
281
     0
  0
CLASS
  1
AMGSETTINGSOBJ
  2
AmgSettingsObj
  3
"AcadM|Product Description: AutoCAD Mechanical|Company: Autodesk, Inc."
 90
     1024
280
     0
281
     0
  0
CLASS
  1
ACME_DOCUMENT
  2
AcMeDbDoc
  3
AcMeServices
 90
     1024
280
     0
281
     0
  0
CLASS
  1
ACMESCOPE
  2
AcMeScope
  3
AcMeServices
 90
     1024
280
     0
281
     0
  0
CLASS
  1
ACMECOMMANDHISTORY
  2
AcMeCommandHistory
  3
AcMeServices
 90
     1024
280
     0
281
     0
  0
CLASS
  1
ACIMSYSVARMAN
  2
AcImSysVarManager
  3
AcMeServices
 90
     1024
280
     0
281
     0
  0
CLASS
  1
ACIMINTSYSVAR
  2
AcImIntSysVar
  3
AcMeServices
 90
     1024
280
     0
281
     0
  0
CLASS
  1
ACMEDRAWINGMAN
  2
AcMeDrawingMan
  3
AcMeServices
 90
    33792
280
     0
281
     0
  0
CLASS
  1
ACMEVIEW
  2
AcMeView
  3
AcMeServices
 90
    33792
280
     0
281
     0
  0
CLASS
  1
ACDBENTITYCACHE
  2
AcMeEntityCache
  3
AcMeServices
 90
     1024
280
     0
281
     0
  0
CLASS
  1
GSMANAGER
  2
AcMeGSManager
  3
AcMeServices
 90
    33792
280
     0
281
     0
  0
CLASS
  1
AMDTINTERNALREACTOR
  2
AmdtInternalReactor
  3
AcMeServices
 90
    33792
280
     0
281
     0
  0
CLASS
  1
ACMESTATEMGR
  2
AcMeStateMgr
  3
AcMeServices
 90
     1024
280
     0
281
     0
  0
CLASS
  1
ACGREFMASTER
  2
AcGrefMaster
  3
AcAttribServices
 90
     1024
280
     0
281
     0
  0
CLASS
  1
AM_DRAWING_MGR
  2
AcDmDwgMgr
  3
AcMechDwgViewMgmt
 90
    33792
280
     0
281
     0
  0
CLASS
  1
AM_DWG_DOCUMENT
  2
AcDmDwgDocument
  3
AcMechDwgViewMgmt
 90
    33792
280
     0
281
     0
  0
CLASS
  1
AM_DWG_SHEET
  2
AcDmSheet
  3
AcMechDwgViewMgmt
 90
    33792
280
     0
281
     0
  0
CLASS
  1
AM_VIEWDIMPARMAP
  2
AcDmViewDimParMap
  3
AcMechDwgViewMgmt
 90
    33792
280
     0
281
     0
  0
CLASS
  1
ACIMREALSYSVAR
  2
AcImRealSysVar
  3
AcMeServices
 90
    33792
280
     0
281
     0
  0
CLASS
  1
AM_DWGMGR_NAME
  2
AcDmDwgMgrName
  3
AcMechDwgViewMgmt
 90
    33792
280
     0
281
     0
  0
CLASS
  1
ACME_DATABASE
  2
AcMeDbDatabase
  3
AcMeServices
 90
     1024
280
     0
281
     0
  0
CLASS
  1
ACRFINSADJUSTERMGR
  2
AcRfInsAdjusterMgr
  3
AcMeServices
 90
     1024
280
     0
281
     0
  0
CLASS
  1
ACGREFACADMASTER
  2
AcGrefacadMaster
  3
AcGrefServices
 90
     1024
280
     0
281
     0
  0
CLASS
  1
AMDTMENUSTATEMGR
  2
AmdtMenuStateMgr
  3
McadcomServices
 90
     1024
280
     0
281
     0
  0
CLASS
  1
AMDTMCOMMENUSTATE
  2
AmdtMcomMenuState
  3
McadcomServices
 90
     1024
280
     0
281
     0
  0
CLASS
  1
AMIMASTER
  2
AmiMaster
  3
AmiServices
 90
     1024
280
     0
281
     0
  0
CLASS
  1
MAPIAMMOUDLE
  2
MApiAmModule
  3
MApiAmServices
 90
     1024
280
     0
281
     0
  0
CLASS
  1
AMDTADMENUSTATE
  2
AmdtAdMenuState
  3
DesignerServices
 90
    33792
280
     0
281
     0
  0
CLASS
  1
ADAPPL
  2
AcAdAppl
  3
DesignerAssemblies
 90
    33792
280
     0
281
     0
  0
CLASS
  1
DEPMGR
  2
AcAdDepMgr
  3
DesignerAssemblies
 90
    33792
280
     0
281
     0
  0
CLASS
  1
PARAMMGR
  2
AcAdParamMgr
  3
DesignerAssemblies
 90
    33792
280
     0
281
     0
  0
CLASS
  1
PARAMSCOPE
  2
AcAdParamScope
  3
DesignerAssemblies
 90
    33792
280
     0
281
     0
  0
CLASS
  1
NAMEDAPPL
  2
AcAdNamedAppl
  3
DesignerAssemblies
 90
    33792
280
     0
281
     0
  0
CLASS
  1
AMDTDMMENUSTATE
  2
AmdtDmMenuState
  3
AcMechDwgViewMgmt
 90
    33792
280
     0
281
     0
  0
CLASS
  1
AMDTAMMENUSTATE
  2
AmdtAmMenuState
  3
DesignerAssemblies
 90
     1024
280
     0
281
     0
  0
CLASS
  1
ACIMSTRSYSVAR
  2
AcImStrSysVar
  3
AcMeServices
 90
     1024
280
     0
281
     0
  0
CLASS
  1
ACAMPROJECT
  2
AcAmProject
  3
DesignerAssemblies
 90
     1024
280
     0
281
     0
  0
CLASS
  1
ACAMGRCOMPDEF
  2
AcAmGrCompDef
  3
DesignerAssemblies
 90
     1024
280
     0
281
     0
  0
CLASS
  1
ACCMCONTEXT
  2
AcCmContext
  3
DesignerAssemblies
 90
    33792
280
     0
281
     0
  0
CLASS
  1
ACAMCOMPDEF
  2
AcAmCompDef
  3
DesignerAssemblies
 90
     1024
280
     0
281
     0
  0
CLASS
  1
ACAMCOMPDEFMGR
  2
AcAmCompDefMgr
  3
DesignerAssemblies
 90
     1024
280
     0
281
     0
  0
CLASS
  1
AMCONTEXTMGR
  2
AcAmContextMgr
  3
DesignerAssemblies
 90
     1024
280
     0
281
     0
  0
CLASS
  1
ACAMCONTEXTMODELER
  2
AcAmContextModeler
  3
DesignerAssemblies
 90
     1024
280
     0
281
     0
  0
CLASS
  1
ACMDATADICTIONARY
  2
AcmDataDictionary
  3
"AcmSymBB|Product Description: AutoCAD Mechanical|Company: Autodesk, Inc."
 90
     1024
280
     0
281
     0
  0
CLASS
  1
ACMSTANDARDISO
  2
AcmStandardISO
  3
"Amdt_StdImp|Product Description: AutoCAD Mechanical|Company: Autodesk, Inc."
 90
     1024
280
     0
281
     0
  0
CLASS
  1
AMGOBJPROPCFG
  2
AmgObjPropCfg
  3
"AmgLay|Product Description: AutoCAD Mechanical|Company: Autodesk, Inc."
 90
     1024
280
     0
281
     0
  0
CLASS
  1
AMDTEDGESTANDARDISO
  2
AmdtEdgeStdISO
  3
"Amdt_StdImp|Product Description: AutoCAD Mechanical|Company: Autodesk, Inc."
 90
    33792
280
     0
281
     0
  0
CLASS
  1
ACMSURFSTANDARDISO
  2
AcmSurfTextStdISO
  3
"Amdt_StdImp|Product Description: AutoCAD Mechanical|Company: Autodesk, Inc."
 90
    33792
280
     0
281
     0
  0
CLASS
  1
ACMFCFSTANDARDISO
  2
AcmFCFStdISO
  3
"Amdt_StdImp|Product Description: AutoCAD Mechanical|Company: Autodesk, Inc."
 90
    33792
280
     0
281
     0
  0
CLASS
  1
ACMWELDSTANDARDISO
  2
AcmWeldingStdISO
  3
"Amdt_StdImp|Product Description: AutoCAD Mechanical|Company: Autodesk, Inc."
 90
     1024
280
     0
281
     0
  0
CLASS
  1
ACMIDSTANDARDISO
  2
AcmIdStdISO
  3
"Amdt_StdImp|Product Description: AutoCAD Mechanical|Company: Autodesk, Inc."
 90
    33792
280
     0
281
     0
  0
CLASS
  1
ACMDATUMSTANDARDISO
  2
AcmDatumStdISO
  3
"Amdt_StdImp|Product Description: AutoCAD Mechanical|Company: Autodesk, Inc."
 90
     1024
280
     0
281
     0
  0
CLASS
  1
ACMBOMSTANDARDISO
  2
AcmBOMStdISO
  3
"Amdt_StdImp|Product Description: AutoCAD Mechanical|Company: Autodesk, Inc."
 90
     1024
280
     0
281
     0
  0
CLASS
  1
ACMDETAILSTANDARDISO
  2
AmdtDetailSymStdISO
  3
"Amdt_StdImp|Product Description: AutoCAD Mechanical|Company: Autodesk, Inc."
 90
     1024
280
     0
281
     0
  0
CLASS
  1
ACMSECTIONSTANDARDISO
  2
AmdtSectionSymStdISO
  3
"Amdt_StdImp|Product Description: AutoCAD Mechanical|Company: Autodesk, Inc."
 90
    33792
280
     0
281
     0
  0
CLASS
  1
ACMCENTERLINESTANDARDISO
  2
AmdtCenterLineStdISO
  3
"Amdt_StdImp|Product Description: AutoCAD Mechanical|Company: Autodesk, Inc."
 90
     1024
280
     0
281
     0
  0
CLASS
  1
ACMTHREADLINESTANDARDISO
  2
AmdtThreadLineStdISO
  3
"Amdt_StdImp|Product Description: AutoCAD Mechanical|Company: Autodesk, Inc."
 90
     1024
280
     0
281
     0
  0
CLASS
  1
ACMNOTESTANDARDISO
  2
AmdtNoteStdISO
  3
"Amdt_StdImp|Product Description: AutoCAD Mechanical|Company: Autodesk, Inc."
 90
     1024
280
     0
281
     0
  0
CLASS
  1
AMDTNOTETEMPLATEDB
  2
AmdtNoteTemplateDB
  3
AcmSymBB|Product Description: AutoCAD Mechanical|Company: Autodesk, Inc.
 90
     1024
280
     0
281
     0
  0
CLASS
  1
ACAMGLAYSTD
  2
AcAmgLayStd
  3
"AmgLay|Product Description: AutoCAD Mechanical|Company: Autodesk, Inc."
 90
     1024
280
     0
281
     0
  0
CLASS
  1
ACAMGDIMSTD
  2
AcAmgDimStd
  3
"AmgDim|Product Description: AutoCAD Mechanical|Company: Autodesk, Inc."
 90
     1024
280
     0
281
     0
  0
CLASS
  1
ACAMGHOLECHARTSTDISO
  2
AcAmgHoleChartStdISO
  3
AmgDim|Product Description: AutoCAD Mechanical|Company: Autodesk, Inc.
 90
     1024
280
     0
281
     0
  0
CLASS
  1
ACAMGTITLESTD
  2
AcAmgTitleStd
  3
"AmgTitle|Product Description: AutoCAD Mechanical|Company: Autodesk, Inc."
 90
     1024
280
     0
281
     0
  0
CLASS
  1
CATALOGSTATE
  2
AcAmCatalogState
  3
DesignerAssemblies
 90
    33792
280
     0
281
     0
  0
CLASS
  1
ACAMGRCOMPDEFSET
  2
AcAmGrCompDefSet
  3
DesignerAssemblies
 90
     1024
280
     0
281
     0
  0
CLASS
  1
AMDTBROWSERDBTAB
  2
AmdtBrowserDbTab
  3
McadcomServices
 90
     1024
280
     0
281
     0
  0
CLASS
  1
CBROWSERAPPOBJECT
  2
CBrowserAppObject
  3
McadcomServices
 90
     1024
280
     0
281
     0
  0
CLASS
  1
DM_PLACEHOLDER
  2
AcDmSelsetPlaceholder
  3
McadcomServices
 90
     1024
280
     0
281
     0
  0
CLASS
  1
ACAMGFILTERDAT
  2
AcAmgFilterDat
  3
"AcadM|Product Description: AutoCAD Mechanical|Company: Autodesk, Inc."
 90
    33792
280
     0
281
     0
  0
CLASS
  1
LAYER_INDEX
  2
AcDbLayerIndex
  3
ObjectDBX Classes
 90
    32768
280
     0
281
     0
  0
CLASS
  1
IDBUFFER
  2
AcDbIdBuffer
  3
ObjectDBX Classes
 90
    32768
280
     0
281
     0
  0
CLASS
  1
MATERIAL
  2
AcDbMaterial
  3
ObjectDBX Classes
 90
     1153
280
     0
281
     0
  0
CLASS
  1
VISUALSTYLE
  2
AcDbVisualStyle
  3
ObjectDBX Classes
 90
     4095
280
     0
281
     0
  0
CLASS
  1
TABLESTYLE
  2
AcDbTableStyle
  3
ObjectDBX Classes
 90
     4095
280
     0
281
     0
  0
CLASS
  1
ACMTAPERSTANDARDISO
  2
AcmTaperStdISO
  3
"Amdt_StdImp|Product Description: AutoCAD Mechanical|Company: Autodesk, Inc."
 90
     1024
280
     0
281
     0
  0
CLASS
  1
CAMSSTRUCTBTNSTATE
  2
StructBtnState
  3
DesignerAssemblies
 90
    33792
280
     0
281
     0
  0
CLASS
  1
DICTIONARYVAR
  2
AcDbDictionaryVar
  3
ObjectDBX Classes
 90
        0
280
     0
281
     0
  0
CLASS
  1
SORTENTSTABLE
  2
AcDbSortentsTable
  3
ObjectDBX Classes
 90
        0
280
     0
281
     0
  0
CLASS
  1
DIMASSOC
  2
AcDbDimAssoc
  3
"AcDbDimAssoc|Product Desc:     AcDim ARX App For Dimension|Company:          Autodesk, Inc.|WEB Address:      www.autodesk.com"
 90
    32768
280
     0
281
     0
  0
CLASS
  1
SCALE
  2
AcDbScale
  3
ObjectDBX Classes
 90
     1153
280
     0
281
     0
  0
CLASS
  1
MLEADERSTYLE
  2
AcDbMLeaderStyle
  3
ACDB_MLEADERSTYLE_CLASS
 90
     4095
280
     0
281
     0
  0
CLASS
  1
ACMANOOTATIONVIEWSTANDARDISO
  2
AmdtAnViewStdISO
  3
"Amdt_StdImp|Product Description: AutoCAD Mechanical|Company: Autodesk, Inc."
 90
     1024
280
     0
281
     0
  0
CLASS
  1
CELLSTYLEMAP
  2
AcDbCellStyleMap
  3
ObjectDBX Classes
 90
     1152
280
     0
281
     0
  0
CLASS
  1
STDPART2D
  2
AmgStdPart
  3
AmgStdPart|Product Description: AutoCAD Mechanical|Company: Autodesk, Inc.
 90
    33792
280
     0
281
     1
  0
CLASS
  1
MULTILEADER
  2
AcDbMLeader
  3
ACDB_MLEADER_CLASS
 90
    33793
280
     0
281
     1
  0
CLASS
  1
AEC_REFEDIT_STATUS_TRACKER
  2
AecDbRefEditStatusTracker
  3
AecArchBase70|Product Desc: Autodesk Architectural Desktop 2007 |Company: Autodesk,Inc. |WEB Address: www.autodesk.com
 90
    32897
280
     0
281
     0
  0
CLASS
  1
NPOCOLLECTION
  2
AcDbImpNonPersistentObjectsCollection
  3
ObjectDBX Classes
 90
     1153
280
     0
281
     0
  0
CLASS
  1
PLOTSETTINGS
  2
AcDbPlotSettings
  3
ObjectDBX Classes
 90
        0
280
     0
281
     0
  0
CLASS
  1
ACDBSECTIONVIEWSTYLE
  2
AcDbSectionViewStyle
  3
ObjectDBX Classes
 90
     1025
280
     0
281
     0
  0
CLASS
  1
ACDBDETAILVIEWSTYLE
  2
AcDbDetailViewStyle
  3
ObjectDBX Classes
 90
     1025
280
     0
281
     0
  0
CLASS
  1
EXACXREFPANELOBJECT
  2
ExAcXREFPanelObject
  3
EXAC_ESW
 90
     1025
280
     0
281
     0
  0
CLASS
  1
ACMSECTIONSTANDARDCUSTOM
  2
AmdtSectionSymStdCustom
  3
"Amdt_StdImp|Product Description: AutoCAD Mechanical|Company: Autodesk, Inc."
 90
     1024
280
     0
281
     0
  0
CLASS
  1
ACMDETAILTANDARDCUSTOM
  2
AmdtDetailSymStdCustom
  3
"Amdt_StdImp|Product Description: AutoCAD Mechanical|Company: Autodesk, Inc."
 90
     1024
280
     0
281
     0
  0
CLASS
  1
FIELD
  2
AcDbField
  3
ObjectDBX Classes
 90
     1152
280
     0
281
     0
  0
CLASS
  1
FIELDLIST
  2
AcDbFieldList
  3
ObjectDBX Classes
 90
     1152
280
     0
281
     0
  0
CLASS
  1
ACDBPLACEHOLDER
  2
AcDbPlaceHolder
  3
ObjectDBX Classes
 90
        0
280
     0
281
     0
  0
CLASS
  1
LAYOUT
  2
AcDbLayout
  3
ObjectDBX Classes
 90
        0
280
     0
281
     0
  0
CLASS
  1
AMDTEDGESTANDARDISO13715
  2
AmdtEdgeStdISO13715
  3
"Amdt_StdImp|Product Description: AutoCAD Mechanical|Company: Autodesk, Inc."
 90
     1024
280
     0
281
     0
  0
CLASS
  1
ACMSURFSTANDARDISO2002
  2
AcmSurfTextStdISO2002
  3
"Amdt_StdImp|Product Description: AutoCAD Mechanical|Company: Autodesk, Inc."
 90
     1024
280
     0
281
     0
  0
CLASS
  1
ACMFCFSTANDARDISO2004
  2
AcmFCFStdISO2004
  3
"Amdt_StdImp|Product Description: AutoCAD Mechanical|Company: Autodesk, Inc."
 90
     1024
280
     0
281
     0
  0
CLASS
  1
ACMIDSTANDARDISO2004
  2
AcmIdStdISO2004
  3
"Amdt_StdImp|Product Description: AutoCAD Mechanical|Company: Autodesk, Inc."
 90
     1024
280
     0
281
     0
  0
CLASS
  1
ACMSECTIONSTANDARDISO2001
  2
AmdtSectionSymStdISO2001
  3
"Amdt_StdImp|Product Description: AutoCAD Mechanical|Company: Autodesk, Inc."
 90
     1024
280
     0
281
     0
  0
ENDSEC
  0
SECTION
  2
TABLES
  0
TABLE
  2
VPORT
  5
8
330
0
100
AcDbSymbolTable
 70
     1
  0
VPORT
  5
1031
330
8
100
AcDbSymbolTableRecord
100
AcDbViewportTableRecord
  2
*Active
 70
     0
 10
0.0
 20
0.0
 11
1.0
 21
1.0
 12
1168.000893980825
 22
520.7112884921996
 13
0.0
 23
0.0
 14
2.5
 24
2.5
 15
10.0
 25
10.0
 16
0.0
 26
0.0
 36
1.0
 17
0.0
 27
0.0
 37
0.0
 40
1149.132517278036
 41
2.026448362720402
 42
50.0
 43
0.0
 44
0.0
 50
0.0
 51
0.0
 71
     0
 72
  1000
 73
     1
 74
     3
 75
     0
 76
     0
 77
     0
 78
     0
281
     0
 65
     0
110
0.0
120
0.0
130
0.0
111
1.0
121
0.0
131
0.0
112
0.0
122
1.0
132
0.0
 79
     0
146
0.0
1001
ACAD_NAV_VCDISPLAY
1070
     3
  0
ENDTAB
  0
TABLE
  2
LTYPE
  5
5
330
0
100
AcDbSymbolTable
 70
    14
  0
LTYPE
  5
14
330
5
100
AcDbSymbolTableRecord
100
AcDbLinetypeTableRecord
  2
ByBlock
 70
     0
  3

 72
    65
 73
     0
 40
0.0
  0
LTYPE
  5
15
330
5
100
AcDbSymbolTableRecord
100
AcDbLinetypeTableRecord
  2
ByLayer
 70
     0
  3

 72
    65
 73
     0
 40
0.0
  0
LTYPE
  5
16
330
5
100
AcDbSymbolTableRecord
100
AcDbLinetypeTableRecord
  2
Continuous
 70
     0
  3
Solid line
 72
    65
 73
     0
 40
0.0
  0
LTYPE
  5
4E
330
5
100
AcDbSymbolTableRecord
100
AcDbLinetypeTableRecord
  2
HIDDEN
 70
     0
  3
Hidden __ __ __ __ __ __ __ __ __ __ __ __ __ _
 72
    65
 73
     2
 40
9.524999999999996
 49
6.349999999999997
 74
     0
 49
-3.174999999999998
 74
     0
  0
LTYPE
  5
50
330
5
100
AcDbSymbolTableRecord
100
AcDbLinetypeTableRecord
  2
CENTER
 70
     0
  3
Center ____ _ ____ _ ____ _ ____ _ ____ _ ____
 72
    65
 73
     4
 40
50.8
 49
31.75
 74
     0
 49
-6.349999999999997
 74
     0
 49
6.349999999999997
 74
     0
 49
-6.349999999999997
 74
     0
  0
LTYPE
  5
8E
330
5
100
AcDbSymbolTableRecord
100
AcDbLinetypeTableRecord
  2
AM_ISO02W050
 70
     0
  3
__ __ __ __ __ __ __ __ __ __ __ __ __ __ __
 72
    65
 73
     2
 40
7.5
 49
6.0
 74
     0
 49
-1.5
 74
     0
  0
LTYPE
  5
8F
330
5
100
AcDbSymbolTableRecord
100
AcDbLinetypeTableRecord
  2
AM_ISO08W050
 70
     0
  3
____ . ____ . ____ . ____ . ____ . ____ . ____
 72
    65
 73
     4
 40
18.0
 49
12.0
 74
     0
 49
-1.5
 74
     0
 49
3.0
 74
     0
 49
-1.5
 74
     0
  0
LTYPE
  5
90
330
5
100
AcDbSymbolTableRecord
100
AcDbLinetypeTableRecord
  2
AM_ISO09W050
 70
     0
  3
_____ . . _____ . . _____ . . ____ .. ____
 72
    65
 73
     6
 40
22.5
 49
12.0
 74
     0
 49
-1.5
 74
     0
 49
3.0
 74
     0
 49
-1.5
 74
     0
 49
3.0
 74
     0
 49
-1.5
 74
     0
  0
LTYPE
  5
91
330
5
100
AcDbSymbolTableRecord
100
AcDbLinetypeTableRecord
  2
Amconstr
 70
     0
  3
_______________________
 72
    65
 73
     2
 40
9999.0
 49
9999.0
 74
     0
 49
0.0
 74
     0
  0
LTYPE
  5
92
330
5
100
AcDbSymbolTableRecord
100
AcDbLinetypeTableRecord
  2
AM_ISO08W050x2
 70
     0
  3
__ . __ . __ . __ . __ . __
 72
    65
 73
     4
 40
9.0
 49
6.0
 74
     0
 49
-0.75
 74
     0
 49
1.5
 74
     0
 49
-0.75
 74
     0
  0
LTYPE
  5
93
330
5
100
AcDbSymbolTableRecord
100
AcDbLinetypeTableRecord
  2
AM_ISO02W050x2
 70
     0
  3
 _ _ _ _ _ _ _ _ _ _ _ _
 72
    65
 73
     2
 40
3.75
 49
3.0
 74
     0
 49
-0.75
 74
     0
  0
LTYPE
  5
96
330
5
100
AcDbSymbolTableRecord
100
AcDbLinetypeTableRecord
  2
Amzigzag
 70
     0
  3
/\/-/\/-/\/-/\/-/\/-/\/
 72
    65
 73
     2
 40
11.0001
 49
0.0001
 74
     4
 75
   135
340
95
 46
0.04
 50
0.0
 44
0.0
 45
0.0
 49
-11.0
 74
     0
  0
LTYPE
  5
A5
330
5
100
AcDbSymbolTableRecord
100
AcDbLinetypeTableRecord
  2
ACISOWELD
 70
     0
  3
_ _ _ _ _
 72
    65
 73
     2
 40
2.0
 49
2.0
 74
     0
 49
-1.0
 74
     0
  0
LTYPE
  5
A6
330
5
100
AcDbSymbolTableRecord
100
AcDbLinetypeTableRecord
  2
ACISOTGB
 70
     0
  3
__ . . __ . .
 72
    65
 73
     6
 40
9.0
 49
4.0
 74
     0
 49
-1.0
 74
     0
 49
1.0
 74
     0
 49
-1.0
 74
     0
 49
1.0
 74
     0
 49
-1.0
 74
     0
  0
LTYPE
  5
A7
330
5
100
AcDbSymbolTableRecord
100
AcDbLinetypeTableRecord
  2
ACISOTGL
 70
     0
  3
_ _ _ _ _
 72
    65
 73
     2
 40
3.0
 49
2.0
 74
     0
 49
-1.0
 74
     0
  0
ENDTAB
  0
TABLE
  2
LAYER
  5
2
102
{ACAD_XDICTIONARY
360
14F
102
}
330
0
100
AcDbSymbolTable
 70
     9
  0
LAYER
  5
10
102
{ACAD_XDICTIONARY
360
2312
102
}
330
2
100
AcDbSymbolTableRecord
100
AcDbLayerTableRecord
  2
0
 70
     0
 62
     7
  6
Continuous
370
    18
390
F
  0
LAYER
  5
129
330
2
100
AcDbSymbolTableRecord
100
AcDbLayerTableRecord
  2
Defpoints
 70
     0
 62
     7
  6
Continuous
290
     0
370
    18
390
F
  0
LAYER
  5
132
102
{ACAD_XDICTIONARY
360
231E
102
}
330
2
100
AcDbSymbolTableRecord
100
AcDbLayerTableRecord
  2
弱線
 70
     0
 62
   133
  6
Continuous
370
    13
390
F
  0
LAYER
  5
291F
102
{ACAD_XDICTIONARY
360
2920
102
}
330
2
100
AcDbSymbolTableRecord
100
AcDbLayerTableRecord
  2
AM_5
 70
     0
 62
    51
  6
Continuous
370
    18
390
F
1001
AcAecLayerStandard
1000

1000

  0
LAYER
  5
2921
102
{ACAD_XDICTIONARY
360
2922
102
}
330
2
100
AcDbSymbolTableRecord
100
AcDbLayerTableRecord
  2
仮想線
 70
     0
 62
    44
  6
AM_ISO09W050
370
    13
390
F
  0
LAYER
  5
6F73
102
{ACAD_XDICTIONARY
360
6F74
102
}
330
2
100
AcDbSymbolTableRecord
100
AcDbLayerTableRecord
  2
図面枠
 70
     0
 62
   111
  6
Continuous
370
    15
390
F
  0
LAYER
  5
84BB
102
{ACAD_XDICTIONARY
360
84BC
102
}
330
2
100
AcDbSymbolTableRecord
100
AcDbLayerTableRecord
  2
文字
 70
     0
 62
    31
  6
Continuous
370
    18
390
F
1001
AcAecLayerStandard
1000

1000

  0
LAYER
  5
AB04
330
2
100
AcDbSymbolTableRecord
100
AcDbLayerTableRecord
  2
AM_3
 70
     0
 62
   221
  6
AM_ISO02W050
370
    25
390
F
1001
AcAecLayerStandard
1000

1000

  0
LAYER
  5
E16E
102
{ACAD_XDICTIONARY
360
E16F
102
}
330
2
100
AcDbSymbolTableRecord
100
AcDbLayerTableRecord
  2
中心線
 70
     0
 62
   150
  6
CENTER
370
    13
390
F
  0
ENDTAB
  0
TABLE
  2
STYLE
  5
3
330
0
100
AcDbSymbolTable
 70
     7
  0
STYLE
  5
11
330
3
100
AcDbSymbolTableRecord
100
AcDbTextStyleTableRecord
  2
STANDARD
 70
     0
 40
0.0
 41
1.0
 50
0.0
 71
     0
 42
2.5
  3
simplex.shx
  4
bigfont.shx
  0
STYLE
  5
95
330
3
100
AcDbSymbolTableRecord
100
AcDbTextStyleTableRecord
  2

 70
     1
 40
0.0
 41
1.0
 50
0.0
 71
     0
 42
2.5
  3
ltypeshp.shx
  4

  0
STYLE
  5
A4
330
3
100
AcDbSymbolTableRecord
100
AcDbTextStyleTableRecord
  2
ACISOGDT
 70
     0
 40
0.0
 41
1.0
 50
0.0
 71
     0
 42
2.5
  3
amgdt.shx
  4

  0
STYLE
  5
2B3C
330
3
100
AcDbSymbolTableRecord
100
AcDbTextStyleTableRecord
  2
0.9横
 70
     0
 40
0.0
 41
0.9
 50
0.0
 71
     0
 42
2.5
  3
simplex.shx
  4
bigfont.shx
  0
STYLE
  5
6F79
330
3
100
AcDbSymbolTableRecord
100
AcDbTextStyleTableRecord
  2
0.8横
 70
     0
 40
0.0
 41
0.8
 50
0.0
 71
     0
 42
2.5
  3
simplex.shx
  4
bigfont.shx
  0
STYLE
  5
A063
330
3
100
AcDbSymbolTableRecord
100
AcDbTextStyleTableRecord
  2
承認
 70
     0
 40
0.0
 41
0.9
 50
0.0
 71
     0
 42
2.5
  3
simplex.shx
  4
bigfont.shx
  0
ENDTAB
  0
TABLE
  2
VIEW
  5
6
330
0
100
AcDbSymbolTable
 70
     0
  0
ENDTAB
  0
TABLE
  2
UCS
  5
7
330
0
100
AcDbSymbolTable
 70
     0
  0
ENDTAB
  0
TABLE
  2
APPID
  5
9
330
0
100
AcDbSymbolTable
 70
   128
  0
APPID
  5
12
330
9
100
AcDbSymbolTableRecord
100
AcDbRegAppTableRecord
  2
ACAD
 70
     0
  0
APPID
  5
32
330
9
100
AcDbSymbolTableRecord
100
AcDbRegAppTableRecord
  2
MCAD_NO_VIS
 70
     0
  0
APPID
  5
33
330
9
100
AcDbSymbolTableRecord
100
AcDbRegAppTableRecord
  2
ACAD_TEMP_GRAPHIC
 70
     0
  0
APPID
  5
65
330
9
100
AcDbSymbolTableRecord
100
AcDbRegAppTableRecord
  2
AD_DRAW
 70
     0
  0
APPID
  5
68
330
9
100
AcDbSymbolTableRecord
100
AcDbRegAppTableRecord
  2
ACATTRIBSERVICES
 70
     0
  0
APPID
  5
86
330
9
100
AcDbSymbolTableRecord
100
AcDbRegAppTableRecord
  2
DESIGNERASSEMBLIES
 70
     0
  0
APPID
  5
C0
330
9
100
AcDbSymbolTableRecord
100
AcDbRegAppTableRecord
  2
ACADM_DIM_EDIT
 70
     0
  0
APPID
  5
C1
330
9
100
AcDbSymbolTableRecord
100
AcDbRegAppTableRecord
  2
AMDT_DM_ADJ
 70
     0
  0
APPID
  5
138
330
9
100
AcDbSymbolTableRecord
100
AcDbRegAppTableRecord
  2
GENIUS_GENTRA_14
 70
     0
  0
APPID
  5
139
330
9
100
AcDbSymbolTableRecord
100
AcDbRegAppTableRecord
  2
GENIUS_GENODEF_13
 70
     0
  0
APPID
  5
13A
330
9
100
AcDbSymbolTableRecord
100
AcDbRegAppTableRecord
  2
GENIUS_GENOBJ-N-REC_13
 70
     0
  0
APPID
  5
13B
330
9
100
AcDbSymbolTableRecord
100
AcDbRegAppTableRecord
  2
GENIUS_GENREC_14
 70
     0
  0
APPID
  5
13C
330
9
100
AcDbSymbolTableRecord
100
AcDbRegAppTableRecord
  2
GENIUS_GENSCREG_15
 70
     0
  0
APPID
  5
13D
330
9
100
AcDbSymbolTableRecord
100
AcDbRegAppTableRecord
  2
GENIUS_GENOBJ-N-SDF_13
 70
     0
  0
APPID
  5
13E
330
9
100
AcDbSymbolTableRecord
100
AcDbRegAppTableRecord
  2
GENIUS_GENOENT_13
 70
     0
  0
APPID
  5
13F
330
9
100
AcDbSymbolTableRecord
100
AcDbRegAppTableRecord
  2
GENIUS_GENOREF_13
 70
     0
  0
APPID
  5
140
330
9
100
AcDbSymbolTableRecord
100
AcDbRegAppTableRecord
  2
GENIUS_GENOLIS_13
 70
     0
  0
APPID
  5
141
330
9
100
AcDbSymbolTableRecord
100
AcDbRegAppTableRecord
  2
GENIUS_GENDTOL_13
 70
     0
  0
APPID
  5
142
330
9
100
AcDbSymbolTableRecord
100
AcDbRegAppTableRecord
  2
GENIUS_GENDIMSH_14
 70
     0
  0
APPID
  5
143
330
9
100
AcDbSymbolTableRecord
100
AcDbRegAppTableRecord
  2
GENIUS_GENOBJ-N-FIL_13
 70
     0
  0
APPID
  5
144
330
9
100
AcDbSymbolTableRecord
100
AcDbRegAppTableRecord
  2
GENIUS_GENHINW_13
 70
     0
  0
APPID
  5
145
330
9
100
AcDbSymbolTableRecord
100
AcDbRegAppTableRecord
  2
GENIUS_GENFIL_13
 70
     0
  0
APPID
  5
146
330
9
100
AcDbSymbolTableRecord
100
AcDbRegAppTableRecord
  2
GENIUS_GENBH_13
 70
     0
  0
APPID
  5
147
330
9
100
AcDbSymbolTableRecord
100
AcDbRegAppTableRecord
  2
GENIUS_GENOBJ-NBEHI-BHF_13
 70
     0
  0
APPID
  5
148
330
9
100
AcDbSymbolTableRecord
100
AcDbRegAppTableRecord
  2
GENIUS_GENOBJ-NBEHI-BHB_13
 70
     0
  0
APPID
  5
149
330
9
100
AcDbSymbolTableRecord
100
AcDbRegAppTableRecord
  2
GENIUS_GENREC_13
 70
     0
  0
APPID
  5
14A
330
9
100
AcDbSymbolTableRecord
100
AcDbRegAppTableRecord
  2
GENIUS_GENOBJ-N-CEN_13
 70
     0
  0
APPID
  5
14B
330
9
100
AcDbSymbolTableRecord
100
AcDbRegAppTableRecord
  2
GENIUS_GENOBJ-N-CHA_13
 70
     0
  0
APPID
  5
14C
330
9
100
AcDbSymbolTableRecord
100
AcDbRegAppTableRecord
  2
GENIUS_GENIUS_GENBHEDTMP_13
 70
     0
  0
APPID
  5
14D
330
9
100
AcDbSymbolTableRecord
100
AcDbRegAppTableRecord
  2
GENIUS_GENOBJ-N-HTC_13
 70
     0
  0
APPID
  5
14E
330
9
100
AcDbSymbolTableRecord
100
AcDbRegAppTableRecord
  2
GENIUS_GENHATCH_13
 70
     0
  0
APPID
  5
853
330
9
100
AcDbSymbolTableRecord
100
AcDbRegAppTableRecord
  2
DCO15
 70
     0
  0
APPID
  5
1087
330
9
100
AcDbSymbolTableRecord
100
AcDbRegAppTableRecord
  2
AcAecLayerStandard
 70
     0
  0
APPID
  5
12C6
330
9
100
AcDbSymbolTableRecord
100
AcDbRegAppTableRecord
  2
ACAD_EXEMPT_FROM_CAD_STANDARDS
 70
     0
  0
APPID
  5
1300
330
9
100
AcDbSymbolTableRecord
100
AcDbRegAppTableRecord
  2
GENIUS_GENCEN_19
 70
     0
  0
APPID
  5
1833
330
9
100
AcDbSymbolTableRecord
100
AcDbRegAppTableRecord
  2
ACAD_PSEXT
 70
     0
  0
APPID
  5
1C5F
330
9
100
AcDbSymbolTableRecord
100
AcDbRegAppTableRecord
  2
ACAD_MLEADERVER
 70
     0
  0
APPID
  5
20A4
330
9
100
AcDbSymbolTableRecord
100
AcDbRegAppTableRecord
  2
GENIUS_GENOBJ-N-CRS_13
 70
     0
  0
APPID
  5
20A5
330
9
100
AcDbSymbolTableRecord
100
AcDbRegAppTableRecord
  2
GENIUS_GENOBJ-N-RSBK_13
 70
     0
  0
APPID
  5
20A6
330
9
100
AcDbSymbolTableRecord
100
AcDbRegAppTableRecord
  2
GENIUS_GENOBJ-N-LIB_13
 70
     0
  0
APPID
  5
20A7
330
9
100
AcDbSymbolTableRecord
100
AcDbRegAppTableRecord
  2
GENIUS_GENSCALE_13
 70
     0
  0
APPID
  5
20A8
330
9
100
AcDbSymbolTableRecord
100
AcDbRegAppTableRecord
  2
AMG_2DSTRUCT_BTR
 70
     0
  0
APPID
  5
20A9
330
9
100
AcDbSymbolTableRecord
100
AcDbRegAppTableRecord
  2
AMG_2DHIDE
 70
     0
  0
APPID
  5
20AA
330
9
100
AcDbSymbolTableRecord
100
AcDbRegAppTableRecord
  2
GEVID1177635160
 70
     0
  0
APPID
  5
20AB
330
9
100
AcDbSymbolTableRecord
100
AcDbRegAppTableRecord
  2
GEVDC
 70
     0
  0
APPID
  5
20AC
330
9
100
AcDbSymbolTableRecord
100
AcDbRegAppTableRecord
  2
ACADM_2DVIEW_IGN_NOTIFY
 70
     0
  0
APPID
  5
20AD
330
9
100
AcDbSymbolTableRecord
100
AcDbRegAppTableRecord
  2
GEVID1177635162
 70
     0
  0
APPID
  5
20AE
330
9
100
AcDbSymbolTableRecord
100
AcDbRegAppTableRecord
  2
GEVID1177635164
 70
     0
  0
APPID
  5
20AF
330
9
100
AcDbSymbolTableRecord
100
AcDbRegAppTableRecord
  2
GEVID1177635165
 70
     0
  0
APPID
  5
20B0
330
9
100
AcDbSymbolTableRecord
100
AcDbRegAppTableRecord
  2
GEVID1177635168
 70
     0
  0
APPID
  5
20B1
330
9
100
AcDbSymbolTableRecord
100
AcDbRegAppTableRecord
  2
GEVID1177635169
 70
     0
  0
APPID
  5
20B2
330
9
100
AcDbSymbolTableRecord
100
AcDbRegAppTableRecord
  2
GEVID1177635171
 70
     0
  0
APPID
  5
20B3
330
9
100
AcDbSymbolTableRecord
100
AcDbRegAppTableRecord
  2
GEVID1177635173
 70
     0
  0
APPID
  5
20B4
330
9
100
AcDbSymbolTableRecord
100
AcDbRegAppTableRecord
  2
GEVID1177635174
 70
     0
  0
APPID
  5
20B5
330
9
100
AcDbSymbolTableRecord
100
AcDbRegAppTableRecord
  2
GEVID1177635175
 70
     0
  0
APPID
  5
20B6
330
9
100
AcDbSymbolTableRecord
100
AcDbRegAppTableRecord
  2
GEVID1177635176
 70
     0
  0
APPID
  5
20B7
330
9
100
AcDbSymbolTableRecord
100
AcDbRegAppTableRecord
  2
GEVID1177635180
 70
     0
  0
APPID
  5
20B8
330
9
100
AcDbSymbolTableRecord
100
AcDbRegAppTableRecord
  2
GEVID1177635184
 70
     0
  0
APPID
  5
20B9
330
9
100
AcDbSymbolTableRecord
100
AcDbRegAppTableRecord
  2
GEVID1177635185
 70
     0
  0
APPID
  5
20BA
330
9
100
AcDbSymbolTableRecord
100
AcDbRegAppTableRecord
  2
GEVID1177635186
 70
     0
  0
APPID
  5
20BB
330
9
100
AcDbSymbolTableRecord
100
AcDbRegAppTableRecord
  2
GEVID1179291828
 70
     0
  0
APPID
  5
20BC
330
9
100
AcDbSymbolTableRecord
100
AcDbRegAppTableRecord
  2
GEVID1179291830
 70
     0
  0
APPID
  5
20BD
330
9
100
AcDbSymbolTableRecord
100
AcDbRegAppTableRecord
  2
ACAD_DSTYLE_DIMINSPECT
 70
     0
  0
APPID
  5
20BE
330
9
100
AcDbSymbolTableRecord
100
AcDbRegAppTableRecord
  2
GEVID1179291831
 70
     0
  0
APPID
  5
28A2
330
9
100
AcDbSymbolTableRecord
100
AcDbRegAppTableRecord
  2
ACAD_DSTYLE_DIMJAG
 70
     0
  0
APPID
  5
28A3
330
9
100
AcDbSymbolTableRecord
100
AcDbRegAppTableRecord
  2
ACAD_DSTYLE_DIMTALN
 70
     0
  0
APPID
  5
28A4
330
9
100
AcDbSymbolTableRecord
100
AcDbRegAppTableRecord
  2
ACAD_DSTYLE_DIMBREAK
 70
     0
  0
APPID
  5
38D5
330
9
100
AcDbSymbolTableRecord
100
AcDbRegAppTableRecord
  2
AcadAnnotative
 70
     0
  0
APPID
  5
38D6
330
9
100
AcDbSymbolTableRecord
100
AcDbRegAppTableRecord
  2
ACAD_DSTYLE_DIMJOGGED_JOGANGLE_SYMBOL
 70
     0
  0
APPID
  5
38D7
330
9
100
AcDbSymbolTableRecord
100
AcDbRegAppTableRecord
  2
ACAD_DSTYLE_DIMRADIAL_EXTENSION
 70
     0
  0
APPID
  5
38D8
330
9
100
AcDbSymbolTableRecord
100
AcDbRegAppTableRecord
  2
GEVID1186734088
 70
     0
  0
APPID
  5
38D9
330
9
100
AcDbSymbolTableRecord
100
AcDbRegAppTableRecord
  2
GEVID1186734089
 70
     0
  0
APPID
  5
38DA
330
9
100
AcDbSymbolTableRecord
100
AcDbRegAppTableRecord
  2
GEVID1186734091
 70
     0
  0
APPID
  5
38DB
330
9
100
AcDbSymbolTableRecord
100
AcDbRegAppTableRecord
  2
GEVID1186809081
 70
     0
  0
APPID
  5
431C
330
9
100
AcDbSymbolTableRecord
100
AcDbRegAppTableRecord
  2
GEVID1200376242
 70
     0
  0
APPID
  5
431D
330
9
100
AcDbSymbolTableRecord
100
AcDbRegAppTableRecord
  2
GEVID1200376243
 70
     0
  0
APPID
  5
431E
330
9
100
AcDbSymbolTableRecord
100
AcDbRegAppTableRecord
  2
ACAD_DIMASSOC_CALC_DIMLFAC
 70
     0
  0
APPID
  5
431F
330
9
100
AcDbSymbolTableRecord
100
AcDbRegAppTableRecord
  2
ACAD_DIMASSOC_DIMLFAC
 70
     0
  0
APPID
  5
4320
330
9
100
AcDbSymbolTableRecord
100
AcDbRegAppTableRecord
  2
ACAD_DIMASSOC_OVERRIDDEN_DIMLFAC
 70
     0
  0
APPID
  5
4321
330
9
100
AcDbSymbolTableRecord
100
AcDbRegAppTableRecord
  2
GEVID1183531517
 70
     0
  0
APPID
  5
4322
330
9
100
AcDbSymbolTableRecord
100
AcDbRegAppTableRecord
  2
GEVID1183531518
 70
     0
  0
APPID
  5
4323
330
9
100
AcDbSymbolTableRecord
100
AcDbRegAppTableRecord
  2
GEVID1195605042
 70
     0
  0
APPID
  5
4324
330
9
100
AcDbSymbolTableRecord
100
AcDbRegAppTableRecord
  2
GEVID1195605043
 70
     0
  0
APPID
  5
4325
330
9
100
AcDbSymbolTableRecord
100
AcDbRegAppTableRecord
  2
GEVID1195605044
 70
     0
  0
APPID
  5
5F39
330
9
100
AcDbSymbolTableRecord
100
AcDbRegAppTableRecord
  2
AcadAnnoPO
 70
     0
  0
APPID
  5
76D7
330
9
100
AcDbSymbolTableRecord
100
AcDbRegAppTableRecord
  2
GEVID1223428646
 70
     0
  0
APPID
  5
76D8
330
9
100
AcDbSymbolTableRecord
100
AcDbRegAppTableRecord
  2
GEVID1223428647
 70
     0
  0
APPID
  5
826F
330
9
100
AcDbSymbolTableRecord
100
AcDbRegAppTableRecord
  2
GEVID1228357859
 70
     0
  0
APPID
  5
109B7
330
9
100
AcDbSymbolTableRecord
100
AcDbRegAppTableRecord
  2
GEVID1181262513
 70
     0
  0
APPID
  5
109B8
330
9
100
AcDbSymbolTableRecord
100
AcDbRegAppTableRecord
  2
GEVID1194413920
 70
     0
  0
APPID
  5
109B9
330
9
100
AcDbSymbolTableRecord
100
AcDbRegAppTableRecord
  2
GEVID1194413921
 70
     0
  0
APPID
  5
109BA
330
9
100
AcDbSymbolTableRecord
100
AcDbRegAppTableRecord
  2
GEVID1194480096
 70
     0
  0
APPID
  5
109BB
330
9
100
AcDbSymbolTableRecord
100
AcDbRegAppTableRecord
  2
GEVID1194480097
 70
     0
  0
APPID
  5
109BC
330
9
100
AcDbSymbolTableRecord
100
AcDbRegAppTableRecord
  2
GEVID1194480098
 70
     0
  0
APPID
  5
109BD
330
9
100
AcDbSymbolTableRecord
100
AcDbRegAppTableRecord
  2
GEVID1194480099
 70
     0
  0
APPID
  5
109BE
330
9
100
AcDbSymbolTableRecord
100
AcDbRegAppTableRecord
  2
GEVID1194480100
 70
     0
  0
APPID
  5
109BF
330
9
100
AcDbSymbolTableRecord
100
AcDbRegAppTableRecord
  2
GEVID1194480101
 70
     0
  0
APPID
  5
109C0
330
9
100
AcDbSymbolTableRecord
100
AcDbRegAppTableRecord
  2
GENIUS_GEFSHP_13
 70
     0
  0
APPID
  5
109C1
330
9
100
AcDbSymbolTableRecord
100
AcDbRegAppTableRecord
  2
GENIUS_GEFSH_13
 70
     0
  0
APPID
  5
109C2
330
9
100
AcDbSymbolTableRecord
100
AcDbRegAppTableRecord
  2
GENIUS_AMGTXT_16
 70
     0
  0
APPID
  5
109C3
330
9
100
AcDbSymbolTableRecord
100
AcDbRegAppTableRecord
  2
GEVID1206088229
 70
     0
  0
APPID
  5
109C4
330
9
100
AcDbSymbolTableRecord
100
AcDbRegAppTableRecord
  2
GEVID1206088231
 70
     0
  0
APPID
  5
109C5
330
9
100
AcDbSymbolTableRecord
100
AcDbRegAppTableRecord
  2
GEVID1206088232
 70
     0
  0
APPID
  5
109C6
330
9
100
AcDbSymbolTableRecord
100
AcDbRegAppTableRecord
  2
GEVID1206088233
 70
     0
  0
APPID
  5
109C7
330
9
100
AcDbSymbolTableRecord
100
AcDbRegAppTableRecord
  2
GEVID1206088234
 70
     0
  0
APPID
  5
109C8
330
9
100
AcDbSymbolTableRecord
100
AcDbRegAppTableRecord
  2
MACHINERY
 70
     0
  0
APPID
  5
109C9
330
9
100
AcDbSymbolTableRecord
100
AcDbRegAppTableRecord
  2
USERREMARKS
 70
     0
  0
APPID
  5
109CA
330
9
100
AcDbSymbolTableRecord
100
AcDbRegAppTableRecord
  2
SYURUI
 70
     0
  0
APPID
  5
109CB
330
9
100
AcDbSymbolTableRecord
100
AcDbRegAppTableRecord
  2
FORMERDRAWING
 70
     0
  0
APPID
  5
109CC
330
9
100
AcDbSymbolTableRecord
100
AcDbRegAppTableRecord
  2
NUMBERING
 70
     0
  0
APPID
  5
109CD
330
9
100
AcDbSymbolTableRecord
100
AcDbRegAppTableRecord
  2
GEVID1324008112
 70
     0
  0
APPID
  5
109CE
330
9
100
AcDbSymbolTableRecord
100
AcDbRegAppTableRecord
  2
GEVCON
 70
     0
  0
APPID
  5
109CF
330
9
100
AcDbSymbolTableRecord
100
AcDbRegAppTableRecord
  2
GENIUS_GENOBJ-F-SCPASSM_13
 70
     0
  0
APPID
  5
109D0
330
9
100
AcDbSymbolTableRecord
100
AcDbRegAppTableRecord
  2
GEVID1324008113
 70
     0
  0
APPID
  5
109D1
330
9
100
AcDbSymbolTableRecord
100
AcDbRegAppTableRecord
  2
GEVID1324008114
 70
     0
  0
APPID
  5
109D2
330
9
100
AcDbSymbolTableRecord
100
AcDbRegAppTableRecord
  2
GEVID1324008115
 70
     0
  0
APPID
  5
109D3
330
9
100
AcDbSymbolTableRecord
100
AcDbRegAppTableRecord
  2
GEVID1324008116
 70
     0
  0
APPID
  5
109D4
330
9
100
AcDbSymbolTableRecord
100
AcDbRegAppTableRecord
  2
GEVID1324008117
 70
     0
  0
APPID
  5
109D5
330
9
100
AcDbSymbolTableRecord
100
AcDbRegAppTableRecord
  2
GEVID1324008118
 70
     0
  0
APPID
  5
109D6
330
9
100
AcDbSymbolTableRecord
100
AcDbRegAppTableRecord
  2
GEVMK
 70
     0
  0
APPID
  5
109D7
330
9
100
AcDbSymbolTableRecord
100
AcDbRegAppTableRecord
  2
GEVID1324008119
 70
     0
  0
APPID
  5
12F89
330
9
100
AcDbSymbolTableRecord
100
AcDbRegAppTableRecord
  2
ACAD_NAV_VCDISPLAY
 70
     0
  0
APPID
  5
130B3
330
9
100
AcDbSymbolTableRecord
100
AcDbRegAppTableRecord
  2
AcDbDynamicBlockGUID
 70
     0
  0
APPID
  5
130B4
330
9
100
AcDbSymbolTableRecord
100
AcDbRegAppTableRecord
  2
ACAUTHENVIRON
 70
     0
  0
APPID
  5
130B5
330
9
100
AcDbSymbolTableRecord
100
AcDbRegAppTableRecord
  2
AcDbDynamicBlockTrueName
 70
     0
  0
APPID
  5
13A46
330
9
100
AcDbSymbolTableRecord
100
AcDbRegAppTableRecord
  2
ACDBBLOCKREPETAG
 70
     0
  0
APPID
  5
13A47
330
9
100
AcDbSymbolTableRecord
100
AcDbRegAppTableRecord
  2
GEVID1341370643
 70
     0
  0
APPID
  5
13A48
330
9
100
AcDbSymbolTableRecord
100
AcDbRegAppTableRecord
  2
GEVID1341370644
 70
     0
  0
ENDTAB
  0
TABLE
  2
DIMSTYLE
  5
A
330
0
100
AcDbSymbolTable
 70
     8
100
AcDbDimStyleTable
 71
     3
340
136
340
B0
340
B5
  0
DIMSTYLE
105
B0
102
{ACAD_REACTORS
330
14B82
102
}
330
A
100
AcDbSymbolTableRecord
100
AcDbDimStyleTableRecord
  2
AM_ISO
 70
     0
  4
"
 41
2.5
 42
1.0
 43
10.0
 44
1.0
 47
0.1
 48
0.1
 73
     0
 74
     0
 77
     1
 78
     8
 79
     2
140
3.5
141
0.0
143
0.0393701
146
0.71
147
1.5
172
     1
176
   256
177
   256
178
     2
271
     2
272
     3
274
     4
283
     0
284
     8
340
11
371
    -1
372
    -1
  0
DIMSTYLE
105
B1
330
A
100
AcDbSymbolTableRecord
100
AcDbDimStyleTableRecord
  2
AM_ISO$3
 70
     0
  4
"
 41
2.5
 42
1.0
 43
10.0
 44
1.0
 47
0.1
 48
0.1
 73
     0
 77
     1
 78
     8
 79
     2
140
3.5
141
0.0
143
0.0393701
146
0.71
147
1.5
176
   256
177
   256
178
     2
271
     2
272
     3
274
     4
283
     0
284
     8
288
     1
289
     0
340
11
371
    -1
372
    -1
  0
DIMSTYLE
105
B2
330
A
100
AcDbSymbolTableRecord
100
AcDbDimStyleTableRecord
  2
AM_ISO$4
 70
     0
  4
"
 41
2.5
 42
1.0
 43
10.0
 44
1.0
 47
0.1
 48
0.1
 73
     0
 77
     1
 78
     8
 79
     2
140
3.5
141
0.0
143
0.0393701
146
0.71
147
1.5
176
   256
177
   256
178
     2
271
     2
272
     3
274
     4
283
     0
284
     8
288
     1
289
     0
340
11
371
    -1
372
    -1
  0
DIMSTYLE
105
B3
330
A
100
AcDbSymbolTableRecord
100
AcDbDimStyleTableRecord
  2
AM_ISO$6
 70
     0
  4
"
 41
2.5
 42
1.0
 43
10.0
 44
1.0
 47
0.1
 48
0.1
 73
     0
 74
     0
 78
     8
 79
     2
140
3.5
141
0.0
143
0.0393701
146
0.71
147
1.5
172
     1
176
   256
177
   256
178
     2
271
     2
272
     3
274
     4
283
     0
284
     8
340
11
371
    -1
372
    -1
  0
DIMSTYLE
105
B4
330
A
100
AcDbSymbolTableRecord
100
AcDbDimStyleTableRecord
  2
AM_ISO$7
 70
     0
  4
"
 41
2.5
 42
1.0
 43
10.0
 44
1.0
 47
0.1
 48
0.1
 73
     0
 74
     0
 77
     1
 78
     8
 79
     2
140
5.0
141
0.0
143
0.0393701
146
0.71
147
1.5
172
     1
176
   256
177
   256
178
     2
271
     2
272
     3
274
     4
283
     0
284
     8
340
11
371
    -1
372
    -1
  0
DIMSTYLE
105
B5
330
A
100
AcDbSymbolTableRecord
100
AcDbDimStyleTableRecord
  2
AM_ISO$SF
 70
     0
  4
"
 41
2.5
 42
1.0
 43
10.0
 44
1.0
 47
0.1
 48
0.1
 73
     0
 74
     0
 75
     1
 76
     1
 77
     1
 78
     8
 79
     2
140
3.5
141
0.0
143
0.0393701
146
0.71
147
1.5
172
     1
176
   256
177
   256
178
     2
271
     2
272
     3
274
     4
283
     0
284
     8
340
11
371
    -1
372
    -1
  0
DIMSTYLE
105
BA
330
A
100
AcDbSymbolTableRecord
100
AcDbDimStyleTableRecord
  2
AM_ISO$SH
 70
     0
  4
"
 41
2.5
 42
1.0
 43
10.0
 44
1.0
 47
0.1
 48
0.1
 73
     0
 74
     0
 75
     1
 76
     1
 77
     1
 78
     8
 79
     2
140
3.5
141
0.0
143
0.0393701
144
2.0
146
0.71
147
1.5
172
     1
173
     1
176
   256
177
   256
178
     2
271
     2
272
     3
274
     4
283
     0
284
     8
340
11
343
B6
371
    -1
372
    -1
  0
DIMSTYLE
105
136
330
A
100
AcDbSymbolTableRecord
100
AcDbDimStyleTableRecord
  2
STANDARD
 70
     0
 41
3.0
 42
2.0
 43
10.0
 44
2.5
 73
     0
 74
     0
 77
     1
 78
     8
140
5.0
141
3.0
147
2.0
172
     1
271
     2
272
     2
284
     8
340
11
  0
ENDTAB
  0
TABLE
  2
BLOCK_RECORD
  5
1
330
0
100
AcDbSymbolTable
 70
     4
  0
BLOCK_RECORD
  5
21
102
{ACAD_XDICTIONARY
360
B54
102
}
330
1
100
AcDbSymbolTableRecord
100
AcDbBlockTableRecord
  2
*Model_Space
340
24
  0
BLOCK_RECORD
  5
14441
330
1
100
AcDbSymbolTableRecord
100
AcDbBlockTableRecord
  2
*Paper_Space
340
14442
  0
BLOCK_RECORD
  5
B6
330
1
100
AcDbSymbolTableRecord
100
AcDbBlockTableRecord
  2
GENAXEH
340
0
  0
BLOCK_RECORD
  5
1415C
102
{ACAD_XDICTIONARY
360
141CA
102
}
330
1
100
AcDbSymbolTableRecord
100
AcDbBlockTableRecord
  2
A$C483F6562
340
0
102
{BLKREFS
331
141CE
102
}
1001
ACAD
1000
DesignCenter Data
1002
{
1070
     1
1070
     4
1002
}
  0
ENDTAB
  0
ENDSEC
  0
SECTION
  2
BLOCKS
  0
BLOCK
  5
22
330
21
100
AcDbEntity
  8
0
100
AcDbBlockBegin
  2
*Model_Space
 70
     0
 10
0.0
 20
0.0
 30
0.0
  3
*Model_Space
  1

  0
ENDBLK
  5
23
330
21
100
AcDbEntity
  8
0
100
AcDbBlockEnd
  0
BLOCK
  5
14443
330
14441
100
AcDbEntity
 67
     1
  8
0
100
AcDbBlockBegin
  2
*Paper_Space
 70
     0
 10
0.0
 20
0.0
 30
0.0
  3
*Paper_Space
  1

  0
ENDBLK
  5
14444
330
14441
100
AcDbEntity
 67
     1
  8
0
100
AcDbBlockEnd
  0
BLOCK
  5
B8
330
B6
100
AcDbEntity
  8
0
100
AcDbBlockBegin
  2
GENAXEH
 70
     0
 10
0.0
 20
0.0
 30
0.0
  3
GENAXEH
  1

  0
LINE
  5
B7
330
B6
100
AcDbEntity
  8
0
100
AcDbLine
 10
-1.0
 20
0.0
 30
0.0
 11
1.0
 21
0.0
 31
0.0
  0
ENDBLK
  5
B9
330
B6
100
AcDbEntity
  8
0
100
AcDbBlockEnd
  0
BLOCK
  5
141CC
330
1415C
100
AcDbEntity
  8
0
100
AcDbBlockBegin
  2
A$C483F6562
 70
     0
 10
0.0
 20
0.0
 30
0.0
  3
A$C483F6562
  1

  0
LINE
  5
1415D
330
1415C
100
AcDbEntity
  8
図面枠
100
AcDbLine
 10
-38.68285350646374
 20
209.5621440270124
 30
0.0
 11
159.5171464935363
 21
209.5621440270124
 31
0.0
1001
GENIUS_GENREC_14
1002
{
1000
PYDIR
1011
-38.68285350646374
1021
-75.52337455182303
1031
0.0
1002
}
1002
{
1000
PXDIR
1011
159.5171464935363
1021
209.5621440270124
1031
0.0
1002
}
1002
{
1000
PORI
1011
-38.68285350646374
1021
209.5621440270124
1031
0.0
1002
}
1002
{
1000
PINS
1011
-38.68285350646374
1021
209.5621440270124
1031
0.0
1002
}
1002
{
1000
PINS2
1011
159.5171464935363
1021
-75.52337455182303
1031
0.0
1002
}
1002
{
1000
C
1070
     1
1002
}
1001
GENIUS_GENOBJ-N-REC_13
1002
{
1000
OWNER
1000
GEN
1002
}
1001
GENIUS_GENODEF_13
1002
{
1000
HIER
1070
     0
1002
}
1002
{
1000
MANEDIT
1070
     0
1002
}
1002
{
1000
NOSEL
1070
     0
1002
}
1002
{
1000
BEHIND
1070
     0
1002
}
1002
{
1000
OTHER
1070
     0
1002
}
1002
{
1000
REACTOR
1002
}
  0
LINE
  5
1415E
330
1415C
100
AcDbEntity
  8
図面枠
100
AcDbLine
 10
159.5171464935363
 20
209.5621440270124
 30
0.0
 11
159.5171464935361
 21
-75.52337455182303
 31
0.0
1001
GENIUS_GENREC_14
1002
{
1000
PYDIR
1011
-38.68285350646374
1021
-75.52337455182303
1031
0.0
1002
}
1002
{
1000
PXDIR
1011
159.5171464935363
1021
209.5621440270124
1031
0.0
1002
}
1002
{
1000
PORI
1011
-38.68285350646374
1021
209.5621440270124
1031
0.0
1002
}
1002
{
1000
PINS
1011
-38.68285350646374
1021
209.5621440270124
1031
0.0
1002
}
1002
{
1000
PINS2
1011
159.5171464935363
1021
-75.52337455182303
1031
0.0
1002
}
1002
{
1000
C
1070
     1
1002
}
1001
GENIUS_GENOBJ-N-REC_13
1002
{
1000
OWNER
1000
GEN
1002
}
1001
GENIUS_GENODEF_13
1002
{
1000
HIER
1070
     0
1002
}
1002
{
1000
MANEDIT
1070
     0
1002
}
1002
{
1000
NOSEL
1070
     0
1002
}
1002
{
1000
BEHIND
1070
     0
1002
}
1002
{
1000
OTHER
1070
     0
1002
}
1002
{
1000
REACTOR
1002
}
  0
LINE
  5
1415F
330
1415C
100
AcDbEntity
  8
図面枠
100
AcDbLine
 10
159.5171464935361
 20
-75.52337455182303
 30
0.0
 11
-38.68285350646378
 21
-75.523374551823
 31
0.0
1001
GENIUS_GENREC_14
1002
{
1000
PYDIR
1011
-38.68285350646374
1021
-75.52337455182303
1031
0.0
1002
}
1002
{
1000
PXDIR
1011
159.5171464935363
1021
209.5621440270124
1031
0.0
1002
}
1002
{
1000
PORI
1011
-38.68285350646374
1021
209.5621440270124
1031
0.0
1002
}
1002
{
1000
PINS
1011
-38.68285350646374
1021
209.5621440270124
1031
0.0
1002
}
1002
{
1000
PINS2
1011
159.5171464935363
1021
-75.52337455182303
1031
0.0
1002
}
1002
{
1000
C
1070
     1
1002
}
1001
GENIUS_GENOBJ-N-REC_13
1002
{
1000
OWNER
1000
GEN
1002
}
1001
GENIUS_GENODEF_13
1002
{
1000
HIER
1070
     0
1002
}
1002
{
1000
MANEDIT
1070
     0
1002
}
1002
{
1000
NOSEL
1070
     0
1002
}
1002
{
1000
BEHIND
1070
     0
1002
}
1002
{
1000
OTHER
1070
     0
1002
}
1002
{
1000
REACTOR
1002
}
  0
LINE
  5
14160
330
1415C
100
AcDbEntity
  8
図面枠
100
AcDbLine
 10
-38.68285350646378
 20
-75.523374551823
 30
0.0
 11
-38.68285350646374
 21
209.5621440270124
 31
0.0
1001
GENIUS_GENREC_14
1002
{
1000
PYDIR
1011
-38.68285350646374
1021
-75.52337455182303
1031
0.0
1002
}
1002
{
1000
PXDIR
1011
159.5171464935363
1021
209.5621440270124
1031
0.0
1002
}
1002
{
1000
PORI
1011
-38.68285350646374
1021
209.5621440270124
1031
0.0
1002
}
1002
{
1000
PINS
1011
-38.68285350646374
1021
209.5621440270124
1031
0.0
1002
}
1002
{
1000
PINS2
1011
159.5171464935363
1021
-75.52337455182303
1031
0.0
1002
}
1002
{
1000
C
1070
     1
1002
}
1001
GENIUS_GENOBJ-N-REC_13
1002
{
1000
OWNER
1000
GEN
1002
}
1001
GENIUS_GENODEF_13
1002
{
1000
HIER
1070
     0
1002
}
1002
{
1000
MANEDIT
1070
     0
1002
}
1002
{
1000
NOSEL
1070
     0
1002
}
1002
{
1000
BEHIND
1070
     0
1002
}
1002
{
1000
OTHER
1070
     0
1002
}
1002
{
1000
REACTOR
1002
}
  0
TEXT
  5
14161
330
1415C
100
AcDbEntity
  8
図面枠
100
AcDbText
 10
93.42286077925059
 20
-39.52337455182325
 30
0.0
 40
3.0
  1
幅90mm\U+00D7奥行221mm\U+00D7高さ418mm
 41
0.8
  7
0.8横
100
AcDbText
  0
TEXT
  5
14162
330
1415C
100
AcDbEntity
  8
図面枠
100
AcDbText
 10
112.3371464935362
 20
-44.52337455182324
 30
0.0
 40
3.0
  1
（ノズル含む）
 41
0.8
  7
0.8横
100
AcDbText
  0
LINE
  5
14163
330
1415C
100
AcDbEntity
  8
AM_5
 62
     4
370
     9
100
AcDbLine
 10
12.74955172134935
 20
188.7504399533069
 30
0.0
 11
31.74955177157418
 21
188.7504399533069
 31
0.0
  0
LINE
  5
14164
330
1415C
100
AcDbEntity
  8
AM_5
 62
     4
370
     9
100
AcDbLine
 10
12.74955223268557
 20
133.7367640442687
 30
0.0
 11
31.74955177157418
 21
133.7367640442687
 31
0.0
  0
LINE
  5
14165
330
1415C
100
AcDbEntity
  8
AM_5
 62
     4
370
     9
100
AcDbLine
 10
30.74955177157418
 20
187.2504399533069
 30
0.0
 11
30.74955177157418
 21
135.2367640442686
 31
0.0
  0
LINE
  5
14166
330
1415C
100
AcDbEntity
  8
0
  6
ByBlock
 62
     0
370
    -2
100
AcDbLine
 10
30.49955177157418
 20
187.2504399533069
 30
0.0
 11
30.74955177157418
 21
188.7504399533069
 31
0.0
  0
LINE
  5
14167
330
1415C
100
AcDbEntity
  8
0
  6
ByBlock
 62
     0
370
    -2
100
AcDbLine
 10
30.99955177157418
 20
187.2504399533069
 30
0.0
 11
30.74955177157418
 21
188.7504399533069
 31
0.0
  0
LINE
  5
14168
330
1415C
100
AcDbEntity
  8
0
  6
ByBlock
 62
     0
370
    -2
100
AcDbLine
 10
30.74955177157418
 20
188.7504399533069
 30
0.0
 11
30.74955177157418
 21
187.2504399533069
 31
0.0
  0
LINE
  5
14169
330
1415C
100
AcDbEntity
  8
0
  6
ByBlock
 62
     0
370
    -2
100
AcDbLine
 10
30.99955177157418
 20
135.2367640442686
 30
0.0
 11
30.74955177157418
 21
133.7367640442687
 31
0.0
  0
LINE
  5
1416A
330
1415C
100
AcDbEntity
  8
0
  6
ByBlock
 62
     0
370
    -2
100
AcDbLine
 10
30.49955177157418
 20
135.2367640442686
 30
0.0
 11
30.74955177157418
 21
133.7367640442687
 31
0.0
  0
LINE
  5
1416B
330
1415C
100
AcDbEntity
  8
0
  6
ByBlock
 62
     0
370
    -2
100
AcDbLine
 10
30.74955177157418
 20
133.7367640442687
 30
0.0
 11
30.74955177157418
 21
135.2367640442686
 31
0.0
  0
TEXT
  5
1416C
330
1415C
100
AcDbEntity
  8
AM_5
100
AcDbText
 10
28.58288510490749
 20
154.4936019987876
 30
0.0
 40
3.5
  1
(220)
 50
90.0
100
AcDbText
  0
LINE
  5
1416D
330
1415C
100
AcDbEntity
  8
AM_5
 62
     4
370
     9
100
AcDbLine
 10
9.749551721308618
 20
188.7504399533069
 30
0.0
 11
-9.250448282389411
 21
188.7504399533069
 31
0.0
  0
LINE
  5
1416E
330
1415C
100
AcDbEntity
  8
AM_5
 62
     4
370
     9
100
AcDbLine
 10
9.749551744592423
 20
177.5004400293964
 30
0.0
 11
-9.250448282389411
 21
177.5004400293964
 31
0.0
  0
LINE
  5
1416F
330
1415C
100
AcDbEntity
  8
AM_5
 62
     4
370
     9
100
AcDbLine
 10
-8.250448282389411
 20
187.2504399533069
 30
0.0
 11
-8.250448282389411
 21
179.0004400293963
 31
0.0
  0
LINE
  5
14170
330
1415C
100
AcDbEntity
  8
0
  6
ByBlock
 62
     0
370
    -2
100
AcDbLine
 10
-8.500448282389411
 20
187.2504399533069
 30
0.0
 11
-8.250448282389411
 21
188.7504399533069
 31
0.0
  0
LINE
  5
14171
330
1415C
100
AcDbEntity
  8
0
  6
ByBlock
 62
     0
370
    -2
100
AcDbLine
 10
-8.000448282389411
 20
187.2504399533069
 30
0.0
 11
-8.250448282389411
 21
188.7504399533069
 31
0.0
  0
LINE
  5
14172
330
1415C
100
AcDbEntity
  8
0
  6
ByBlock
 62
     0
370
    -2
100
AcDbLine
 10
-8.250448282389411
 20
188.7504399533069
 30
0.0
 11
-8.250448282389411
 21
187.2504399533069
 31
0.0
  0
LINE
  5
14173
330
1415C
100
AcDbEntity
  8
0
  6
ByBlock
 62
     0
370
    -2
100
AcDbLine
 10
-8.000448282389411
 20
179.0004400293963
 30
0.0
 11
-8.250448282389411
 21
177.5004400293964
 31
0.0
  0
LINE
  5
14174
330
1415C
100
AcDbEntity
  8
0
  6
ByBlock
 62
     0
370
    -2
100
AcDbLine
 10
-8.500448282389411
 20
179.0004400293963
 30
0.0
 11
-8.250448282389411
 21
177.5004400293964
 31
0.0
  0
LINE
  5
14175
330
1415C
100
AcDbEntity
  8
0
  6
ByBlock
 62
     0
370
    -2
100
AcDbLine
 10
-8.250448282389411
 20
177.5004400293964
 30
0.0
 11
-8.250448282389411
 21
179.0004400293963
 31
0.0
  0
TEXT
  5
14176
330
1415C
100
AcDbEntity
  8
AM_5
100
AcDbText
 10
-9.250448282389442
 20
180.2921066580181
 30
0.0
 40
3.5
  1
45
 50
90.0
100
AcDbText
  0
LINE
  5
14177
330
1415C
100
AcDbEntity
  8
AM_5
 62
     4
370
     9
100
AcDbLine
 10
89.69642826442607
 20
0.000000584629035
 30
0.0
 11
62.81061366795743
 21
0.000000584629035
 31
0.0
  0
LINE
  5
14178
330
1415C
100
AcDbEntity
  8
AM_5
 62
     4
370
     9
100
AcDbLine
 10
67.66130578877116
 20
66.12512498794227
 30
0.0
 11
62.81061366795747
 21
66.12512498794227
 31
0.0
  0
LINE
  5
14179
330
1415C
100
AcDbEntity
  8
AM_5
 62
     4
370
     9
100
AcDbLine
 10
63.81061366795742
 20
1.500000584629034
 30
0.0
 11
63.81061366795748
 21
64.62512498794227
 31
0.0
  0
LINE
  5
1417A
330
1415C
100
AcDbEntity
  8
0
  6
ByBlock
 62
     0
370
    -2
100
AcDbLine
 10
64.06061366795743
 20
1.500000584629034
 30
0.0
 11
63.81061366795742
 21
0.000000584629035
 31
0.0
  0
LINE
  5
1417B
330
1415C
100
AcDbEntity
  8
0
  6
ByBlock
 62
     0
370
    -2
100
AcDbLine
 10
63.56061366795742
 20
1.500000584629034
 30
0.0
 11
63.81061366795742
 21
0.000000584629035
 31
0.0
  0
LINE
  5
1417C
330
1415C
100
AcDbEntity
  8
0
  6
ByBlock
 62
     0
370
    -2
100
AcDbLine
 10
63.81061366795742
 20
0.000000584629035
 30
0.0
 11
63.81061366795742
 21
1.500000584629034
 31
0.0
  0
LINE
  5
1417D
330
1415C
100
AcDbEntity
  8
0
  6
ByBlock
 62
     0
370
    -2
100
AcDbLine
 10
63.56061366795747
 20
64.62512498794227
 30
0.0
 11
63.81061366795748
 21
66.12512498794227
 31
0.0
  0
LINE
  5
1417E
330
1415C
100
AcDbEntity
  8
0
  6
ByBlock
 62
     0
370
    -2
100
AcDbLine
 10
64.06061366795743
 20
64.62512498794227
 30
0.0
 11
63.81061366795748
 21
66.12512498794227
 31
0.0
  0
LINE
  5
1417F
330
1415C
100
AcDbEntity
  8
0
  6
ByBlock
 62
     0
370
    -2
100
AcDbLine
 10
63.81061366795748
 20
66.12512498794227
 30
0.0
 11
63.81061366795748
 21
64.62512498794227
 31
0.0
  0
TEXT
  5
14180
330
1415C
100
AcDbEntity
  8
AM_5
100
AcDbText
 10
62.81061366795743
 20
28.56256278628568
 30
0.0
 40
3.5
  1
264
 50
90.0
100
AcDbText
  0
LINE
  5
14181
330
1415C
100
AcDbEntity
  8
AM_5
 62
     4
370
     9
100
AcDbLine
 10
112.4464277310542
 20
35.75000057461885
 30
0.0
 11
112.4464277310542
 21
43.90440939726945
 31
0.0
  0
LINE
  5
14182
330
1415C
100
AcDbEntity
  8
AM_5
 62
     4
370
     9
100
AcDbLine
 10
76.05070864672959
 20
64.96178693423683
 30
0.0
 11
76.05070864672959
 21
41.90440939726946
 31
0.0
  0
LINE
  5
14183
330
1415C
100
AcDbEntity
  8
AM_5
 62
     4
370
     9
100
AcDbLine
 10
110.9464277310542
 20
42.90440939726948
 30
0.0
 11
77.55070864672958
 21
42.90440939726948
 31
0.0
  0
LINE
  5
14184
330
1415C
100
AcDbEntity
  8
0
  6
ByBlock
 62
     0
370
    -2
100
AcDbLine
 10
110.9464277310542
 20
43.15440939726946
 30
0.0
 11
112.4464277310542
 21
42.90440939726948
 31
0.0
  0
LINE
  5
14185
330
1415C
100
AcDbEntity
  8
0
  6
ByBlock
 62
     0
370
    -2
100
AcDbLine
 10
110.9464277310542
 20
42.65440939726945
 30
0.0
 11
112.4464277310542
 21
42.90440939726948
 31
0.0
  0
LINE
  5
14186
330
1415C
100
AcDbEntity
  8
0
  6
ByBlock
 62
     0
370
    -2
100
AcDbLine
 10
112.4464277310542
 20
42.90440939726948
 30
0.0
 11
110.9464277310542
 21
42.90440939726948
 31
0.0
  0
LINE
  5
14187
330
1415C
100
AcDbEntity
  8
0
  6
ByBlock
 62
     0
370
    -2
100
AcDbLine
 10
77.55070864672958
 20
42.65440939726945
 30
0.0
 11
76.05070864672959
 21
42.90440939726948
 31
0.0
  0
LINE
  5
14188
330
1415C
100
AcDbEntity
  8
0
  6
ByBlock
 62
     0
370
    -2
100
AcDbLine
 10
77.55070864672958
 20
43.15440939726946
 30
0.0
 11
76.05070864672959
 21
42.90440939726948
 31
0.0
  0
LINE
  5
14189
330
1415C
100
AcDbEntity
  8
0
  6
ByBlock
 62
     0
370
    -2
100
AcDbLine
 10
76.05070864672959
 20
42.90440939726948
 30
0.0
 11
77.55070864672958
 21
42.90440939726948
 31
0.0
  0
TEXT
  5
1418A
330
1415C
100
AcDbEntity
  8
AM_5
100
AcDbText
 10
87.86924512666073
 20
43.90440939726945
 30
0.0
 40
3.5
  1
146
100
AcDbText
  0
LINE
  5
1418B
330
1415C
100
AcDbEntity
  8
AM_5
 62
     4
370
     9
100
AcDbLine
 10
-0.0000084775915923
 20
-1.499999419002036
 30
0.0
 11
-0.0000084775915923
 21
-8.547305310229461
 31
0.0
  0
LINE
  5
1418C
330
1415C
100
AcDbEntity
  8
AM_5
 62
     4
370
     9
100
AcDbLine
 10
22.49999156049623
 20
-1.499999419002036
 30
0.0
 11
22.49999156049623
 21
-8.547305310229461
 31
0.0
  0
LINE
  5
1418D
330
1415C
100
AcDbEntity
  8
AM_5
 62
     4
370
     9
100
AcDbLine
 10
1.499991522408407
 20
-7.547305310229461
 30
0.0
 11
20.99999156049623
 21
-7.547305310229461
 31
0.0
  0
LINE
  5
1418E
330
1415C
100
AcDbEntity
  8
0
  6
ByBlock
 62
     0
370
    -2
100
AcDbLine
 10
1.499991522408407
 20
-7.797305310229461
 30
0.0
 11
-0.0000084775915923
 21
-7.547305310229461
 31
0.0
  0
LINE
  5
1418F
330
1415C
100
AcDbEntity
  8
0
  6
ByBlock
 62
     0
370
    -2
100
AcDbLine
 10
1.499991522408407
 20
-7.297305310229461
 30
0.0
 11
-0.0000084775915923
 21
-7.547305310229461
 31
0.0
  0
LINE
  5
14190
330
1415C
100
AcDbEntity
  8
0
  6
ByBlock
 62
     0
370
    -2
100
AcDbLine
 10
-0.0000084775915923
 20
-7.547305310229461
 30
0.0
 11
1.499991522408407
 21
-7.547305310229461
 31
0.0
  0
LINE
  5
14191
330
1415C
100
AcDbEntity
  8
0
  6
ByBlock
 62
     0
370
    -2
100
AcDbLine
 10
20.99999156049623
 20
-7.297305310229461
 30
0.0
 11
22.49999156049623
 21
-7.547305310229461
 31
0.0
  0
LINE
  5
14192
330
1415C
100
AcDbEntity
  8
0
  6
ByBlock
 62
     0
370
    -2
100
AcDbLine
 10
20.99999156049623
 20
-7.797305310229461
 30
0.0
 11
22.49999156049623
 21
-7.547305310229461
 31
0.0
  0
LINE
  5
14193
330
1415C
100
AcDbEntity
  8
0
  6
ByBlock
 62
     0
370
    -2
100
AcDbLine
 10
22.49999156049623
 20
-7.547305310229461
 30
0.0
 11
20.99999156049623
 21
-7.547305310229461
 31
0.0
  0
TEXT
  5
14194
330
1415C
100
AcDbEntity
  8
AM_5
100
AcDbText
 10
6.83332487478563
 20
-6.547305310229461
 30
0.0
 40
3.5
  1
\U+220590
100
AcDbText
  0
TEXT
  5
14195
330
1415C
100
AcDbEntity
  8
文字
100
AcDbText
 10
126.4447434532578
 20
-19.54566071803674
 30
0.0
 40
3.5
  1
A
 50
359.999965742624
100
AcDbText
  0
LINE
  5
14196
330
1415C
100
AcDbEntity
  8
仮想線
  6
HIDDEN
 48
0.2
100
AcDbLine
 10
125.0709710517364
 20
-15.088554734056
 30
0.0
 11
117.9789542200996
 21
-9.298271481758659
 31
0.0
  0
LINE
  5
14197
330
1415C
100
AcDbEntity
  8
仮想線
  6
HIDDEN
 48
0.2
100
AcDbLine
 10
125.7780778329228
 20
-20.79566151524233
 30
0.0
 11
129.7780778329229
 21
-20.79566151524223
 31
0.0
1001
GENIUS_GENREC_14
1002
{
1000
PYDIR
1011
124.7780778329229
1021
-14.79566151524245
1031
0.0
1002
}
1002
{
1000
PXDIR
1011
130.7780778329227
1021
-20.79566151524233
1031
0.0
1002
}
1002
{
1000
PORI
1011
124.7780778329229
1021
-20.79566151524233
1031
0.0
1002
}
1002
{
1000
PINS
1011
124.7780778329229
1021
-20.79566151524233
1031
0.0
1002
}
1002
{
1000
HVAL
1000
30
1002
}
1002
{
1000
H
1070
     2
1002
}
1002
{
1000
WVAL
1000
30
1002
}
1002
{
1000
W
1070
     2
1002
}
1002
{
1000
C
1070
     1
1002
}
1001
GENIUS_GENOBJ-N-REC_13
1002
{
1000
OWNER
1000
GEN
1002
}
1001
GENIUS_GENODEF_13
1002
{
1000
HIER
1070
     0
1002
}
1002
{
1000
MANEDIT
1070
     0
1002
}
1002
{
1000
NOSEL
1070
     0
1002
}
1002
{
1000
BEHIND
1070
     0
1002
}
1002
{
1000
OTHER
1070
     0
1002
}
1002
{
1000
REACTOR
1002
}
  0
ARC
  5
14198
330
1415C
100
AcDbEntity
  8
仮想線
  6
HIDDEN
 48
0.2
100
AcDbCircle
 10
129.7780778329229
 20
-19.79566151524227
 30
0.0
 40
0.9999999999999571
100
AcDbArc
 50
270.0
 51
0.0
1001
GENIUS_GENREC_14
1002
{
1000
PYDIR
1011
124.7780778329229
1021
-14.79566151524245
1031
0.0
1002
}
1002
{
1000
PXDIR
1011
130.7780778329227
1021
-20.79566151524233
1031
0.0
1002
}
1002
{
1000
PORI
1011
124.7780778329229
1021
-20.79566151524233
1031
0.0
1002
}
1002
{
1000
PINS
1011
124.7780778329229
1021
-20.79566151524233
1031
0.0
1002
}
1002
{
1000
HVAL
1000
30
1002
}
1002
{
1000
H
1070
     2
1002
}
1002
{
1000
WVAL
1000
30
1002
}
1002
{
1000
W
1070
     2
1002
}
1002
{
1000
C
1070
     1
1002
}
1001
GENIUS_GENOBJ-N-REC_13
1002
{
1000
OWNER
1000
GEN
1002
}
1001
GENIUS_GENODEF_13
1002
{
1000
HIER
1070
     0
1002
}
1002
{
1000
MANEDIT
1070
     0
1002
}
1002
{
1000
NOSEL
1070
     0
1002
}
1002
{
1000
BEHIND
1070
     0
1002
}
1002
{
1000
OTHER
1070
     0
1002
}
1002
{
1000
REACTOR
1002
}
  0
LINE
  5
14199
330
1415C
100
AcDbEntity
  8
仮想線
  6
HIDDEN
 48
0.2
100
AcDbLine
 10
130.7780778329229
 20
-19.79566151524226
 30
0.0
 11
130.7780778329227
 21
-15.79566151524234
 31
0.0
1001
GENIUS_GENREC_14
1002
{
1000
PYDIR
1011
124.7780778329229
1021
-14.79566151524245
1031
0.0
1002
}
1002
{
1000
PXDIR
1011
130.7780778329227
1021
-20.79566151524233
1031
0.0
1002
}
1002
{
1000
PORI
1011
124.7780778329229
1021
-20.79566151524233
1031
0.0
1002
}
1002
{
1000
PINS
1011
124.7780778329229
1021
-20.79566151524233
1031
0.0
1002
}
1002
{
1000
HVAL
1000
30
1002
}
1002
{
1000
H
1070
     2
1002
}
1002
{
1000
WVAL
1000
30
1002
}
1002
{
1000
W
1070
     2
1002
}
1002
{
1000
C
1070
     1
1002
}
1001
GENIUS_GENOBJ-N-REC_13
1002
{
1000
OWNER
1000
GEN
1002
}
1001
GENIUS_GENODEF_13
1002
{
1000
HIER
1070
     0
1002
}
1002
{
1000
MANEDIT
1070
     0
1002
}
1002
{
1000
NOSEL
1070
     0
1002
}
1002
{
1000
BEHIND
1070
     0
1002
}
1002
{
1000
OTHER
1070
     0
1002
}
1002
{
1000
REACTOR
1002
}
  0
ARC
  5
1419A
330
1415C
100
AcDbEntity
  8
仮想線
  6
HIDDEN
 48
0.2
100
AcDbCircle
 10
129.7780778329228
 20
-15.79566151524236
 30
0.0
 40
1.0
100
AcDbArc
 50
0.0
 51
90.0
1001
GENIUS_GENREC_14
1002
{
1000
PYDIR
1011
124.7780778329229
1021
-14.79566151524245
1031
0.0
1002
}
1002
{
1000
PXDIR
1011
130.7780778329227
1021
-20.79566151524233
1031
0.0
1002
}
1002
{
1000
PORI
1011
124.7780778329229
1021
-20.79566151524233
1031
0.0
1002
}
1002
{
1000
PINS
1011
124.7780778329229
1021
-20.79566151524233
1031
0.0
1002
}
1002
{
1000
HVAL
1000
30
1002
}
1002
{
1000
H
1070
     2
1002
}
1002
{
1000
WVAL
1000
30
1002
}
1002
{
1000
W
1070
     2
1002
}
1002
{
1000
C
1070
     1
1002
}
1001
GENIUS_GENOBJ-N-REC_13
1002
{
1000
OWNER
1000
GEN
1002
}
1001
GENIUS_GENODEF_13
1002
{
1000
HIER
1070
     0
1002
}
1002
{
1000
MANEDIT
1070
     0
1002
}
1002
{
1000
NOSEL
1070
     0
1002
}
1002
{
1000
BEHIND
1070
     0
1002
}
1002
{
1000
OTHER
1070
     0
1002
}
1002
{
1000
REACTOR
1002
}
  0
LINE
  5
1419B
330
1415C
100
AcDbEntity
  8
仮想線
  6
HIDDEN
 48
0.2
100
AcDbLine
 10
129.7780778329228
 20
-14.79566151524236
 30
0.0
 11
125.7780778329229
 21
-14.79566151524254
 31
0.0
1001
GENIUS_GENREC_14
1002
{
1000
PYDIR
1011
124.7780778329229
1021
-14.79566151524245
1031
0.0
1002
}
1002
{
1000
PXDIR
1011
130.7780778329227
1021
-20.79566151524233
1031
0.0
1002
}
1002
{
1000
PORI
1011
124.7780778329229
1021
-20.79566151524233
1031
0.0
1002
}
1002
{
1000
PINS
1011
124.7780778329229
1021
-20.79566151524233
1031
0.0
1002
}
1002
{
1000
HVAL
1000
30
1002
}
1002
{
1000
H
1070
     2
1002
}
1002
{
1000
WVAL
1000
30
1002
}
1002
{
1000
W
1070
     2
1002
}
1002
{
1000
C
1070
     1
1002
}
1001
GENIUS_GENOBJ-N-REC_13
1002
{
1000
OWNER
1000
GEN
1002
}
1001
GENIUS_GENODEF_13
1002
{
1000
HIER
1070
     0
1002
}
1002
{
1000
MANEDIT
1070
     0
1002
}
1002
{
1000
NOSEL
1070
     0
1002
}
1002
{
1000
BEHIND
1070
     0
1002
}
1002
{
1000
OTHER
1070
     0
1002
}
1002
{
1000
REACTOR
1002
}
  0
ARC
  5
1419C
330
1415C
100
AcDbEntity
  8
仮想線
  6
HIDDEN
 48
0.2
100
AcDbCircle
 10
125.7780778329229
 20
-15.79566151524253
 30
0.0
 40
0.9999999999999927
100
AcDbArc
 50
90.0
 51
179.9999999999984
1001
GENIUS_GENREC_14
1002
{
1000
PYDIR
1011
124.7780778329229
1021
-14.79566151524245
1031
0.0
1002
}
1002
{
1000
PXDIR
1011
130.7780778329227
1021
-20.79566151524233
1031
0.0
1002
}
1002
{
1000
PORI
1011
124.7780778329229
1021
-20.79566151524233
1031
0.0
1002
}
1002
{
1000
PINS
1011
124.7780778329229
1021
-20.79566151524233
1031
0.0
1002
}
1002
{
1000
HVAL
1000
30
1002
}
1002
{
1000
H
1070
     2
1002
}
1002
{
1000
WVAL
1000
30
1002
}
1002
{
1000
W
1070
     2
1002
}
1002
{
1000
C
1070
     1
1002
}
1001
GENIUS_GENOBJ-N-REC_13
1002
{
1000
OWNER
1000
GEN
1002
}
1001
GENIUS_GENODEF_13
1002
{
1000
HIER
1070
     0
1002
}
1002
{
1000
MANEDIT
1070
     0
1002
}
1002
{
1000
NOSEL
1070
     0
1002
}
1002
{
1000
BEHIND
1070
     0
1002
}
1002
{
1000
OTHER
1070
     0
1002
}
1002
{
1000
REACTOR
1002
}
  0
LINE
  5
1419D
330
1415C
100
AcDbEntity
  8
仮想線
  6
HIDDEN
 48
0.2
100
AcDbLine
 10
124.7780778329229
 20
-15.7956615152425
 30
0.0
 11
124.7780778329228
 21
-19.79566151524234
 31
0.0
1001
GENIUS_GENREC_14
1002
{
1000
PYDIR
1011
124.7780778329229
1021
-14.79566151524245
1031
0.0
1002
}
1002
{
1000
PXDIR
1011
130.7780778329227
1021
-20.79566151524233
1031
0.0
1002
}
1002
{
1000
PORI
1011
124.7780778329229
1021
-20.79566151524233
1031
0.0
1002
}
1002
{
1000
PINS
1011
124.7780778329229
1021
-20.79566151524233
1031
0.0
1002
}
1002
{
1000
HVAL
1000
30
1002
}
1002
{
1000
H
1070
     2
1002
}
1002
{
1000
WVAL
1000
30
1002
}
1002
{
1000
W
1070
     2
1002
}
1002
{
1000
C
1070
     1
1002
}
1001
GENIUS_GENOBJ-N-REC_13
1002
{
1000
OWNER
1000
GEN
1002
}
1001
GENIUS_GENODEF_13
1002
{
1000
HIER
1070
     0
1002
}
1002
{
1000
MANEDIT
1070
     0
1002
}
1002
{
1000
NOSEL
1070
     0
1002
}
1002
{
1000
BEHIND
1070
     0
1002
}
1002
{
1000
OTHER
1070
     0
1002
}
1002
{
1000
REACTOR
1002
}
  0
ARC
  5
1419E
330
1415C
100
AcDbEntity
  8
仮想線
  6
HIDDEN
 48
0.2
100
AcDbCircle
 10
125.7780778329228
 20
-19.79566151524234
 30
0.0
 40
0.9999999999999715
100
AcDbArc
 50
180.0
 51
270.0
1001
GENIUS_GENREC_14
1002
{
1000
PYDIR
1011
124.7780778329229
1021
-14.79566151524245
1031
0.0
1002
}
1002
{
1000
PXDIR
1011
130.7780778329227
1021
-20.79566151524233
1031
0.0
1002
}
1002
{
1000
PORI
1011
124.7780778329229
1021
-20.79566151524233
1031
0.0
1002
}
1002
{
1000
PINS
1011
124.7780778329229
1021
-20.79566151524233
1031
0.0
1002
}
1002
{
1000
HVAL
1000
30
1002
}
1002
{
1000
H
1070
     2
1002
}
1002
{
1000
WVAL
1000
30
1002
}
1002
{
1000
W
1070
     2
1002
}
1002
{
1000
C
1070
     1
1002
}
1001
GENIUS_GENOBJ-N-REC_13
1002
{
1000
OWNER
1000
GEN
1002
}
1001
GENIUS_GENODEF_13
1002
{
1000
HIER
1070
     0
1002
}
1002
{
1000
MANEDIT
1070
     0
1002
}
1002
{
1000
NOSEL
1070
     0
1002
}
1002
{
1000
BEHIND
1070
     0
1002
}
1002
{
1000
OTHER
1070
     0
1002
}
1002
{
1000
REACTOR
1002
}
  0
LINE
  5
1419F
330
1415C
100
AcDbEntity
  8
AM_5
 62
     4
370
     9
100
AcDbLine
 10
23.9999915604962
 20
0.0000005809979626
 30
0.0
 11
31.62499142616119
 21
0.0000005809979626
 31
0.0
  0
LINE
  5
141A0
330
1415C
100
AcDbEntity
  8
AM_5
 62
     4
370
     9
100
AcDbLine
 10
13.78853981871418
 20
104.5500007579772
 30
0.0
 11
31.62499142616119
 21
104.5500007579772
 31
0.0
  0
LINE
  5
141A1
330
1415C
100
AcDbEntity
  8
AM_5
 62
     4
370
     9
100
AcDbLine
 10
30.62499142616119
 20
1.500000580997961
 30
0.0
 11
30.62499142616119
 21
103.0500007579772
 31
0.0
  0
LINE
  5
141A2
330
1415C
100
AcDbEntity
  8
0
  6
ByBlock
 62
     0
370
    -2
100
AcDbLine
 10
30.87499142616119
 20
1.500000580997961
 30
0.0
 11
30.62499142616119
 21
0.0000005809979626
 31
0.0
  0
LINE
  5
141A3
330
1415C
100
AcDbEntity
  8
0
  6
ByBlock
 62
     0
370
    -2
100
AcDbLine
 10
30.37499142616119
 20
1.500000580997961
 30
0.0
 11
30.62499142616119
 21
0.0000005809979626
 31
0.0
  0
LINE
  5
141A4
330
1415C
100
AcDbEntity
  8
0
  6
ByBlock
 62
     0
370
    -2
100
AcDbLine
 10
30.62499142616119
 20
0.0000005809979626
 30
0.0
 11
30.62499142616119
 21
1.500000580997961
 31
0.0
  0
LINE
  5
141A5
330
1415C
100
AcDbEntity
  8
0
  6
ByBlock
 62
     0
370
    -2
100
AcDbLine
 10
30.37499142616119
 20
103.0500007579772
 30
0.0
 11
30.62499142616119
 21
104.5500007579772
 31
0.0
  0
LINE
  5
141A6
330
1415C
100
AcDbEntity
  8
0
  6
ByBlock
 62
     0
370
    -2
100
AcDbLine
 10
30.87499142616119
 20
103.0500007579772
 30
0.0
 11
30.62499142616119
 21
104.5500007579772
 31
0.0
  0
LINE
  5
141A7
330
1415C
100
AcDbEntity
  8
0
  6
ByBlock
 62
     0
370
    -2
100
AcDbLine
 10
30.62499142616119
 20
104.5500007579772
 30
0.0
 11
30.62499142616119
 21
103.0500007579772
 31
0.0
  0
TEXT
  5
141A8
330
1415C
100
AcDbEntity
  8
AM_5
100
AcDbText
 10
28.4583247594945
 20
29.05833400282093
 30
0.0
 40
3.5
  1
418(標準ノズル使用時)
 50
90.0
100
AcDbText
  0
TEXT
  5
141A9
330
1415C
100
AcDbEntity
  8
図面枠
100
AcDbText
 10
84.51714649353625
 20
-68.98170788515646
 30
0.0
 40
2.5
  1
　・クランプ台取り付け：可
 41
0.9
100
AcDbText
  0
TEXT
  5
141AA
330
1415C
100
AcDbEntity
  8
図面枠
100
AcDbText
 10
118.6100036363934
 20
-54.52337455182316
 30
0.0
 40
3.0
  1
\U+220537
 41
0.9
  7
承認
100
AcDbText
  0
TEXT
  5
141AB
330
1415C
100
AcDbEntity
  8
図面枠
100
AcDbText
 10
120.7571464935362
 20
-59.64837455182328
 30
0.0
 40
3.0
  1
可
 41
0.9
  7
承認
100
AcDbText
  0
TEXT
  5
141AC
330
1415C
100
AcDbEntity
  8
図面枠
100
AcDbText
 10
107.8485750649648
 20
-49.0233745518231
 30
0.0
 40
3.0
  1
2.4kg（標準仕様）
 41
0.9
  7
承認
100
AcDbText
  0
TEXT
  5
141AD
330
1415C
100
AcDbEntity
  8
文字
100
AcDbText
 10
65.59571792210768
 20
-32.02337455182319
 30
0.0
 40
3.0
  1
B-8
 41
0.9
  7
承認
100
AcDbText
  0
LINE
  5
141AE
330
1415C
100
AcDbEntity
  8
図面枠
100
AcDbLine
 10
54.51714649353627
 20
-25.523374551823
 30
0.0
 11
159.5171464935361
 21
-25.52337455182295
 31
0.0
  0
TEXT
  5
141AF
330
1415C
100
AcDbEntity
  8
図面枠
100
AcDbText
 10
63.39714649353627
 20
-42.02337455182332
 30
0.0
 40
3.0
  1
外形寸法
 41
0.9
  7
承認
100
AcDbText
  0
LINE
  5
141B0
330
1415C
100
AcDbEntity
  8
図面枠
100
AcDbLine
 10
54.51714649353627
 20
-50.52337455182332
 30
0.0
 11
159.5171464935363
 21
-50.52337455182311
 31
0.0
  0
TEXT
  5
141B1
330
1415C
100
AcDbEntity
  8
図面枠
100
AcDbText
 10
61.77714649353632
 20
-54.52337455182332
 30
0.0
 40
3.0
  1
穴あけ寸法
 41
0.9
  7
承認
100
AcDbText
  0
LINE
  5
141B2
330
1415C
100
AcDbEntity
  8
図面枠
100
AcDbLine
 10
84.51714649353633
 20
-25.52337455182299
 30
0.0
 11
84.51714649353622
 21
-75.52337455182298
 31
0.0
  0
TEXT
  5
141B3
330
1415C
100
AcDbEntity
  8
図面枠
100
AcDbText
 10
63.74428935067911
 20
-59.64837455182331
 30
0.0
 40
3.0
  1
MC加工
 41
0.9
  7
承認
100
AcDbText
  0
LINE
  5
141B4
330
1415C
100
AcDbEntity
  8
図面枠
100
AcDbLine
 10
54.51714649353633
 20
-45.52337455182332
 30
0.0
 11
159.5171464935363
 21
-45.5233745518231
 31
0.0
  0
LINE
  5
141B5
330
1415C
100
AcDbEntity
  8
図面枠
100
AcDbLine
 10
159.5171464935361
 20
-35.52337455182339
 30
0.0
 11
54.51714649353627
 21
-35.52337455182335
 31
0.0
  0
TEXT
  5
141B6
330
1415C
100
AcDbEntity
  8
図面枠
100
AcDbText
 10
66.63714649353628
 20
-49.52337455182325
 30
0.0
 40
3.0
  1
重量
 41
0.9
  7
承認
100
AcDbText
  0
LINE
  5
141B7
330
1415C
100
AcDbEntity
  8
図面枠
100
AcDbLine
 10
54.51714649353627
 20
-55.52337455182332
 30
0.0
 11
159.5171464935361
 21
-55.52337455182311
 31
0.0
  0
LINE
  5
141B8
330
1415C
100
AcDbEntity
  8
図面枠
100
AcDbLine
 10
54.51714649353627
 20
-60.77337455182332
 30
0.0
 11
159.5171464935361
 21
-60.7733745518231
 31
0.0
  0
TEXT
  5
141B9
330
1415C
100
AcDbEntity
  8
図面枠
100
AcDbText
 10
66.63714649353628
 20
-69.64837455182312
 30
0.0
 40
3.0
  1
備考
 41
0.9
  7
承認
100
AcDbText
  0
LINE
  5
141BA
330
1415C
100
AcDbEntity
  8
図面枠
100
AcDbLine
 10
54.51714649353627
 20
-25.523374551823
 30
0.0
 11
54.51714649353627
 21
-75.52337455182321
 31
0.0
  0
TEXT
  5
141BB
330
1415C
100
AcDbEntity
  8
図面枠
100
AcDbText
 10
-35.80285350646376
 20
-71.67337460850268
 30
0.0
 40
3.0
  1
%%U※改良の為、予告なく仕様・デザインを変更することがあります。ご了承ください。
 41
0.6
100
AcDbText
  0
TEXT
  5
141BC
330
1415C
100
AcDbEntity
  8
図面枠
100
AcDbText
 10
-35.80285350646376
 20
-65.67337460850271
 30
0.0
 40
3.0
  1
%%U※固定部分は十分な強度が必要です。
 41
0.6
100
AcDbText
  0
TEXT
  5
141BD
330
1415C
100
AcDbEntity
  8
図面枠
100
AcDbText
 10
86.77794137785472
 20
-31.80908883753734
 30
0.0
 40
3.0
  1
A4  尺度 1/ 4
 41
0.6
  7
0.9横
100
AcDbText
  0
LINE
  5
141BE
330
1415C
100
AcDbEntity
  8
図面枠
100
AcDbLine
 10
126.8215934050302
 20
-35.52337455182337
 30
0.0
 11
126.8215934050302
 21
-25.52337455182336
 31
0.0
  0
LINE
  5
141BF
330
1415C
100
AcDbEntity
  8
図面枠
100
AcDbLine
 10
105.8215934050302
 20
-35.52337455182337
 30
0.0
 11
105.8215934050302
 21
-25.52337455182336
 31
0.0
  0
TEXT
  5
141C0
330
1415C
100
AcDbEntity
  8
図面枠
100
AcDbText
 10
108.0073076907445
 20
-31.80908883753745
 30
0.0
 40
3.0
  1
2014/01/10
 41
0.6
  7
0.9横
100
AcDbText
  0
HATCH
  5
141C1
330
1415C
100
AcDbEntity
  8
0
 62
   172
100
AcDbHatch
 10
0.0
 20
0.0
 30
0.0
210
0.0
220
0.0
230
1.0
  2
SOLID
 70
     1
 71
     0
 91
        1
 92
        1
 93
        4
 72
     1
 10
132.4290846448327
 20
-30.58680275516599
 11
133.972269521638
 21
-33.05641479821158
 72
     1
 10
133.972269521638
 20
-33.05641479821145
 11
136.9866392752486
 21
-28.23241479821138
 72
     1
 10
136.9866392752486
 20
-28.23241479821161
 11
133.900269521638
 21
-28.23241479821161
 72
     1
 10
133.900269521638
 20
-28.23241479821161
 11
132.4290846448327
 21
-30.58680275516611
 97
        0
 75
     0
 76
     1
 98
        1
 10
113.4875286326052
 20
-49.38990637976028
1001
ACAD
1010
0.0
1020
0.0
1030
0.0
1001
GENIUS_GENOBJ-N-HTC_13
1002
{
1000
OWNER
1000
GEN
1002
}
1001
GENIUS_GENODEF_13
1002
{
1000
HIER
1070
     0
1002
}
1002
{
1000
MANEDIT
1070
     0
1002
}
1002
{
1000
NOSEL
1070
     0
1002
}
1002
{
1000
BEHIND
1070
     0
1002
}
1002
{
1000
OTHER
1070
     0
1002
}
1002
{
1000
REACTOR
1002
}
1001
GENIUS_GENHATCH_13
1002
{
1000
DATA
1040
45.0
1042
1.900000000000003
1000
_U
1070
     0
1011
135.1291558481459
1021
-29.11303334714944
1031
0.0
1002
}
1002
{
1000
UCS
1010
0.0
1020
0.0
1030
0.0
1010
1.0
1020
0.0
1030
0.0
1010
0.0
1020
1.0
1030
0.0
1002
}
  0
TEXT
  5
141C2
330
1415C
100
AcDbEntity
  8
0
 62
   172
100
AcDbText
 10
137.1349836236977
 20
-30.57071614422024
 30
0.0
 40
1.511999999999999
  1
株式
100
AcDbText
  0
TEXT
  5
141C3
330
1415C
100
AcDbEntity
  8
0
 62
   172
100
AcDbText
 10
137.1082563509704
 20
-32.58289796240202
 30
0.0
 40
1.511999999999999
  1
会社
100
AcDbText
  0
HATCH
  5
141C4
330
1415C
100
AcDbEntity
  8
0
 62
   172
100
AcDbHatch
 10
0.0
 20
0.0
 30
0.0
210
0.0
220
0.0
230
1.0
  2
SOLID
 70
     1
 71
     0
 91
        3
 92
        1
 93
       10
 72
     2
 10
154.407469521638
 20
-29.46361479821144
 40
0.4319999999999919
 50
359.9999999999994
 51
450.0000000000008
 73
     0
 72
     1
 10
154.407469521638
 20
-29.89561479821168
 11
154.1482695216379
 21
-29.89561479821168
 72
     1
 10
154.1482695216379
 20
-29.89561479821168
 11
154.1482695216379
 21
-31.47241479821174
 72
     1
 10
154.1482695216379
 20
-31.4724147982115
 11
154.709869521638
 21
-31.4724147982115
 72
     1
 10
154.7098695216379
 20
-31.4724147982115
 11
154.7098695216379
 21
-32.76841479821155
 72
     1
 10
154.7098695216379
 20
-32.76841479821167
 11
157.2802695216379
 21
-32.76841479821167
 72
     2
 10
157.2155941238474
 20
-31.44373940042101
 40
1.326253300312942
 50
272.7951656096049
 51
357.2048343903955
 73
     1
 72
     1
 10
158.5402695216379
 20
-31.50841479821156
 11
158.5402695216379
 21
-28.91641479821158
 72
     1
 10
158.5402695216379
 20
-28.91641479821146
 11
154.839469521638
 21
-28.91641479821146
 72
     1
 10
154.839469521638
 20
-28.91641479821146
 11
154.839469521638
 21
-29.46361479821145
 97
        0
 92
       16
 93
        5
 72
     2
 10
156.632269521638
 20
-30.75241479821159
 40
0.3960000000000001
 50
0.0000000000006107
 51
90.0
 73
     0
 72
     1
 10
156.632269521638
 20
-31.14841479821155
 11
155.494669521638
 21
-31.14841479821155
 72
     2
 10
154.9790195263972
 20
-30.10125280220928
 40
1.167237406641532
 50
296.2168428093594
 51
343.7226386468612
 73
     1
 72
     1
 10
156.099469521638
 20
-30.42841479821163
 11
157.028269521638
 21
-30.42841479821163
 72
     1
 10
157.0282695216379
 20
-30.42841479821163
 11
157.0282695216379
 21
-30.7524147982117
 97
        0
 92
       16
 93
       14
 72
     2
 10
157.208269521638
 20
-31.43641479821145
 40
0.9719999999999997
 50
360.0
 51
450.0
 73
     0
 72
     1
 10
157.208269521638
 20
-32.40841479821165
 11
155.069869521638
 21
-32.40841479821165
 72
     1
 10
155.0698695216379
 20
-32.40841479821165
 11
155.0698695216379
 21
-31.50841479821167
 72
     1
 10
155.0698695216379
 20
-31.50841479821156
 11
156.7762695216378
 21
-31.50841479821156
 72
     2
 10
156.776269521638
 20
-30.89641479821148
 40
0.6120000000000021
 50
270.0
 51
359.9999999999998
 73
     1
 72
     1
 10
157.3882695216379
 20
-30.89641479821148
 11
157.3882695216379
 21
-30.06841479821151
 72
     1
 10
157.3882695216379
 20
-30.06841479821162
 11
155.876269521638
 21
-30.06841479821162
 72
     2
 10
154.648029438036
 20
-29.78036669788912
 40
1.26156466780984
 50
13.19854039234393
 51
87.19031742312592
 73
     0
 72
     1
 10
154.7098695216379
 20
-31.04041479821161
 11
154.5082695216379
 21
-31.04041479821161
 72
     1
 10
154.5082695216379
 20
-31.04041479821161
 11
154.5082695216379
 21
-30.25561479821158
 72
     2
 10
154.5082695216379
 20
-29.5644147982116
 40
0.6912000000000017
 50
270.0000000000007
 51
359.9999999999998
 73
     1
 72
     1
 10
155.1994695216379
 20
-29.5644147982116
 11
155.1994695216379
 21
-29.27641479821159
 72
     1
 10
155.1994695216379
 20
-29.27641479821159
 11
158.1802695216379
 21
-29.27641479821159
 72
     1
 10
158.180269521638
 20
-29.27641479821159
 11
158.180269521638
 21
-31.43641479821167
 97
        0
 75
     0
 76
     1
 98
        1
 10
113.6475286326052
 20
-42.18990637976037
1001
ACAD
1010
0.0
1020
0.0
1030
0.0
1001
GENIUS_GENOBJ-N-HTC_13
1002
{
1000
OWNER
1000
GEN
1002
}
1001
GENIUS_GENODEF_13
1002
{
1000
HIER
1070
     0
1002
}
1002
{
1000
MANEDIT
1070
     0
1002
}
1002
{
1000
NOSEL
1070
     0
1002
}
1002
{
1000
BEHIND
1070
     0
1002
}
1002
{
1000
OTHER
1070
     0
1002
}
1002
{
1000
REACTOR
1002
}
1001
GENIUS_GENHATCH_13
1002
{
1000
DATA
1040
45.0
1042
1.900000000000003
1000
_U
1070
     0
1011
157.3931425595658
1021
-29.16958578900358
1031
0.0
1002
}
1002
{
1000
UCS
1010
0.0
1020
0.0
1030
0.0
1010
1.0
1020
0.0
1030
0.0
1010
0.0
1020
1.0
1030
0.0
1002
}
  0
HATCH
  5
141C5
330
1415C
100
AcDbEntity
  8
0
 62
   172
100
AcDbHatch
 10
0.0
 20
0.0
 30
0.0
210
0.0
220
0.0
230
1.0
  2
SOLID
 70
     1
 71
     0
 91
        2
 92
        1
 93
        8
 72
     1
 10
151.5562695216379
 20
-28.91641479821146
 11
149.9002695216379
 21
-28.91641479821146
 72
     1
 10
149.900269521638
 20
-28.91641479821146
 11
149.900269521638
 21
-32.76841479821155
 72
     1
 10
149.900269521638
 20
-32.76841479821167
 11
151.556269521638
 21
-32.76841479821167
 72
     1
 10
151.5562695216379
 20
-32.76841479821167
 11
151.5562695216379
 21
-31.47241479821162
 72
     1
 10
151.5562695216379
 20
-31.4724147982115
 11
153.7522695216379
 21
-31.4724147982115
 72
     1
 10
153.752269521638
 20
-31.4724147982115
 11
153.752269521638
 21
-29.8524147982115
 72
     1
 10
153.752269521638
 20
-29.85241479821161
 11
151.556269521638
 21
-29.85241479821161
 72
     1
 10
151.5562695216379
 20
-29.85241479821161
 11
151.5562695216379
 21
-28.9164147982117
 97
        0
 92
       16
 93
        8
 72
     1
 10
153.356269521638
 20
-31.07641479821154
 11
151.160269521638
 21
-31.07641479821154
 72
     1
 10
151.160269521638
 20
-31.07641479821154
 11
151.160269521638
 21
-32.37241479821161
 72
     1
 10
151.160269521638
 20
-32.3724147982116
 11
150.296269521638
 21
-32.3724147982116
 72
     1
 10
150.296269521638
 20
-32.3724147982116
 11
150.296269521638
 21
-29.31241479821153
 72
     1
 10
150.296269521638
 20
-29.31241479821153
 11
151.160269521638
 21
-29.31241479821153
 72
     1
 10
151.160269521638
 20
-29.31241479821153
 11
151.160269521638
 21
-30.24841479821147
 72
     1
 10
151.160269521638
 20
-30.24841479821157
 11
153.356269521638
 21
-30.24841479821157
 72
     1
 10
153.356269521638
 20
-30.24841479821157
 11
153.356269521638
 21
-31.07641479821154
 97
        0
 75
     0
 76
     1
 98
        1
 10
113.6475286326052
 20
-42.18990637976037
1001
ACAD
1010
0.0
1020
0.0
1030
0.0
1001
GENIUS_GENOBJ-N-HTC_13
1002
{
1000
OWNER
1000
GEN
1002
}
1001
GENIUS_GENODEF_13
1002
{
1000
HIER
1070
     0
1002
}
1002
{
1000
MANEDIT
1070
     0
1002
}
1002
{
1000
NOSEL
1070
     0
1002
}
1002
{
1000
BEHIND
1070
     0
1002
}
1002
{
1000
OTHER
1070
     0
1002
}
1002
{
1000
REACTOR
1002
}
1001
GENIUS_GENHATCH_13
1002
{
1000
DATA
1040
45.0
1042
1.900000000000003
1000
_U
1070
     0
1011
153.287502258537
1021
-30.09372974324731
1031
0.0
1002
}
1002
{
1000
UCS
1010
0.0
1020
0.0
1030
0.0
1010
1.0
1020
0.0
1030
0.0
1010
0.0
1020
1.0
1030
0.0
1002
}
  0
HATCH
  5
141C6
330
1415C
100
AcDbEntity
  8
0
 62
   172
100
AcDbHatch
 10
0.0
 20
0.0
 30
0.0
210
0.0
220
0.0
230
1.0
  2
SOLID
 70
     1
 71
     0
 91
        4
 92
        1
 93
        5
 72
     1
 10
146.048269521638
 20
-32.76841479821167
 11
148.424269521638
 21
-32.76841479821167
 72
     2
 10
148.424269521638
 20
-31.61641479821151
 40
1.152
 50
270.0
 51
360.0
 73
     1
 72
     1
 10
149.5762695216379
 20
-31.61641479821151
 11
149.5762695216379
 21
-29.9964147982115
 72
     1
 10
149.5762695216379
 20
-29.9964147982115
 11
146.0482695216379
 21
-29.9964147982115
 72
     1
 10
146.048269521638
 20
-29.9964147982115
 11
146.048269521638
 21
-32.76841479821155
 97
        0
 92
       16
 93
        4
 72
     1
 10
147.0562695216379
 20
-31.11241479821149
 11
146.4802695216379
 21
-31.11241479821149
 72
     1
 10
146.4802695216379
 20
-31.11241479821149
 11
146.4802695216379
 21
-30.39241479821146
 72
     1
 10
146.4802695216379
 20
-30.39241479821157
 11
147.0562695216379
 21
-30.39241479821157
 72
     1
 10
147.0562695216379
 20
-30.39241479821157
 11
147.0562695216379
 21
-31.1124147982116
 97
        0
 92
       16
 93
        4
 72
     1
 10
148.064269521638
 20
-31.11241479821149
 11
147.452269521638
 21
-31.11241479821149
 72
     1
 10
147.452269521638
 20
-31.11241479821149
 11
147.452269521638
 21
-30.39241479821146
 72
     1
 10
147.452269521638
 20
-30.39241479821157
 11
148.064269521638
 21
-30.39241479821157
 72
     1
 10
148.064269521638
 20
-30.39241479821157
 11
148.064269521638
 21
-31.1124147982116
 97
        0
 92
       16
 93
        8
 72
     2
 10
148.2442695216379
 20
-31.43641479821145
 40
0.9
 50
360.0
 51
450.0
 73
     0
 72
     1
 10
148.2442695216379
 20
-32.33641479821154
 11
146.4802695216379
 21
-32.33641479821154
 72
     1
 10
146.4802695216379
 20
-32.33641479821154
 11
146.4802695216379
 21
-31.65241479821157
 72
     1
 10
146.4802695216379
 20
-31.65241479821157
 11
148.0282695216379
 21
-31.65241479821157
 72
     2
 10
148.0282695216381
 20
-31.22041479821155
 40
0.4320000000000002
 50
270.0
 51
360.0
 73
     1
 72
     1
 10
148.460269521638
 20
-31.22041479821155
 11
148.460269521638
 21
-30.39241479821157
 72
     1
 10
148.460269521638
 20
-30.39241479821157
 11
149.1442695216379
 21
-30.39241479821157
 72
     1
 10
149.144269521638
 20
-30.39241479821157
 11
149.144269521638
 21
-31.43641479821167
 97
        0
 75
     0
 76
     1
 98
        1
 10
113.6475286326052
 20
-42.18990637976037
1001
ACAD
1010
0.0
1020
0.0
1030
0.0
1001
GENIUS_GENOBJ-N-HTC_13
1002
{
1000
OWNER
1000
GEN
1002
}
1001
GENIUS_GENODEF_13
1002
{
1000
HIER
1070
     0
1002
}
1002
{
1000
MANEDIT
1070
     0
1002
}
1002
{
1000
NOSEL
1070
     0
1002
}
1002
{
1000
BEHIND
1070
     0
1002
}
1002
{
1000
OTHER
1070
     0
1002
}
1002
{
1000
REACTOR
1002
}
1001
GENIUS_GENHATCH_13
1002
{
1000
DATA
1040
45.0
1042
1.900000000000003
1000
_U
1070
     0
1011
148.5242070319926
1021
-30.25463614705336
1031
0.0
1002
}
1002
{
1000
UCS
1010
0.0
1020
0.0
1030
0.0
1010
1.0
1020
0.0
1030
0.0
1010
0.0
1020
1.0
1030
0.0
1002
}
  0
HATCH
  5
141C7
330
1415C
100
AcDbEntity
  8
0
 62
   172
100
AcDbHatch
 10
0.0
 20
0.0
 30
0.0
210
0.0
220
0.0
230
1.0
  2
SOLID
 70
     1
 71
     0
 91
        2
 92
        1
 93
        4
 72
     1
 10
141.656269521638
 20
-30.50041479821152
 11
145.256269521638
 21
-30.50041479821152
 72
     1
 10
145.256269521638
 20
-30.50041479821152
 11
145.256269521638
 21
-28.91641479821146
 72
     1
 10
145.256269521638
 20
-28.91641479821146
 11
141.656269521638
 21
-28.91641479821146
 72
     1
 10
141.656269521638
 20
-28.91641479821146
 11
141.656269521638
 21
-30.50041479821152
 97
        0
 92
       16
 93
        4
 72
     1
 10
144.824269521638
 20
-30.06841479821162
 11
142.088269521638
 21
-30.06841479821162
 72
     1
 10
142.088269521638
 20
-30.06841479821162
 11
142.088269521638
 21
-29.34841479821159
 72
     1
 10
142.088269521638
 20
-29.34841479821159
 11
144.824269521638
 21
-29.34841479821159
 72
     1
 10
144.824269521638
 20
-29.34841479821159
 11
144.824269521638
 21
-30.06841479821163
 97
        0
 75
     0
 76
     1
 98
        1
 10
113.6475286326052
 20
-42.18990637976037
1001
ACAD
1010
0.0
1020
0.0
1030
0.0
1001
GENIUS_GENOBJ-N-HTC_13
1002
{
1000
OWNER
1000
GEN
1002
}
1001
GENIUS_GENODEF_13
1002
{
1000
HIER
1070
     0
1002
}
1002
{
1000
MANEDIT
1070
     0
1002
}
1002
{
1000
NOSEL
1070
     0
1002
}
1002
{
1000
BEHIND
1070
     0
1002
}
1002
{
1000
OTHER
1070
     0
1002
}
1002
{
1000
REACTOR
1002
}
1001
GENIUS_GENHATCH_13
1002
{
1000
DATA
1040
45.0
1042
1.900000000000003
1000
_U
1070
     0
1011
144.9610539625123
1021
-29.17030738419908
1031
0.0
1002
}
1002
{
1000
UCS
1010
0.0
1020
0.0
1030
0.0
1010
1.0
1020
0.0
1030
0.0
1010
0.0
1020
1.0
1030
0.0
1002
}
  0
HATCH
  5
141C8
330
1415C
100
AcDbEntity
  8
0
 62
   172
100
AcDbHatch
 10
0.0
 20
0.0
 30
0.0
210
0.0
220
0.0
230
1.0
  2
SOLID
 70
     1
 71
     0
 91
        2
 92
        1
 93
        4
 72
     1
 10
141.224269521638
 20
-32.76841479821167
 11
145.6882695216379
 21
-32.76841479821167
 72
     1
 10
145.688269521638
 20
-32.76841479821167
 11
145.688269521638
 21
-31.07641479821166
 72
     1
 10
145.688269521638
 20
-31.07641479821154
 11
141.224269521638
 21
-31.07641479821154
 72
     1
 10
141.224269521638
 20
-31.07641479821154
 11
141.224269521638
 21
-32.76841479821155
 97
        0
 92
       16
 93
        4
 72
     1
 10
145.256269521638
 20
-32.33641479821154
 11
141.656269521638
 21
-32.33641479821154
 72
     1
 10
141.656269521638
 20
-32.33641479821154
 11
141.656269521638
 21
-31.50841479821156
 72
     1
 10
141.656269521638
 20
-31.50841479821156
 11
145.256269521638
 21
-31.50841479821156
 72
     1
 10
145.256269521638
 20
-31.50841479821156
 11
145.256269521638
 21
-32.33641479821154
 97
        0
 75
     0
 76
     1
 98
        1
 10
113.6475286326052
 20
-42.18990637976037
1001
ACAD
1010
0.0
1020
0.0
1030
0.0
1001
GENIUS_GENOBJ-N-HTC_13
1002
{
1000
OWNER
1000
GEN
1002
}
1001
GENIUS_GENODEF_13
1002
{
1000
HIER
1070
     0
1002
}
1002
{
1000
MANEDIT
1070
     0
1002
}
1002
{
1000
NOSEL
1070
     0
1002
}
1002
{
1000
BEHIND
1070
     0
1002
}
1002
{
1000
OTHER
1070
     0
1002
}
1002
{
1000
REACTOR
1002
}
1001
GENIUS_GENHATCH_13
1002
{
1000
DATA
1040
45.0
1042
1.900000000000003
1000
_U
1070
     0
1011
145.3432606132481
1021
-31.16645811017804
1031
0.0
1002
}
1002
{
1000
UCS
1010
0.0
1020
0.0
1030
0.0
1010
1.0
1020
0.0
1030
0.0
1010
0.0
1020
1.0
1030
0.0
1002
}
  0
HATCH
  5
141C9
330
1415C
100
AcDbEntity
  8
0
 62
   172
100
AcDbHatch
 10
0.0
 20
0.0
 30
0.0
210
0.0
220
0.0
230
1.0
  2
SOLID
 70
     1
 71
     0
 91
        1
 92
        1
 93
        3
 72
     1
 10
127.844269521638
 20
-33.05641479821145
 11
133.7842695216379
 21
-33.05641479821145
 72
     1
 10
133.7842695216379
 20
-33.05641479821145
 11
130.796269521638
 21
-28.27461522543672
 72
     1
 10
130.796269521638
 20
-28.27461522543682
 11
127.844269521638
 21
-33.05641479821157
 97
        0
 75
     0
 76
     1
 98
        1
 10
113.3715286326053
 20
-42.18990637976037
1001
ACAD
1010
0.0
1020
0.0
1030
0.0
1001
GENIUS_GENOBJ-N-HTC_13
1002
{
1000
OWNER
1000
GEN
1002
}
1001
GENIUS_GENODEF_13
1002
{
1000
HIER
1070
     0
1002
}
1002
{
1000
MANEDIT
1070
     0
1002
}
1002
{
1000
NOSEL
1070
     0
1002
}
1002
{
1000
BEHIND
1070
     0
1002
}
1002
{
1000
OTHER
1070
     0
1002
}
1002
{
1000
REACTOR
1002
}
1001
GENIUS_GENHATCH_13
1002
{
1000
DATA
1040
45.0
1042
1.900000000000003
1000
_U
1070
     0
1011
131.8692659760461
1021
-31.00618848185377
1031
0.0
1002
}
1002
{
1000
UCS
1010
0.0
1020
0.0
1030
0.0
1010
1.0
1020
0.0
1030
0.0
1010
0.0
1020
1.0
1030
0.0
1002
}
  0
ENDBLK
  5
141CD
330
1415C
100
AcDbEntity
  8
0
100
AcDbBlockEnd
  0
ENDSEC
  0
SECTION
  2
ENTITIES
  0
HATCH
  5
6A60
330
21
100
AcDbEntity
  8
弱線
100
AcDbHatch
 10
0.0
 20
0.0
 30
0.0
210
0.0
220
0.0
230
1.0
  2
DASH
 70
     0
 71
     0
 91
        1
 92
        1
 93
        8
 72
     1
 10
1461.088283298279
 20
227.6467918222498
 11
1461.088283298279
 21
252.6467918221712
 72
     1
 10
1461.088283298279
 20
252.6467918221712
 11
1321.088283297928
 21
252.6467918222323
 72
     1
 10
1321.088283297928
 20
252.6467918222323
 11
1291.088283298279
 21
252.6467918221712
 72
     1
 10
1291.088283298279
 20
252.6467918221712
 11
1291.088283298279
 21
227.6467918222498
 72
     1
 10
1291.088283298279
 20
227.6467918222498
 11
1341.088283298223
 21
227.6467918222105
 72
     1
 10
1341.088283298223
 20
227.6467918222105
 11
1411.088283298223
 21
227.6467918222105
 72
     1
 10
1411.088283298223
 20
227.6467918222105
 11
1417.092450857569
 21
227.6467918222498
 72
     1
 10
1417.092450857569
 20
227.6467918222498
 11
1461.088283298279
 21
227.6467918222498
 97
        0
 75
     0
 76
     1
 52
0.0
 41
1.0
 77
     0
 78
     1
 53
0.0
 43
-1918.215850562906
 44
-1255.257415588841
 45
3.174999999999998
 46
3.174999999999998
 79
     2
 49
3.174999999999998
 49
-3.174999999999998
 98
        1
 10
-1918.215850562906
 20
-1255.257415588841
1001
GENIUS_GENOBJ-N-HTC_13
1002
{
1000
OWNER
1000
GEN
1002
}
1001
GENIUS_GENODEF_13
1002
{
1000
HIER
1070
     0
1002
}
1002
{
1000
MANEDIT
1070
     0
1002
}
1002
{
1000
NOSEL
1070
     0
1002
}
1002
{
1000
BEHIND
1070
     0
1002
}
1002
{
1000
OTHER
1070
     0
1002
}
1002
{
1000
REACTOR
1002
}
1001
GENIUS_GENHATCH_13
1002
{
1000
DATA
1040
0.0
1042
1.0
1000
DASH
1070
     0
1011
1417.092450857569
1021
237.1195998499519
1031
0.0
1002
}
1002
{
1000
UCS
1010
0.0
1020
0.0
1030
0.0
1010
1.0
1020
0.0
1030
0.0
1010
0.0
1020
1.0
1030
0.0
1002
}
  0
LINE
  5
8435
330
21
100
AcDbEntity
  8
0
100
AcDbLine
 10
1291.088283298279
 20
227.6467918222498
 30
0.0
 11
1461.088283298279
 21
227.6467918222498
 31
0.0
1001
GENIUS_GENREC_14
1002
{
1000
PYDIR
1011
1291.088283298279
1021
252.6467918221712
1031
0.0
1002
}
1002
{
1000
PXDIR
1011
1461.088283298279
1021
227.6467918222498
1031
0.0
1002
}
1002
{
1000
PORI
1011
1291.088283298279
1021
227.6467918222498
1031
0.0
1002
}
1002
{
1000
PINS
1011
1291.088283298279
1021
227.6467918222498
1031
0.0
1002
}
1002
{
1000
PINS2
1011
1461.088283298279
1021
252.6467918221712
1031
0.0
1002
}
1002
{
1000
C
1070
     1
1002
}
1001
GENIUS_GENODEF_13
1002
{
1000
HIER
1070
     0
1002
}
1002
{
1000
MANEDIT
1070
     0
1002
}
1002
{
1000
NOSEL
1070
     0
1002
}
1002
{
1000
BEHIND
1070
     0
1002
}
1002
{
1000
OTHER
1070
     0
1002
}
1002
{
1000
REACTOR
1002
}
1001
GENIUS_GENOBJ-N-REC_13
1002
{
1000
OWNER
1000
GEN
1002
}
  0
LINE
  5
8437
330
21
100
AcDbEntity
  8
0
100
AcDbLine
 10
1461.088283298279
 20
252.6467918221712
 30
0.0
 11
1291.088283298279
 21
252.6467918221712
 31
0.0
1001
GENIUS_GENREC_14
1002
{
1000
PYDIR
1011
1291.088283298279
1021
252.6467918221712
1031
0.0
1002
}
1002
{
1000
PXDIR
1011
1461.088283298279
1021
227.6467918222498
1031
0.0
1002
}
1002
{
1000
PORI
1011
1291.088283298279
1021
227.6467918222498
1031
0.0
1002
}
1002
{
1000
PINS
1011
1291.088283298279
1021
227.6467918222498
1031
0.0
1002
}
1002
{
1000
PINS2
1011
1461.088283298279
1021
252.6467918221712
1031
0.0
1002
}
1002
{
1000
C
1070
     1
1002
}
1001
GENIUS_GENODEF_13
1002
{
1000
HIER
1070
     0
1002
}
1002
{
1000
MANEDIT
1070
     0
1002
}
1002
{
1000
NOSEL
1070
     0
1002
}
1002
{
1000
BEHIND
1070
     0
1002
}
1002
{
1000
OTHER
1070
     0
1002
}
1002
{
1000
REACTOR
1002
}
1001
GENIUS_GENOBJ-N-REC_13
1002
{
1000
OWNER
1000
GEN
1002
}
  0
LINE
  5
C7AA
330
21
100
AcDbEntity
  8
AM_3
 48
0.5
100
AcDbLine
 10
1394.200592249352
 20
252.6467918222031
 30
0.0
 11
1394.200592249352
 21
227.6467918222818
 31
0.0
  0
LINE
  5
C7AB
330
21
100
AcDbEntity
  8
AM_3
 48
0.5
100
AcDbLine
 10
1357.200592249352
 20
252.6467918222031
 30
0.0
 11
1357.200592249352
 21
227.6467918222818
 31
0.0
  0
LINE
  5
135CE
330
21
100
AcDbEntity
  8
0
 48
0.5
100
AcDbLine
 10
1379.838044059184
 20
779.8365577665991
 30
0.0
 11
1431.438044059184
 21
779.8365577665991
 31
0.0
  0
LINE
  5
135CF
330
21
100
AcDbEntity
  8
0
 48
0.5
100
AcDbLine
 10
1426.981499476822
 20
766.8365577665992
 30
0.0
 11
1384.294588641623
 21
766.8365577665992
 31
0.0
  0
LINE
  5
135D0
330
21
100
AcDbEntity
  8
0
 48
0.5
100
AcDbLine
 10
1392.738044059185
 20
779.8365577665991
 30
0.0
 11
1392.738044059185
 21
768.8365577665988
 31
0.0
  0
LINE
  5
135D1
330
21
100
AcDbEntity
  8
0
 48
0.5
100
AcDbLine
 10
1418.538044059184
 20
779.8365577665991
 30
0.0
 11
1418.538044059184
 21
768.8365577665988
 31
0.0
  0
LINE
  5
135D2
330
21
100
AcDbEntity
  8
0
 48
0.5
100
AcDbLine
 10
1379.838044059184
 20
779.8365577665991
 30
0.0
 11
1379.838044059184
 21
768.8365577665988
 31
0.0
  0
LINE
  5
135D3
330
21
100
AcDbEntity
  8
0
 48
0.5
100
AcDbLine
 10
1431.438044059184
 20
779.8365577665991
 30
0.0
 11
1431.438044059184
 21
768.8365577665988
 31
0.0
  0
LINE
  5
135D4
330
21
100
AcDbEntity
  8
0
 48
0.5
100
AcDbLine
 10
1426.981499476822
 20
766.8365577665992
 30
0.0
 11
1431.438044059184
 21
768.8365577665988
 31
0.0
  0
LINE
  5
135D5
330
21
100
AcDbEntity
  8
0
 48
0.5
100
AcDbLine
 10
1384.294588641623
 20
766.8365577665992
 30
0.0
 11
1379.838044059262
 21
768.8365577665988
 31
0.0
  0
ARC
  5
135D6
330
21
100
AcDbEntity
  8
0
 48
0.5
100
AcDbCircle
 10
1405.638044059184
 20
814.1615577665994
 30
0.0
 40
47.12499999999996
100
AcDbArc
 50
254.1130563788155
 51
285.8869436211845
  0
ARC
  5
135D7
330
21
100
AcDbEntity
  8
0
 48
0.5
100
AcDbCircle
 10
1424.988044059184
 20
779.4928077665993
 30
0.0
 40
12.45625000000011
100
AcDbArc
 50
238.8143781214773
 51
287.1533836005131
  0
ARC
  5
135D8
330
21
100
AcDbEntity
  8
0
 48
0.5
100
AcDbCircle
 10
1386.288044059184
 20
779.4928077665993
 30
0.0
 40
12.45625000000011
100
AcDbArc
 50
252.8466163994869
 51
301.1856218785228
  0
LWPOLYLINE
  5
135D9
330
21
100
AcDbEntity
  8
0
 48
0.5
100
AcDbPolyline
 90
        6
 70
     0
 43
0.0
 10
1388.175544059184
 20
888.9051320646878
 10
1388.175544059184
 20
913.4051320646872
 10
1389.175544059185
 20
914.4051320646871
 10
1422.100544059184
 20
914.4051320646871
 10
1423.100544059184
 20
913.4051320646872
 10
1423.100544059184
 20
888.9051320646869
  0
LWPOLYLINE
  5
135DA
330
21
100
AcDbEntity
  8
0
 48
0.5
100
AcDbPolyline
 90
        6
 70
     0
 43
0.0
 10
1423.100544059184
 20
883.9051320646868
 10
1423.100544059184
 20
859.4051320646869
 10
1422.100544059184
 20
858.4051320646869
 10
1389.175544059184
 20
858.4051320646869
 10
1388.175544059184
 20
859.4051320646869
 10
1388.175544059184
 20
883.9051320646877
  0
LWPOLYLINE
  5
135DB
330
21
100
AcDbEntity
  8
弱線
100
AcDbPolyline
 90
        3
 70
     0
 43
0.0
 10
1388.175544059184
 20
883.9051320646872
 42
-0.2722128246654474
 10
1405.638044059185
 20
883.9051320646868
 42
0.2722128246655077
 10
1423.100544059187
 20
883.9051320646886
  0
LWPOLYLINE
  5
135DC
330
21
100
AcDbEntity
  8
弱線
100
AcDbPolyline
 90
        3
 70
     0
 43
0.0
 10
1388.175544059184
 20
888.9051320646872
 42
-0.2722128246654474
 10
1405.638044059185
 20
888.9051320646869
 42
0.2722128246655077
 10
1423.100544059187
 20
888.9051320646887
  0
LWPOLYLINE
  5
135DD
330
21
100
AcDbEntity
  8
0
100
AcDbPolyline
 90
        4
 70
     1
 43
0.0
 10
1373.138044059184
 20
816.9051320646868
 10
1438.138044059184
 20
816.9051320646868
 10
1438.138044059184
 20
818.9051320646868
 10
1373.138044059184
 20
818.9051320646868
1001
GENIUS_GENREC_14
1002
{
1000
PYDIR
1011
1373.138044059184
1021
818.9051320646868
1031
0.0
1002
}
1002
{
1000
PXDIR
1011
1438.138044059184
1021
816.9051320646868
1031
0.0
1002
}
1002
{
1000
PORI
1011
1373.138044059184
1021
816.9051320646868
1031
0.0
1002
}
1002
{
1000
PINS
1011
1373.138044059184
1021
816.9051320646868
1031
0.0
1002
}
1002
{
1000
HVAL
1000
2
1002
}
1002
{
1000
H
1070
     2
1002
}
1002
{
1000
WVAL
1000
65
1002
}
1002
{
1000
W
1070
     2
1002
}
1002
{
1000
C
1070
     1
1002
}
1001
GENIUS_GENOBJ-N-REC_13
1002
{
1000
OWNER
1000
GEN
1002
}
1001
GENIUS_GENODEF_13
1002
{
1000
HIER
1070
     0
1002
}
1002
{
1000
MANEDIT
1070
     0
1002
}
1002
{
1000
NOSEL
1070
     0
1002
}
1002
{
1000
BEHIND
1070
     0
1002
}
1002
{
1000
OTHER
1070
     0
1002
}
1002
{
1000
REACTOR
1002
}
  0
HATCH
  5
135DF
330
21
100
AcDbEntity
  8
弱線
100
AcDbHatch
 10
0.0
 20
0.0
 30
0.0
210
0.0
220
0.0
230
1.0
  2
_U
 70
     0
 71
     0
 91
        1
 92
        1
 93
        7
 72
     1
 10
1388.175544059184
 20
913.4051320646872
 11
1388.175544059184
 21
888.9051320646878
 72
     2
 10
1396.906794059184
 20
874.0559677391935
 40
17.22592255085399
 50
239.5446399104549
 51
300.4553600895507
 73
     0
 72
     2
 10
1414.369294059184
 20
903.7542963901787
 40
17.22592255085226
 50
239.5446399104497
 51
300.4553600895609
 73
     1
 72
     1
 10
1423.100544059187
 20
888.9051320646885
 11
1423.100544059184
 21
913.4051320646872
 72
     1
 10
1423.100544059184
 20
913.4051320646872
 11
1422.100544059184
 21
914.4051320646871
 72
     1
 10
1422.100544059184
 20
914.4051320646871
 11
1389.175544059185
 21
914.4051320646871
 72
     1
 10
1389.175544059185
 20
914.4051320646871
 11
1388.175544059184
 21
913.4051320646872
 97
        0
 75
     0
 76
     0
 52
5.0
 41
2.0
 77
     0
 78
     1
 53
4.999999999999998
 43
372.6751107673572
 44
-373.19239780839
 45
-0.1743114854953163
 46
1.992389396183491
 79
     0
 98
        1
 10
372.6751107673572
 20
-373.19239780839
1001
ACAD
1010
0.0
1020
0.0
1030
0.0
1001
GENIUS_GENOBJ-N-HTC_13
1002
{
1000
OWNER
1000
GEN
1002
}
1001
GENIUS_GENODEF_13
1002
{
1000
HIER
1070
     0
1002
}
1002
{
1000
MANEDIT
1070
     0
1002
}
1002
{
1000
NOSEL
1070
     0
1002
}
1002
{
1000
BEHIND
1070
     0
1002
}
1002
{
1000
OTHER
1070
     0
1002
}
1002
{
1000
REACTOR
1002
}
1001
GENIUS_GENHATCH_13
1002
{
1000
DATA
1040
45.0
1042
2.5
1000
_U
1070
     0
1011
1400.659281634905
1021
903.5224467952692
1031
0.0
1002
}
1002
{
1000
UCS
1010
0.0
1020
0.0
1030
0.0
1010
1.0
1020
0.0
1030
0.0
1010
0.0
1020
1.0
1030
0.0
1002
}
  0
HATCH
  5
135E0
330
21
100
AcDbEntity
  8
弱線
100
AcDbHatch
 10
0.0
 20
0.0
 30
0.0
210
0.0
220
0.0
230
1.0
  2
_U
 70
     0
 71
     0
 91
        1
 92
        1
 93
        7
 72
     1
 10
1423.100544059184
 20
859.4051320646869
 11
1423.100544059184
 21
883.9051320646868
 72
     2
 10
1414.369294059184
 20
898.7542963901786
 40
17.22592255085215
 50
59.54463991045033
 51
120.4553600895496
 73
     0
 72
     2
 10
1396.906794059184
 20
869.0559677391934
 40
17.22592255085402
 50
59.54463991044871
 51
120.4553600895479
 73
     1
 72
     1
 10
1388.175544059184
 20
883.9051320646872
 11
1388.175544059184
 21
859.4051320646869
 72
     1
 10
1388.175544059184
 20
859.4051320646869
 11
1389.175544059184
 21
858.4051320646869
 72
     1
 10
1389.175544059184
 20
858.4051320646869
 11
1422.100544059184
 21
858.4051320646869
 72
     1
 10
1422.100544059184
 20
858.4051320646869
 11
1423.100544059184
 21
859.4051320646869
 97
        0
 75
     0
 76
     0
 52
5.0
 41
2.0
 77
     0
 78
     1
 53
4.999999999999998
 43
372.6751107673572
 44
-373.19239780839
 45
-0.1743114854953163
 46
1.992389396183491
 79
     0
 98
        1
 10
372.6751107673572
 20
-373.19239780839
1001
ACAD
1010
0.0
1020
0.0
1030
0.0
1001
GENIUS_GENOBJ-N-HTC_13
1002
{
1000
OWNER
1000
GEN
1002
}
1001
GENIUS_GENODEF_13
1002
{
1000
HIER
1070
     0
1002
}
1002
{
1000
MANEDIT
1070
     0
1002
}
1002
{
1000
NOSEL
1070
     0
1002
}
1002
{
1000
BEHIND
1070
     0
1002
}
1002
{
1000
OTHER
1070
     0
1002
}
1002
{
1000
REACTOR
1002
}
1001
GENIUS_GENHATCH_13
1002
{
1000
DATA
1040
45.0
1042
2.5
1000
_U
1070
     0
1011
1410.633984393769
1021
867.9191740625597
1031
0.0
1002
}
1002
{
1000
UCS
1010
0.0
1020
0.0
1030
0.0
1010
1.0
1020
0.0
1030
0.0
1010
0.0
1020
1.0
1030
0.0
1002
}
  0
LWPOLYLINE
  5
13E65
330
21
100
AcDbEntity
  8
0
100
AcDbPolyline
 90
        6
 70
     0
 43
0.0
 10
1401.338283298279
 20
275.6467918221638
 10
1401.338283298279
 20
508.8467918221637
 42
-0.1226479617549536
 10
1396.088283298279
 20
521.8467918221675
 10
1356.088283298279
 20
521.8467918221638
 42
-0.1226479617549591
 10
1350.838283298279
 20
508.8467918221637
 10
1350.838283298279
 20
275.6467918221638
1001
GENIUS_GENOREF_13
1005
0
1005
0
1005
0
  0
LWPOLYLINE
  5
13E66
330
21
100
AcDbEntity
  8
0
100
AcDbPolyline
 90
        4
 70
     0
 43
0.0
 10
1357.088283298282
 20
521.8467918221656
 10
1357.088283298282
 20
533.3467918221633
 42
0.4142135623730951
 10
1341.088283298282
 20
549.3467918221633
 10
1332.088283298281
 20
549.3467918221633
  0
LWPOLYLINE
  5
13E67
330
21
100
AcDbEntity
  8
0
100
AcDbPolyline
 90
        4
 70
     0
 43
0.0
 10
1332.088283298281
 20
587.3467918221631
 10
1341.088283298282
 20
587.3467918221631
 42
-0.4142135623730951
 10
1395.088283298281
 20
533.3467918221631
 10
1395.088283298281
 20
521.8467918221656
  0
LWPOLYLINE
  5
13E68
330
21
100
AcDbEntity
  8
0
100
AcDbPolyline
 90
       14
 70
     1
 43
0.0
 10
1291.629549175647
 20
550.3467918221631
 10
1286.588283298282
 20
550.3467918221631
 10
1286.088283298281
 20
550.8467918221631
 10
1286.088283298281
 20
585.8467918221633
 10
1286.588283298282
 20
586.3467918221632
 10
1306.588283298281
 20
586.3467918221632
 10
1314.088283298281
 20
590.5967918221632
 10
1330.088283298281
 20
590.5967918221636
 10
1332.088283298281
 20
588.5967918221636
 10
1332.088283298281
 20
548.0967918221636
 10
1330.088283298281
 20
546.0967918221633
 10
1314.088283298281
 20
546.0967918221633
 10
1306.588283298281
 20
550.3467918221633
 10
1296.547017420915
 20
550.3467918221631
 42
0.1220140060034129
  0
LINE
  5
13E69
330
21
100
AcDbEntity
  8
弱線
100
AcDbLine
 10
1286.588283298282
 20
586.3467918221632
 30
0.0
 11
1286.588283298282
 21
550.3467918221631
 31
0.0
  0
LINE
  5
13E6A
330
21
100
AcDbEntity
  8
弱線
100
AcDbLine
 10
1306.588283298281
 20
586.3467918221632
 30
0.0
 11
1306.588283298281
 21
550.3467918221633
 31
0.0
  0
LINE
  5
13E6B
330
21
100
AcDbEntity
  8
弱線
100
AcDbLine
 10
1314.088283298281
 20
590.5967918221632
 30
0.0
 11
1314.088283298281
 21
546.0967918221633
 31
0.0
  0
LINE
  5
13E6C
330
21
100
AcDbEntity
  8
弱線
100
AcDbLine
 10
1330.088283298281
 20
590.5967918221636
 30
0.0
 11
1330.088283298281
 21
546.0967918221633
 31
0.0
  0
ELLIPSE
  5
13E6D
330
21
100
AcDbEntity
  8
0
100
AcDbEllipse
 10
1322.088283298281
 20
550.1206588367333
 30
0.0
 11
-2.458734122634779
 21
0.0
 31
0.0
210
0.0
220
0.0
230
1.0
 40
0.5735764363511252
 41
3.141592653589792
 42
6.283185307179584
  0
ELLIPSE
  5
13E6E
330
21
100
AcDbEntity
  8
0
100
AcDbEllipse
 10
1322.088283298281
 20
550.1206588367333
 30
0.0
 11
2.458734122634779
 21
0.0
 31
0.0
210
0.0
220
0.0
230
1.0
 40
0.5058866942058878
 41
3.141592653589792
 42
6.283185307179584
  0
ARC
  5
13E6F
330
21
100
AcDbEntity
  8
0
100
AcDbCircle
 10
1322.088283298281
 20
556.0041607453768
 30
0.0
 40
4.624568098599872
100
AcDbArc
 50
259.8751813102761
 51
280.124818689724
  0
LWPOLYLINE
  5
13E70
330
21
100
AcDbEntity
  8
0
100
AcDbPolyline
 90
        9
 70
     0
 43
0.0
 10
1331.088283298279
 20
252.6467918221638
 10
1331.088283298279
 20
262.6467918221639
 10
1343.338283298279
 20
272.6467918221638
 10
1350.088283298279
 20
275.6467918221638
 10
1402.088283298279
 20
275.6467918221638
 10
1408.838283298279
 20
272.6467918221638
 10
1421.088283298279
 20
262.6467918221639
 10
1421.088283298279
 20
252.6467918221638
 10
1331.088283298279
 20
252.6467918221638
1001
GENIUS_GENOREF_13
1005
0
  0
LINE
  5
13E71
330
21
100
AcDbEntity
  8
弱線
100
AcDbLine
 10
1331.088283298279
 20
262.6467918221639
 30
0.0
 11
1421.088283298279
 21
262.6467918221639
 31
0.0
  0
LINE
  5
13E72
330
21
100
AcDbEntity
  8
弱線
100
AcDbLine
 10
1343.338283298279
 20
272.6467918221638
 30
0.0
 11
1408.838283298279
 21
272.6467918221638
 31
0.0
  0
LINE
  5
13E74
330
21
100
AcDbEntity
  8
弱線
100
AcDbLine
 10
1350.838283298279
 20
508.8467918221637
 30
0.0
 11
1401.338283298279
 21
508.8467918221637
 31
0.0
  0
LWPOLYLINE
  5
13E75
330
21
100
AcDbEntity
  8
0
 48
0.5
100
AcDbPolyline
 90
        4
 70
     0
 43
0.0
 10
1285.588283298281
 20
580.8467918221629
 10
1286.088283298281
 20
580.8467918221629
 10
1286.088283298281
 20
555.8467918221629
 10
1285.588283298281
 20
555.8467918221629
  0
LINE
  5
13E76
330
21
100
AcDbEntity
  8
中心線
100
AcDbLine
 10
1376.088283298279
 20
255.6467918221638
 30
0.0
 11
1376.088283298279
 21
249.6467918221638
 31
0.0
  0
LINE
  5
13E77
330
21
100
AcDbEntity
  8
弱線
100
AcDbLine
 10
1269.088283298281
 20
581.4890725583101
 30
0.0
 11
1268.8453251507
 21
581.4890810842017
 31
0.0
  0
LINE
  5
13E78
330
21
100
AcDbEntity
  8
弱線
100
AcDbLine
 10
1268.070194298282
 20
581.0958715452462
 30
0.0
 11
1268.070195817618
 21
555.5977103265206
 31
0.0
  0
LWPOLYLINE
  5
13E79
330
21
100
AcDbEntity
  8
0
100
AcDbPolyline
 90
       26
 70
     0
 43
0.0
 10
1269.088283298281
 20
582.1823588081232
 10
1268.707525549443
 20
581.095871822163
 10
1268.070194298282
 20
581.0958715452462
 42
-0.201941003146582
 10
1262.070627693666
 20
578.0960884282206
 10
1244.347501924808
 20
578.0960878481602
 42
-0.1212442646865258
 10
1238.313283298281
 20
579.8467918221628
 10
1218.451450583303
 20
579.8467918221628
 42
-0.1162670064868335
 10
1216.970816449576
 20
577.3152205588596
 10
1211.811402298281
 20
575.4322968221628
 10
1211.576479298282
 20
575.0967918221629
 10
1211.576479298282
 20
561.5967918221627
 10
1211.811402298281
 20
561.2612868221629
 10
1214.188938444887
 20
560.3959347884504
 42
-0.4663076788060272
 10
1218.380980298282
 20
548.8783938221628
 10
1201.033629298281
 20
518.8298048221628
 10
1201.216642298282
 20
518.1467918221626
 10
1202.94778535135
 20
517.1473159140803
 10
1217.865229298282
 20
525.7917698221628
 10
1230.505399298282
 20
518.4939638221627
 10
1231.188412298282
 20
518.6769768221632
 10
1250.771223298282
 20
552.5974958221627
 42
-0.2679491830006636
 10
1261.163528298282
 20
558.5974958221627
 10
1262.070627298282
 20
558.5974958221627
 42
-0.2019410001722421
 10
1268.070195817618
 20
555.5977103265206
 10
1268.707525549443
 20
555.5982538221626
 10
1269.088283298281
 20
554.5113469562972
  0
LWPOLYLINE
  5
13E7A
330
21
100
AcDbEntity
  8
弱線
100
AcDbPolyline
 90
        5
 70
     0
 43
0.0
 10
1241.747731227937
 20
577.4413134302847
 42
0.0540571066179281
 10
1235.59600635543
 20
567.8760528292225
 42
-0.6647316702052556
 10
1223.57657755496
 20
568.6820781583129
 42
0.1155786764145547
 10
1217.94913799542
 20
576.1233461222116
 42
-0.1684010842477683
 10
1216.960514445307
 20
577.3431272543047
  0
LINE
  5
13E7B
330
21
100
AcDbEntity
  8
弱線
100
AcDbLine
 10
1268.707525549443
 20
581.095871822163
 30
0.0
 11
1268.707525549443
 21
555.5982538221626
 31
0.0
  0
LINE
  5
13E7C
330
21
100
AcDbEntity
  8
弱線
100
AcDbLine
 10
1269.088283298281
 20
555.2045110860158
 30
0.0
 11
1268.845461785766
 21
555.2045025649188
 31
0.0
  0
LWPOLYLINE
  5
13E7D
330
21
100
AcDbEntity
  8
0
100
AcDbPolyline
 90
        8
 70
     0
 43
0.0
 10
1220.135631684898
 20
590.3467918221632
 42
0.0800061372182834
 10
1218.288283298282
 20
587.8467918221629
 10
1217.788283298282
 20
587.5467918221636
 10
1217.788283298282
 20
579.8467918221628
 10
1239.788283298282
 20
579.8467918221628
 10
1239.788283298282
 20
587.5467918221636
 10
1239.288283298282
 20
587.8467918221629
 42
0.0802777583198353
 10
1237.443611965258
 20
590.3467918221632
  0
LINE
  5
13E7E
330
21
100
AcDbEntity
  8
0
100
AcDbLine
 10
1239.788283298282
 20
587.5467918221636
 30
0.0
 11
1217.788283298282
 21
587.5467918221636
 31
0.0
  0
LINE
  5
13E7F
330
21
100
AcDbEntity
  8
弱線
100
AcDbLine
 10
1239.288283298282
 20
587.8467918221632
 30
0.0
 11
1218.288283298282
 21
587.8467918221632
 31
0.0
  0
HATCH
  5
13E80
330
21
100
AcDbEntity
  8
弱線
 48
0.3
100
AcDbHatch
 10
0.0
 20
0.0
 30
0.0
210
0.0
220
0.0
230
1.0
  2
_U
 70
     0
 71
     0
 91
        1
 92
        1
 93
        4
 72
     1
 10
1239.288283298282
 20
579.8467918221628
 11
1218.288283298282
 21
579.8467918221628
 72
     1
 10
1218.288283298282
 20
579.8467918221628
 11
1218.288283298282
 21
587.5467918221631
 72
     1
 10
1218.288283298282
 20
587.5467918221636
 11
1239.288283298282
 21
587.5467918221636
 72
     1
 10
1239.288283298282
 20
587.5467918221636
 11
1239.288283298282
 21
579.8467918221632
 97
        0
 75
     0
 76
     0
 52
90.0
 41
2.5
 77
     0
 78
     1
 53
90.0
 43
-299.0366144396337
 44
-2407.3874770617
 45
-2.5
 46
0.0000000000000002
 79
     0
 98
        1
 10
2584.752832536187
 20
-1167.482498879956
1001
GENIUS_GENOBJ-N-HTC_13
1002
{
1000
OWNER
1000
GEN
1002
}
1001
GENIUS_GENODEF_13
1002
{
1000
HIER
1070
     0
1002
}
1002
{
1000
MANEDIT
1070
     0
1002
}
1002
{
1000
NOSEL
1070
     0
1002
}
1002
{
1000
BEHIND
1070
     0
1002
}
1002
{
1000
OTHER
1070
     0
1002
}
1002
{
1000
REACTOR
1002
}
1001
GENIUS_GENHATCH_13
1002
{
1000
DATA
1040
90.0
1042
-1.0
1000
_U
1070
     0
1011
1226.764890091681
1021
583.5439452939167
1031
0.0
1002
}
1002
{
1000
UCS
1010
0.0
1020
0.0
1030
0.0
1010
1.0
1020
0.0
1030
0.0
1010
0.0
1020
1.0
1030
0.0
1002
}
  0
LINE
  5
13E81
330
21
100
AcDbEntity
  8
0
100
AcDbLine
 10
1219.288283298282
 20
595.3467918221632
 30
0.0
 11
1238.288283298282
 21
595.3467918221632
 31
0.0
  0
LWPOLYLINE
  5
13E82
330
21
100
AcDbEntity
  8
0
100
AcDbPolyline
 90
       10
 70
     1
 43
0.0
 10
1220.712441731493
 20
596.2962307776376
 10
1219.288283298282
 20
595.3467918221632
 10
1219.288283298282
 20
590.3467918221632
 10
1238.288283298282
 20
590.3467918221632
 10
1238.288283298282
 20
595.3467918221632
 10
1236.86412486507
 20
596.2962307776376
 42
-0.2892456994447618
 10
1235.559040383214
 20
599.221263948617
 10
1237.888283298282
 20
612.8467918221632
 10
1219.688283298282
 20
612.8467918221632
 10
1222.017526213349
 20
599.221263948617
 42
-0.2892456994447619
  0
HATCH
  5
13E83
330
21
100
AcDbEntity
  8
弱線
100
AcDbHatch
 10
0.0
 20
0.0
 30
0.0
210
0.0
220
0.0
230
1.0
  2
_U
 70
     0
 71
     0
 91
        1
 92
        1
 93
        4
 72
     1
 10
1219.288283298282
 20
595.3467918221632
 11
1238.288283298282
 21
595.3467918221632
 72
     1
 10
1238.288283298282
 20
595.3467918221632
 11
1238.288283298282
 21
590.3467918221632
 72
     1
 10
1238.288283298282
 20
590.3467918221632
 11
1219.288283298282
 21
590.3467918221632
 72
     1
 10
1219.288283298282
 20
590.3467918221632
 11
1219.288283298282
 21
595.3467918221632
 97
        0
 75
     0
 76
     0
 52
90.0
 41
2.5
 77
     0
 78
     1
 53
90.0
 43
-299.0366144396337
 44
-2407.3874770617
 45
-2.5
 46
0.0000000000000002
 79
     0
 98
        1
 10
1421.889539326557
 20
429.0841691021261
1001
GENIUS_GENOBJ-N-HTC_13
1002
{
1000
OWNER
1000
GEN
1002
}
1001
GENIUS_GENODEF_13
1002
{
1000
HIER
1070
     0
1002
}
1002
{
1000
MANEDIT
1070
     0
1002
}
1002
{
1000
NOSEL
1070
     0
1002
}
1002
{
1000
BEHIND
1070
     0
1002
}
1002
{
1000
OTHER
1070
     0
1002
}
1002
{
1000
REACTOR
1002
}
1001
GENIUS_GENHATCH_13
1002
{
1000
DATA
1040
90.0
1042
-1.0
1000
_U
1070
     0
1011
1226.802554737967
1021
594.3131573011352
1031
0.0
1002
}
1002
{
1000
UCS
1010
0.0
1020
0.0
1030
0.0
1010
1.0
1020
0.0
1030
0.0
1010
0.0
1020
1.0
1030
0.0
1002
}
  0
LWPOLYLINE
  5
13E84
330
21
100
AcDbEntity
  8
0
100
AcDbPolyline
 90
        6
 70
     0
 43
0.0
 10
1239.788283298282
 20
620.8467918221632
 10
1234.435242119211
 20
669.5108025408901
 42
0.3824764488947462
 10
1232.944235585319
 20
670.8467918221632
 10
1224.632331011244
 20
670.8467918221632
 42
0.3824764488947462
 10
1223.14132447734
 20
669.5108025408832
 10
1217.788283298282
 20
620.8467918221632
  0
ARC
  5
13E85
330
21
100
AcDbEntity
  8
0
100
AcDbCircle
 10
1217.788283298282
 20
619.3467918221633
 30
0.0
 40
1.5
100
AcDbArc
 50
90.0
 51
270.0
  0
ARC
  5
13E86
330
21
100
AcDbEntity
  8
0
100
AcDbCircle
 10
1239.788283298282
 20
619.3467918221633
 30
0.0
 40
1.5
100
AcDbArc
 50
270.0
 51
90.0
  0
LWPOLYLINE
  5
13E87
330
21
100
AcDbEntity
  8
0
100
AcDbPolyline
 90
        4
 70
     0
 43
0.0
 10
1217.788283298282
 20
617.8467918221634
 10
1219.538283298282
 20
612.8467918221632
 10
1238.038283298282
 20
612.8467918221632
 10
1239.788283298282
 20
617.8467918221634
  0
LINE
  5
13E88
330
21
100
AcDbEntity
  8
0
100
AcDbLine
 10
1239.788283298282
 20
617.8467918221634
 30
0.0
 11
1217.788283298282
 21
617.8467918221634
 31
0.0
  0
LINE
  5
13E89
330
21
100
AcDbEntity
  8
0
100
AcDbLine
 10
1239.788283298296
 20
620.8467918221632
 30
0.0
 11
1217.788283298282
 21
620.8467918221632
 31
0.0
  0
LWPOLYLINE
  5
13E8B
330
21
100
AcDbEntity
  8
0
100
AcDbPolyline
 90
        4
 70
     0
 43
0.0
 10
996.5525369477145
 20
275.646791822171
 10
996.5525369477145
 20
508.846791822171
 42
-0.1226479617549536
 10
991.3025369477145
 20
521.8467918221747
 10
978.7947505786426
 20
521.8467918221736
1001
GENIUS_GENOREF_13
1005
0
1005
0
1005
0
1005
0
  0
LWPOLYLINE
  5
13E8C
330
21
100
AcDbEntity
  8
0
100
AcDbPolyline
 90
        9
 70
     0
 43
0.0
 10
926.3025369477142
 20
252.646791822171
 10
926.3025369477142
 20
262.646791822171
 10
938.5525369477145
 20
272.6467918221711
 10
945.3025369477144
 20
275.646791822171
 10
997.3025369477143
 20
275.646791822171
 10
1004.052536947714
 20
272.6467918221711
 10
1016.302536947714
 20
262.646791822171
 10
1016.302536947714
 20
252.646791822171
 10
926.3025369477142
 20
252.646791822171
1001
GENIUS_GENOREF_13
1005
0
  0
LINE
  5
13E8D
330
21
100
AcDbEntity
  8
弱線
100
AcDbLine
 10
926.3025369477142
 20
262.646791822171
 30
0.0
 11
1016.302536947714
 21
262.646791822171
 31
0.0
  0
LINE
  5
13E8E
330
21
100
AcDbEntity
  8
弱線
100
AcDbLine
 10
938.5525369477145
 20
272.6467918221711
 30
0.0
 11
1004.052536947714
 21
272.6467918221711
 31
0.0
  0
LINE
  5
13E8F
330
21
100
AcDbEntity
  8
0
100
AcDbLine
 10
952.3025369477164
 20
521.8467918221711
 30
0.0
 11
952.3025369477164
 21
556.7682556452576
 31
0.0
  0
LINE
  5
13E90
330
21
100
AcDbEntity
  8
0
100
AcDbLine
 10
990.3025369477166
 20
521.8467918221747
 30
0.0
 11
990.3025369477166
 21
556.7682556452648
 31
0.0
  0
LWPOLYLINE
  5
13E91
330
21
100
AcDbEntity
  8
0
100
AcDbPolyline
 90
        4
 70
     0
 43
0.0
 10
963.8138413167778
 20
521.8467918221721
 10
951.3025369477139
 20
521.8467918221711
 42
-0.1226479617549591
 10
946.0525369477142
 20
508.846791822171
 10
946.0525369477142
 20
275.646791822171
1001
GENIUS_GENOREF_13
1005
0
1005
0
1005
0
1005
0
  0
LWPOLYLINE
  5
13E92
330
21
100
AcDbEntity
  8
弱線
100
AcDbPolyline
 90
       32
 70
     0
 43
0.0
 10
982.3025369477091
 20
581.9574494109793
 42
-0.0080040340843596
 10
982.732576916044
 20
581.5983647975597
 10
983.1135543642833
 20
581.929864655119
 42
-0.0348487257310843
 10
984.8856097806654
 20
580.157809238737
 10
984.5541099231066
 20
579.7768317904975
 42
-0.0286238297644808
 10
985.7728672122384
 20
578.1885163679652
 10
986.2266616453119
 20
578.4101164224337
 42
-0.0348487257310843
 10
987.4796940468739
 20
576.2398006393982
 10
987.0608855536872
 20
575.9576031594952
 42
-0.0286238297644851
 10
987.8270284142573
 20
574.1079706747927
 10
988.3227144914807
 20
574.2045692486701
 42
-0.0348487257310843
 10
988.9713317907906
 20
571.7838965329786
 10
988.4937557686738
 20
571.6197103133136
 42
-0.0286238297644794
 10
988.7550728308436
 20
569.6348101636117
 10
989.2588703652153
 20
569.5998242237251
 42
-0.0348487257310843
 10
989.2588703652153
 20
567.0937594206009
 10
988.7550728308436
 20
567.058773480714
 42
-0.0286238297644793
 10
988.4937557686738
 20
565.0738733310125
 10
988.9713317907906
 20
564.9096871113477
 42
-0.0348487257310843
 10
988.3227144914807
 20
562.4890143956559
 10
987.8270284142573
 20
562.5856129695331
 42
-0.0286238297644816
 10
987.0608855536872
 20
560.7359804848312
 10
987.4796940468739
 20
560.453783004928
 42
-0.0348487257310843
 10
986.2266616453119
 20
558.2834672218923
 10
985.7728672122384
 20
558.5050672763608
 42
-0.0286238297644809
 10
984.5541099231066
 20
556.9167518538287
 10
984.8856097806654
 20
556.5357744055891
 42
-0.0348487257310843
 10
983.1135543642826
 20
554.7637189892068
 10
982.732576916044
 20
555.0952188467658
 42
-0.0286238297644773
 10
981.1442614935115
 20
553.8764615576342
 10
981.36586154798
 20
553.4226671245606
 42
-0.0251090321429142
 10
979.8190797794966
 20
552.4890335255336
1001
GENIUS_GENOREF_13
1005
0
1005
0
  0
ARC
  5
13E93
330
21
100
AcDbEntity
  8
0
100
AcDbCircle
 10
971.3025369477144
 20
568.3467918221706
 30
0.0
 40
19.14999999999982
100
AcDbArc
 50
296.3138875747377
 51
54.94149812855223
1001
GENIUS_GENOREF_13
1005
0
  0
ARC
  5
13E94
330
21
100
AcDbEntity
  8
0
100
AcDbCircle
 10
971.3025369477144
 20
568.3467918221706
 30
0.0
 40
22.25000000000001
100
AcDbArc
 50
292.2269704131447
 51
62.09081490839446
1001
GENIUS_GENOREF_13
1005
0
  0
ARC
  5
13E95
330
21
100
AcDbEntity
  8
0
100
AcDbCircle
 10
971.3025369477144
 20
568.3467918221706
 30
0.0
 40
22.25000000000005
100
AcDbArc
 50
117.9081676499514
 51
247.7829006166113
1001
GENIUS_GENOREF_13
1005
0
  0
ARC
  5
13E96
330
21
100
AcDbEntity
  8
0
100
AcDbCircle
 10
971.3025369477144
 20
568.3467918221706
 30
0.0
 40
19.14999999999982
100
AcDbArc
 50
125.0585018714866
 51
243.6979779086215
1001
GENIUS_GENOREF_13
1005
0
  0
LWPOLYLINE
  5
13E97
330
21
100
AcDbEntity
  8
弱線
100
AcDbPolyline
 90
       32
 70
     0
 43
0.0
 10
962.7895523861239
 20
552.4871230408107
 42
-0.0251651608847166
 10
961.2392123474386
 20
553.4226671245606
 10
961.4608124019072
 20
553.8764615576337
 42
-0.0286238297644787
 10
959.8724969793746
 20
555.0952188467658
 10
959.4915195311353
 20
554.7637189892071
 42
-0.0348487257310843
 10
957.7194641147531
 20
556.5357744055893
 10
958.0509639723119
 20
556.9167518538287
 42
-0.0286238297644816
 10
956.8322066831798
 20
558.5050672763608
 10
956.3784122501068
 20
558.2834672218923
 42
-0.0348487257310843
 10
955.1253798485447
 20
560.453783004928
 10
955.5441883417307
 20
560.7359804848312
 42
-0.0286238297644806
 10
954.7780454811615
 20
562.5856129695331
 10
954.2823594039379
 20
562.4890143956559
 42
-0.0348487257310843
 10
953.633742104628
 20
564.9096871113472
 10
954.1113181267446
 20
565.0738733310125
 42
-0.0286238297644794
 10
953.850001064575
 20
567.058773480714
 10
953.3462035302035
 20
567.0937594206011
 42
-0.0348487257310843
 10
953.3462035302035
 20
569.5998242237251
 10
953.850001064575
 20
569.6348101636122
 42
-0.0286238297644794
 10
954.1113181267446
 20
571.6197103133136
 10
953.633742104628
 20
571.7838965329787
 42
-0.0348487257310843
 10
954.2823594039379
 20
574.2045692486704
 10
954.7780454811615
 20
574.107970674793
 42
-0.0286238297644807
 10
955.5441883417307
 20
575.9576031594952
 10
955.1253798485447
 20
576.2398006393982
 42
-0.0348487257310843
 10
956.3784122501068
 20
578.4101164224337
 10
956.8322066831798
 20
578.1885163679652
 42
-0.0286238297644817
 10
958.0509639723119
 20
579.7768317904975
 10
957.7194641147531
 20
580.157809238737
 42
-0.0348487257310843
 10
959.4915195311354
 20
581.9298646551192
 10
959.8724969793746
 20
581.5983647975603
 42
-0.0080040340837529
 10
960.3025369477078
 20
581.9574494109781
1001
GENIUS_GENOREF_13
1005
0
1005
0
  0
LINE
  5
13E98
330
21
100
AcDbEntity
  8
弱線
100
AcDbLine
 10
946.0525369477142
 20
508.846791822171
 30
0.0
 11
996.5525369477145
 21
508.846791822171
 31
0.0
  0
LINE
  5
13E99
330
21
100
AcDbEntity
  8
中心線
100
AcDbLine
 10
971.3025369477144
 20
255.6467918221711
 30
0.0
 11
971.3025369477144
 21
249.6467918221711
 31
0.0
  0
LINE
  5
13E9A
330
21
100
AcDbEntity
  8
0
100
AcDbLine
 10
970.5025369477203
 20
572.2659758221546
 30
0.0
 11
970.5025369477203
 21
573.8691468221552
 31
0.0
  0
LINE
  5
13E9B
330
21
100
AcDbEntity
  8
0
100
AcDbLine
 10
972.1025369477207
 20
572.2822198221547
 30
0.0
 11
972.1025369477207
 21
573.8691468221552
 31
0.0
  0
LINE
  5
13E9C
330
21
100
AcDbEntity
  8
0
100
AcDbLine
 10
970.5025369477203
 20
562.8244368221551
 30
0.0
 11
970.5025369477203
 21
564.4276078221537
 31
0.0
  0
LINE
  5
13E9D
330
21
100
AcDbEntity
  8
0
100
AcDbLine
 10
972.1025369477207
 20
562.8244368221551
 30
0.0
 11
972.1025369477207
 21
564.4276078221537
 31
0.0
  0
CIRCLE
  5
13E9E
330
21
100
AcDbEntity
  8
0
100
AcDbCircle
 10
971.3025369477206
 20
568.3467918221542
 30
0.0
 40
4.0
  0
CIRCLE
  5
13E9F
330
21
100
AcDbEntity
  8
0
100
AcDbCircle
 10
971.3025369477206
 20
568.3467918221542
 30
0.0
 40
5.58
  0
CIRCLE
  5
13EA0
330
21
100
AcDbEntity
  8
弱線
100
AcDbCircle
 10
971.3025369477206
 20
568.3467918221542
 30
0.0
 40
7.0
  0
LWPOLYLINE
  5
13EA1
330
21
100
AcDbEntity
  8
0
100
AcDbPolyline
 90
       12
 70
     0
 43
0.0
 10
976.9873244309023
 20
518.8540080000863
 42
0.1825704369676276
 10
979.2220936524453
 20
524.1670280194
 10
980.0021996524447
 20
561.1765420194013
 42
-0.0857265540456006
 10
980.6521373961262
 20
564.5179650646958
 42
0.0910366057351916
 10
981.3042959477213
 20
568.0701278221552
 10
981.3025369477212
 20
579.8467913221541
 10
961.3025369477206
 20
579.8467913221541
 10
961.3042959477208
 20
568.0701278221552
 42
0.0910366057351916
 10
961.9564544993156
 20
564.5179650646958
 42
-0.0857265540456006
 10
962.6063922429974
 20
561.1765420194013
 10
963.3864982429972
 20
524.1670280194
 42
0.1825704369676276
 10
965.6212674645392
 20
518.8540080000863
  0
LWPOLYLINE
  5
13EA2
330
21
100
AcDbEntity
  8
0
100
AcDbPolyline
 90
        9
 70
     0
 43
0.0
 10
963.3864982429972
 20
524.1670280194
 42
-0.2267205279502641
 10
964.2682617303616
 20
525.8332208674667
 42
0.122934045893842
 10
966.3123412412955
 20
517.370070206395
 42
0.2792270949748338
 10
966.755462007363
 20
517.1016819217291
 10
971.3042959477208
 20
517.1016819217291
 10
975.8531298880793
 20
517.1016819217291
 42
0.2792270949748338
 10
976.2962506541464
 20
517.370070206395
 42
0.122934045893842
 10
978.3403301650805
 20
525.8332208674667
 42
-0.2267205279502641
 10
979.2220936524453
 20
524.1670280194
  0
LWPOLYLINE
  5
13EA3
330
21
100
AcDbEntity
  8
0
100
AcDbPolyline
 90
        3
 70
     0
 43
0.0
 10
976.0772201705506
 20
517.2591377798656
 42
0.1610810211060622
 10
971.3042959477208
 20
518.8547665467114
 42
0.1610810211060622
 10
966.5313717248912
 20
517.2591377798656
  0
LWPOLYLINE
  5
13EA4
330
21
100
AcDbEntity
  8
0
100
AcDbPolyline
 90
        8
 70
     0
 43
0.0
 10
962.649885334337
 20
590.3467913221549
 42
0.0800061372182903
 10
960.8025369477207
 20
587.8467913221538
 10
960.3025369477206
 20
587.5467913221547
 10
960.3025369477206
 20
579.8467913221541
 10
982.3025369477207
 20
579.8467913221541
 10
982.3025369477207
 20
587.5467913221547
 10
981.8025369477206
 20
587.8467913221538
 42
0.0802777583198434
 10
979.9578656146966
 20
590.3467913221549
  0
LINE
  5
13EA5
330
21
100
AcDbEntity
  8
0
100
AcDbLine
 10
982.3025369477207
 20
587.5467913221547
 30
0.0
 11
960.3025369477206
 21
587.5467913221547
 31
0.0
  0
LINE
  5
13EA6
330
21
100
AcDbEntity
  8
弱線
100
AcDbLine
 10
981.8025369477206
 20
587.8467913221546
 30
0.0
 11
960.8025369477207
 21
587.8467913221546
 31
0.0
  0
HATCH
  5
13EA7
330
21
100
AcDbEntity
  8
弱線
 48
0.3
100
AcDbHatch
 10
0.0
 20
0.0
 30
0.0
210
0.0
220
0.0
230
1.0
  2
_U
 70
     0
 71
     0
 91
        1
 92
        1
 93
        4
 72
     1
 10
981.8025369477206
 20
579.8467913221541
 11
960.8025369477207
 21
579.8467913221541
 72
     1
 10
960.8025369477207
 20
579.8467913221541
 11
960.8025369477207
 21
587.5467913221544
 72
     1
 10
960.8025369477207
 20
587.5467913221547
 11
981.8025369477206
 21
587.5467913221547
 72
     1
 10
981.8025369477206
 20
587.5467913221547
 11
981.8025369477206
 21
579.8467913221544
 97
        0
 75
     0
 76
     0
 52
90.0
 41
2.5
 77
     0
 78
     1
 53
90.0
 43
-583.8273467068636
 44
-2294.778618800456
 45
-2.5
 46
0.0000000000000002
 79
     0
 98
        1
 10
2327.267086185626
 20
-1167.482499379965
1001
GENIUS_GENOBJ-N-HTC_13
1002
{
1000
OWNER
1000
GEN
1002
}
1001
GENIUS_GENODEF_13
1002
{
1000
HIER
1070
     0
1002
}
1002
{
1000
MANEDIT
1070
     0
1002
}
1002
{
1000
NOSEL
1070
     0
1002
}
1002
{
1000
BEHIND
1070
     0
1002
}
1002
{
1000
OTHER
1070
     0
1002
}
1002
{
1000
REACTOR
1002
}
1001
GENIUS_GENHATCH_13
1002
{
1000
DATA
1040
90.0
1042
-1.0
1000
_U
1070
     0
1011
969.2791437411202
1021
583.5439447939081
1031
0.0
1002
}
1002
{
1000
UCS
1010
0.0
1020
0.0
1030
0.0
1010
1.0
1020
0.0
1030
0.0
1010
0.0
1020
1.0
1030
0.0
1002
}
  0
LINE
  5
13EA8
330
21
100
AcDbEntity
  8
0
100
AcDbLine
 10
961.8025369477207
 20
595.346791322155
 30
0.0
 11
980.8025369477206
 21
595.346791322155
 31
0.0
  0
LWPOLYLINE
  5
13EA9
330
21
100
AcDbEntity
  8
0
100
AcDbPolyline
 90
       10
 70
     1
 43
0.0
 10
963.2266953809322
 20
596.2962302776292
 10
961.8025369477207
 20
595.346791322155
 10
961.8025369477207
 20
590.3467913221549
 10
980.8025369477206
 20
590.3467913221549
 10
980.8025369477206
 20
595.346791322155
 10
979.3783785145095
 20
596.2962302776292
 42
-0.2892456994447618
 10
978.0732940326531
 20
599.2212634486087
 10
980.4025369477203
 20
612.846791322155
 10
962.2025369477208
 20
612.846791322155
 10
964.5317798627882
 20
599.2212634486087
 42
-0.2892456994447619
  0
HATCH
  5
13EAA
330
21
100
AcDbEntity
  8
弱線
100
AcDbHatch
 10
0.0
 20
0.0
 30
0.0
210
0.0
220
0.0
230
1.0
  2
_U
 70
     0
 71
     0
 91
        1
 92
        1
 93
        4
 72
     1
 10
961.8025369477207
 20
595.346791322155
 11
980.8025369477206
 21
595.346791322155
 72
     1
 10
980.8025369477206
 20
595.346791322155
 11
980.8025369477206
 21
590.3467913221549
 72
     1
 10
980.8025369477206
 20
590.3467913221549
 11
961.8025369477207
 21
590.3467913221549
 72
     1
 10
961.8025369477207
 20
590.3467913221549
 11
961.8025369477207
 21
595.346791322155
 97
        0
 75
     0
 76
     0
 52
90.0
 41
2.5
 77
     0
 78
     1
 53
90.0
 43
-583.8273467068636
 44
-2294.478618800456
 45
-2.5
 46
0.0000000000000002
 79
     0
 98
        1
 10
1164.403792975996
 20
429.0841686021178
1001
GENIUS_GENOBJ-N-HTC_13
1002
{
1000
OWNER
1000
GEN
1002
}
1001
GENIUS_GENODEF_13
1002
{
1000
HIER
1070
     0
1002
}
1002
{
1000
MANEDIT
1070
     0
1002
}
1002
{
1000
NOSEL
1070
     0
1002
}
1002
{
1000
BEHIND
1070
     0
1002
}
1002
{
1000
OTHER
1070
     0
1002
}
1002
{
1000
REACTOR
1002
}
1001
GENIUS_GENHATCH_13
1002
{
1000
DATA
1040
90.0
1042
-1.0
1000
_U
1070
     0
1011
969.3168083874059
1021
594.313156801127
1031
0.0
1002
}
1002
{
1000
UCS
1010
0.0
1020
0.0
1030
0.0
1010
1.0
1020
0.0
1030
0.0
1010
0.0
1020
1.0
1030
0.0
1002
}
  0
ARC
  5
13EAB
330
21
100
AcDbEntity
  8
0
 48
0.5
100
AcDbCircle
 10
971.3025369477206
 20
568.3467918221542
 30
0.0
 40
14.14897900000028
100
AcDbArc
 50
134.9710207280744
 51
232.5138980864867
  0
ARC
  5
13EAC
330
21
100
AcDbEntity
  8
0
 48
0.5
100
AcDbCircle
 10
971.3025369477206
 20
568.3467918221542
 30
0.0
 40
14.14897900000028
100
AcDbArc
 50
307.5043526116918
 51
45.0264309349231
  0
LWPOLYLINE
  5
13EAD
330
21
100
AcDbEntity
  8
0
100
AcDbPolyline
 90
        6
 70
     0
 43
0.0
 10
982.3025369477207
 20
620.846791322155
 10
976.94949576865
 20
669.5108020408817
 42
0.3824764488947462
 10
975.458489234758
 20
670.846791322155
 10
967.1465846606833
 20
670.846791322155
 42
0.3824764488947462
 10
965.655578126779
 20
669.5108020408747
 10
960.3025369477206
 20
620.846791322155
  0
ARC
  5
13EAE
330
21
100
AcDbEntity
  8
0
100
AcDbCircle
 10
960.3025369477206
 20
619.3467913221549
 30
0.0
 40
1.5
100
AcDbArc
 50
90.0
 51
270.0
  0
ARC
  5
13EAF
330
21
100
AcDbEntity
  8
0
100
AcDbCircle
 10
982.3025369477207
 20
619.3467913221549
 30
0.0
 40
1.5
100
AcDbArc
 50
270.0
 51
90.0
  0
LWPOLYLINE
  5
13EB0
330
21
100
AcDbEntity
  8
0
100
AcDbPolyline
 90
        4
 70
     0
 43
0.0
 10
960.3025369477206
 20
617.846791322155
 10
962.0525369477206
 20
612.846791322155
 10
980.5525369477207
 20
612.846791322155
 10
982.3025369477207
 20
617.846791322155
  0
LINE
  5
13EB1
330
21
100
AcDbEntity
  8
0
100
AcDbLine
 10
982.3025369477207
 20
617.846791322155
 30
0.0
 11
960.3025369477206
 21
617.846791322155
 31
0.0
  0
LINE
  5
13EB2
330
21
100
AcDbEntity
  8
0
100
AcDbLine
 10
982.3025369477353
 20
620.846791322155
 30
0.0
 11
960.3025369477206
 21
620.846791322155
 31
0.0
  0
ARC
  5
13EB5
330
21
100
AcDbEntity
  8
0
100
AcDbCircle
 10
971.3007779460903
 20
962.6485508221374
 30
0.0
 40
25.25
100
AcDbArc
 50
318.8052488006875
 51
221.1947511993125
  0
ARC
  5
13EB6
330
21
100
AcDbEntity
  8
弱線
100
AcDbCircle
 10
971.3007779460903
 20
962.6485508221374
 30
0.0
 40
26.0
100
AcDbArc
 50
316.9509201997681
 51
223.0490798002319
  0
ARC
  5
13EB7
330
21
100
AcDbEntity
  8
弱線
100
AcDbCircle
 10
971.3007779460903
 20
962.6485508221374
 30
0.0
 40
32.75
100
AcDbArc
 50
305.4612814730879
 51
234.5387185269303
  0
LWPOLYLINE
  5
13EB8
330
21
100
AcDbEntity
  8
0
100
AcDbPolyline
 90
       12
 70
     1
 43
0.0
 10
949.0507779477413
 20
916.64855082214
 10
951.0507779477412
 20
918.64855082214
 10
991.5507779477412
 20
918.64855082214
 10
993.5507779477413
 20
916.64855082214
 10
993.5507779477413
 20
900.64855082214
 10
989.3007779477413
 20
893.1485508221399
 10
989.3007779477413
 20
873.14855082214
 10
988.8007779477412
 20
872.6485508221399
 10
953.8007779477412
 20
872.6485508221399
 10
953.3007779477413
 20
873.14855082214
 10
953.3007779477413
 20
893.1485508221399
 10
949.0507779477413
 20
900.64855082214
  0
LINE
  5
13EB9
330
21
100
AcDbEntity
  8
弱線
100
AcDbLine
 10
953.3007779477413
 20
873.14855082214
 30
0.0
 11
989.3007779477413
 21
873.1485508221405
 31
0.0
  0
LINE
  5
13EBA
330
21
100
AcDbEntity
  8
弱線
100
AcDbLine
 10
953.3007779477413
 20
893.1485508221399
 30
0.0
 11
989.3007779477413
 21
893.1485508221399
 31
0.0
  0
LINE
  5
13EBB
330
21
100
AcDbEntity
  8
弱線
100
AcDbLine
 10
949.0507779477413
 20
900.64855082214
 30
0.0
 11
993.5507779477413
 21
900.64855082214
 31
0.0
  0
LINE
  5
13EBC
330
21
100
AcDbEntity
  8
弱線
100
AcDbLine
 10
949.0507779477413
 20
916.64855082214
 30
0.0
 11
993.5507779477413
 21
916.64855082214
 31
0.0
  0
ARC
  5
13EBD
330
21
100
AcDbEntity
  8
0
100
AcDbCircle
 10
971.3007779460903
 20
962.6485508221374
 30
0.0
 40
19.00000000000216
100
AcDbArc
 50
0.0
 51
180.0
  0
LINE
  5
13EBE
330
21
100
AcDbEntity
  8
0
100
AcDbLine
 10
952.3007779460927
 20
918.64855082214
 30
0.0
 11
952.3007779460883
 21
962.6485508221374
 31
0.0
  0
LINE
  5
13EBF
330
21
100
AcDbEntity
  8
0
100
AcDbLine
 10
990.3007779460926
 20
918.6485508221398
 30
0.0
 11
990.3007779460926
 21
962.6485508221374
 31
0.0
  0
LWPOLYLINE
  5
13EC1
330
21
100
AcDbEntity
  8
0
 48
0.5
100
AcDbPolyline
 90
        4
 70
     0
 43
0.0
 10
958.8007779477413
 20
872.14855082214
 10
958.8007779477413
 20
872.6485508221399
 10
983.8007779477413
 20
872.6485508221399
 10
983.8007779477413
 20
872.1485508221404
  0
ARC
  5
13EC3
330
21
100
AcDbEntity
  8
0
100
AcDbCircle
 10
971.3007779460596
 20
962.6485508221374
 30
0.0
 40
45.0
100
AcDbArc
 50
294.9749653677029
 51
245.0250346323845
  0
LINE
  5
13EC4
330
21
100
AcDbEntity
  8
中心線
100
AcDbLine
 10
968.3007779460906
 20
962.6485508221374
 30
0.0
 11
974.3007779460905
 21
962.6485508221374
 31
0.0
  0
LINE
  5
13EC5
330
21
100
AcDbEntity
  8
中心線
100
AcDbLine
 10
971.3007779460903
 20
965.6485508221376
 30
0.0
 11
971.3007779460903
 21
959.6485508221375
 31
0.0
  0
CIRCLE
  5
13EC6
330
21
100
AcDbEntity
  8
0
100
AcDbCircle
 10
971.3007779477413
 20
815.3485508221402
 30
0.0
 40
12.5
  0
LINE
  5
13EC7
330
21
100
AcDbEntity
  8
0
100
AcDbLine
 10
964.3780803258136
 20
798.1367468221402
 30
0.0
 11
978.2234755696688
 21
798.1367468221402
 31
0.0
  0
LWPOLYLINE
  5
13EC8
330
21
100
AcDbEntity
  8
0
100
AcDbPolyline
 90
       10
 70
     0
 43
0.0
 10
962.1395117847416
 20
806.8443634835327
 42
0.0672445587347603
 10
963.8516013258136
 20
798.9959108223689
 10
964.0425753258147
 20
798.3716698221402
 10
964.3780803258136
 20
798.1367468221402
 10
965.7656044360127
 20
791.1485508223672
 42
0.6421937799592128
 10
976.8359514594695
 20
791.1485508223669
 10
978.2234755696688
 20
798.1367468221402
 10
978.5589805696679
 20
798.3716698221402
 10
978.7499545696688
 20
798.9959108223689
 42
0.067244558734709
 10
980.4620441107401
 20
806.8443634835267
 42
0.067244558734709
  0
CIRCLE
  5
13EC9
330
21
100
AcDbEntity
  8
弱線
 48
0.5
100
AcDbCircle
 10
971.3007779477413
 20
815.3485508221402
 30
0.0
 40
11.0
  0
LWPOLYLINE
  5
13ECA
330
21
100
AcDbEntity
  8
0
100
AcDbPolyline
 90
        3
 70
     0
 43
0.0
 10
961.799556126145
 20
823.4711602487237
 10
961.5514813416831
 20
848.6308952175246
 42
0.2019410031465607
 10
958.5516982246575
 20
854.6304618221396
  0
LINE
  5
13ECB
330
21
100
AcDbEntity
  8
弱線
100
AcDbLine
 10
958.1584972115939
 20
855.6485508221399
 30
0.0
 11
958.1584886857021
 21
855.4055926745583
 31
0.0
  0
LINE
  5
13ECC
330
21
100
AcDbEntity
  8
弱線
100
AcDbLine
 10
958.5516982246575
 20
854.6304618221396
 30
0.0
 11
984.0498594433832
 21
854.6304633414761
 31
0.0
  0
LINE
  5
13ECD
330
21
100
AcDbEntity
  8
0
100
AcDbLine
 10
957.4652109617796
 20
855.6485508221399
 30
0.0
 11
958.5516979477407
 21
855.2677930733013
 31
0.0
  0
LINE
  5
13ECE
330
21
100
AcDbEntity
  8
0
100
AcDbLine
 10
958.5516979477407
 20
855.2677930733013
 30
0.0
 11
958.5516982246575
 21
854.6304618221396
 31
0.0
  0
LINE
  5
13ECF
330
21
100
AcDbEntity
  8
0
100
AcDbLine
 10
984.0498594433832
 20
854.6304633414761
 30
0.0
 11
984.0493159477412
 21
855.2677930733013
 31
0.0
  0
LINE
  5
13ED0
330
21
100
AcDbEntity
  8
0
100
AcDbLine
 10
984.0493159477412
 20
855.2677930733013
 30
0.0
 11
985.1362228136077
 21
855.6485508221399
 31
0.0
  0
LINE
  5
13ED1
330
21
100
AcDbEntity
  8
弱線
100
AcDbLine
 10
958.5516979477407
 20
855.2677930733013
 30
0.0
 11
984.0493159477412
 21
855.2677930733013
 31
0.0
  0
LINE
  5
13ED2
330
21
100
AcDbEntity
  8
弱線
100
AcDbLine
 10
984.4430586838878
 20
855.6485508221399
 30
0.0
 11
984.4430672049853
 21
855.405729309624
 31
0.0
  0
LWPOLYLINE
  5
13ED3
330
21
100
AcDbEntity
  8
0
100
AcDbPolyline
 90
        3
 70
     0
 43
0.0
 10
980.8020015216854
 20
823.4711581989579
 10
981.0500763263576
 20
848.6308952175246
 42
-0.2019408667019094
 10
984.0498594433832
 20
854.6304633414761
  0
CIRCLE
  5
13ED4
330
21
100
AcDbEntity
  8
弱線
 48
0.5
100
AcDbCircle
 10
971.3007779477413
 20
815.3485508221402
 30
0.0
 40
4.155952287035006
  0
LWPOLYLINE
  5
1400C
330
21
100
AcDbEntity
  8
0
 48
0.5
100
AcDbPolyline
 90
        4
 70
     1
 43
0.0
 10
1343.588283298223
 20
226.1467918221712
 10
1408.588283298223
 20
226.1467918221712
 10
1408.588283298223
 20
227.6467918221712
 10
1343.588283298223
 20
227.6467918221712
1001
GENIUS_GENREC_14
1002
{
1000
PYDIR
1011
1343.588283298223
1021
227.6467918221712
1031
0.0
1002
}
1002
{
1000
PXDIR
1011
1408.588283298223
1021
226.1467918221712
1031
0.0
1002
}
1002
{
1000
PORI
1011
1343.588283298223
1021
226.1467918221712
1031
0.0
1002
}
1002
{
1000
PINS
1011
1376.088283298223
1021
228.1467918221712
1031
0.0
1002
}
1002
{
1000
HVAL
1000
1.5
1002
}
1002
{
1000
H
1070
     2
1002
}
1002
{
1000
WVAL
1000
65
1002
}
1002
{
1000
W
1070
     2
1002
}
1002
{
1000
C
1070
     2
1002
}
1001
GENIUS_GENODEF_13
1002
{
1000
HIER
1070
     0
1002
}
1002
{
1000
MANEDIT
1070
     0
1002
}
1002
{
1000
NOSEL
1070
     0
1002
}
1002
{
1000
BEHIND
1070
     0
1002
}
1002
{
1000
REACTOR
1002
}
1001
GENIUS_GENOBJ-N-REC_13
1002
{
1000
OWNER
1000
GEN
1002
}
  0
LINE
  5
1400D
330
21
100
AcDbEntity
  8
0
100
AcDbLine
 10
1356.602711713073
 20
215.1467918221742
 30
0.0
 11
1395.573854883373
 21
215.1467918221742
 31
0.0
  0
LINE
  5
1400E
330
21
100
AcDbEntity
  8
0
 48
0.5
100
AcDbLine
 10
1402.069045411756
 20
226.1467918221712
 30
0.0
 11
1402.069045411754
 21
217.1467918221675
 31
0.0
  0
LINE
  5
1400F
330
21
100
AcDbEntity
  8
0
 48
0.5
100
AcDbLine
 10
1389.078664354989
 20
226.1467918221712
 30
0.0
 11
1389.078664354989
 21
217.1467918221712
 31
0.0
  0
LINE
  5
14010
330
21
100
AcDbEntity
  8
0
 48
0.5
100
AcDbLine
 10
1363.097902241456
 20
226.1467918221712
 30
0.0
 11
1363.097920178571
 21
217.1467918221675
 31
0.0
  0
LINE
  5
14011
330
21
100
AcDbEntity
  8
0
 48
0.5
100
AcDbLine
 10
1350.107521184689
 20
226.1467918221712
 30
0.0
 11
1350.107521184689
 21
217.1467918221675
 31
0.0
  0
ARC
  5
14012
330
21
100
AcDbEntity
  8
0
 48
0.5
100
AcDbCircle
 10
1395.573854883374
 20
226.6936668221784
 30
0.0
 40
11.54687500000699
100
AcDbArc
 50
235.7706935164311
 51
304.2293064835689
  0
ARC
  5
14013
330
21
100
AcDbEntity
  8
0
 48
0.5
100
AcDbCircle
 10
1376.088292266783
 20
258.3342335697667
 30
0.0
 40
43.18744174759344
100
AcDbArc
 50
252.494894539461
 51
287.5050884118099
  0
ARC
  5
14014
330
21
100
AcDbEntity
  8
0
 48
0.5
100
AcDbCircle
 10
1356.602711713071
 20
226.6936668221894
 30
0.0
 40
11.54687500001704
100
AcDbArc
 50
235.7706935164311
 51
304.2293064835689
  0
LINE
  5
14015
330
21
100
AcDbEntity
  8
0
100
AcDbLine
 10
1402.069045411756
 20
226.1467918221712
 30
0.0
 11
1350.107521184689
 21
226.1467918221712
 31
0.0
  0
LINE
  5
14016
330
21
100
AcDbEntity
  8
0
100
AcDbLine
 10
1393.588283298223
 20
210.6467918221712
 30
0.0
 11
1393.588283298223
 21
215.1467918221712
 31
0.0
  0
LINE
  5
14017
330
21
100
AcDbEntity
  8
0
100
AcDbLine
 10
1393.088283298223
 20
210.1467918221711
 30
0.0
 11
1393.588283298223
 21
210.6467918221712
 31
0.0
  0
LINE
  5
14018
330
21
100
AcDbEntity
  8
0
100
AcDbLine
 10
1358.588283298223
 20
215.1467918221712
 30
0.0
 11
1358.588283298223
 21
210.6467918221712
 31
0.0
  0
LINE
  5
14019
330
21
100
AcDbEntity
  8
0
100
AcDbLine
 10
1359.088283298223
 20
210.1467918221711
 30
0.0
 11
1358.588283298223
 21
210.6467918221712
 31
0.0
  0
LINE
  5
1401A
330
21
100
AcDbEntity
  8
0
100
AcDbLine
 10
1359.088283298223
 20
210.1467918221711
 30
0.0
 11
1393.088283298223
 21
210.1467918221711
 31
0.0
  0
HATCH
  5
1401B
330
21
100
AcDbEntity
  8
弱線
100
AcDbHatch
 10
0.0
 20
0.0
 30
0.0
210
0.0
220
0.0
230
1.0
  2
_U
 70
     0
 71
     0
 91
        1
 92
        1
 93
        4
 72
     1
 10
1393.588283298223
 20
215.1467918221712
 11
1358.588283298223
 21
215.1467918221711
 72
     1
 10
1358.588283298223
 20
215.1467918221711
 11
1358.588283298223
 21
210.1467918221711
 72
     1
 10
1358.588283298223
 20
210.1467918221711
 11
1393.588283298223
 21
210.1467918221711
 72
     1
 10
1393.588283298223
 20
210.1467918221711
 11
1393.588283298223
 21
215.1467918221712
 97
        0
 75
     0
 76
     0
 52
5.0
 41
2.0
 77
     0
 78
     1
 53
4.999999999999998
 43
-434.7404633191715
 44
-1013.228630078322
 45
-0.1743114854953163
 46
1.992389396183491
 79
     0
 98
        1
 10
-434.7404633191715
 20
-1013.228630078322
1001
GENIUS_GENODEF_13
1002
{
1000
HIER
1070
     0
1002
}
1002
{
1000
MANEDIT
1070
     0
1002
}
1002
{
1000
NOSEL
1070
     0
1002
}
1002
{
1000
BEHIND
1070
     0
1002
}
1002
{
1000
OTHER
1070
     0
1002
}
1002
{
1000
REACTOR
1002
}
1001
GENIUS_GENOBJ-N-HTC_13
1002
{
1000
OWNER
1000
GEN
1002
}
1001
GENIUS_GENHATCH_13
1002
{
1000
DATA
1040
45.0
1042
2.5
1000
_U
1070
     0
1011
1377.693120547482
1021
213.1781508359503
1031
0.0
1002
}
1002
{
1000
UCS
1010
0.0
1020
0.0
1030
0.0
1010
1.0
1020
0.0
1030
0.0
1010
0.0
1020
1.0
1030
0.0
1002
}
1001
ACAD
1010
0.0
1020
0.0
1030
0.0
  0
LINE
  5
1401C
330
21
100
AcDbEntity
  8
AM_5
370
     9
100
AcDbLine
 10
1429.100542468391
 20
914.4051159311542
 30
0.0
 11
1469.357094348255
 21
914.4051159311542
 31
0.0
  0
LINE
  5
1401D
330
21
100
AcDbEntity
  8
AM_5
370
     9
100
AcDbLine
 10
1429.100542468391
 20
858.4051157583926
 30
0.0
 11
1469.357094348255
 21
858.4051157583926
 31
0.0
  0
LINE
  5
1401E
330
21
100
AcDbEntity
  8
AM_5
370
     9
100
AcDbLine
 10
1465.357094348255
 20
908.4051159311544
 30
0.0
 11
1465.357094348255
 21
864.4051157583927
 31
0.0
  0
LINE
  5
1401F
330
21
100
AcDbEntity
  8
AM_5
370
     9
100
AcDbLine
 10
1464.357094348255
 20
908.4051159311544
 30
0.0
 11
1465.357094348255
 21
914.4051159311542
 31
0.0
  0
LINE
  5
14020
330
21
100
AcDbEntity
  8
AM_5
370
     9
100
AcDbLine
 10
1466.357094348255
 20
908.4051159311544
 30
0.0
 11
1465.357094348255
 21
914.4051159311542
 31
0.0
  0
LINE
  5
14021
330
21
100
AcDbEntity
  8
AM_5
370
     9
100
AcDbLine
 10
1465.357094348255
 20
914.4051159311542
 30
0.0
 11
1465.357094348255
 21
908.4051159311544
 31
0.0
  0
LINE
  5
14022
330
21
100
AcDbEntity
  8
AM_5
370
     9
100
AcDbLine
 10
1466.357094348255
 20
864.4051157583927
 30
0.0
 11
1465.357094348255
 21
858.4051157583926
 31
0.0
  0
LINE
  5
14023
330
21
100
AcDbEntity
  8
AM_5
370
     9
100
AcDbLine
 10
1464.357094348255
 20
864.4051157583927
 30
0.0
 11
1465.357094348255
 21
858.4051157583926
 31
0.0
  0
LINE
  5
14024
330
21
100
AcDbEntity
  8
AM_5
370
     9
100
AcDbLine
 10
1465.357094348255
 20
858.4051157583926
 30
0.0
 11
1465.357094348255
 21
864.4051157583927
 31
0.0
  0
TEXT
  5
14025
330
21
100
AcDbEntity
  8
AM_5
100
AcDbText
 10
1461.357094348255
 20
875.3168011599127
 30
0.0
 40
10.0
  1
150
 50
90.0
100
AcDbText
  0
LINE
  5
14026
330
21
100
AcDbEntity
  8
AM_5
370
     9
100
AcDbLine
 10
1423.100542533619
 20
852.4328593837218
 30
0.0
 11
1423.100542533619
 21
831.9783855617306
 31
0.0
  0
LINE
  5
14027
330
21
100
AcDbEntity
  8
AM_5
370
     9
100
AcDbLine
 10
1388.175542574597
 20
852.4051157583928
 30
0.0
 11
1388.175542574597
 21
831.9783855617306
 31
0.0
  0
LINE
  5
14028
330
21
100
AcDbEntity
  8
AM_5
370
     9
100
AcDbLine
 10
1417.100542533619
 20
835.9783855617305
 30
0.0
 11
1394.175542574597
 21
835.9783855617305
 31
0.0
  0
LINE
  5
14029
330
21
100
AcDbEntity
  8
AM_5
370
     9
100
AcDbLine
 10
1417.100542533619
 20
836.9783855617301
 30
0.0
 11
1423.100542533619
 21
835.9783855617305
 31
0.0
  0
LINE
  5
1402A
330
21
100
AcDbEntity
  8
AM_5
370
     9
100
AcDbLine
 10
1417.100542533619
 20
834.9783855617305
 30
0.0
 11
1423.100542533619
 21
835.9783855617305
 31
0.0
  0
LINE
  5
1402B
330
21
100
AcDbEntity
  8
AM_5
370
     9
100
AcDbLine
 10
1423.100542533619
 20
835.9783855617305
 30
0.0
 11
1417.100542533619
 21
835.9783855617305
 31
0.0
  0
LINE
  5
1402C
330
21
100
AcDbEntity
  8
AM_5
370
     9
100
AcDbLine
 10
1394.175542574597
 20
834.9783855617305
 30
0.0
 11
1388.175542574597
 21
835.9783855617305
 31
0.0
  0
LINE
  5
1402D
330
21
100
AcDbEntity
  8
AM_5
370
     9
100
AcDbLine
 10
1394.175542574597
 20
836.9783855617301
 30
0.0
 11
1388.175542574597
 21
835.9783855617305
 31
0.0
  0
LINE
  5
1402E
330
21
100
AcDbEntity
  8
AM_5
370
     9
100
AcDbLine
 10
1388.175542574597
 20
835.9783855617305
 30
0.0
 11
1394.175542574597
 21
835.9783855617305
 31
0.0
  0
TEXT
  5
1402F
330
21
100
AcDbEntity
  8
AM_5
100
AcDbText
 10
1393.018994935059
 20
839.9783855617306
 30
0.0
 40
10.0
  1
\U+220535
100
AcDbText
  0
TEXT
  5
14030
330
21
100
AcDbEntity
  8
AM_5
100
AcDbText
 10
1385.542804458482
 20
750.9274884201393
 30
0.0
 40
10.0
  1
平径45
100
AcDbText
  0
MTEXT
  5
14031
330
21
100
AcDbEntity
  8
文字
 48
0.5
100
AcDbMText
 10
1315.520142310462
 20
933.3504173474478
 30
0.0
 40
14.0
 41
160.6766984733935
 71
     4
 72
     5
  1
 A　詳細図
 73
     1
 44
1.0
1001
ACAD
1000
MTEXTBEGIN
1070
    73
1070
     1
1070
    44
1040
1.0
1070
    74
1070
     0
1000
MTEXTEND
  0
LWPOLYLINE
  5
14032
330
21
100
AcDbEntity
  8
図面枠
 48
0.5
370
    50
100
AcDbPolyline
 90
        8
 70
     1
 43
0.0
 10
1316.640428852102
 20
744.8502906341802
 10
1469.045224455162
 20
744.8502906341802
 42
0.4142135623730951
 10
1485.045224455162
 20
760.8502906341803
 10
1485.045224455163
 20
938.2288127800928
 42
0.4142135623730951
 10
1469.045224455163
 20
954.2288127800928
 10
1316.640428852102
 20
954.2288127800928
 42
0.4142135623730951
 10
1300.640428852102
 20
938.2288127800928
 10
1300.640428852102
 20
760.8502906341803
 42
0.4142135623730951
1001
GENIUS_GENREC_14
1002
{
1000
PYDIR
1011
1300.640428852102
1021
954.2288127800928
1031
0.0
1002
}
1002
{
1000
PXDIR
1011
1485.045224455162
1021
744.8502906341802
1031
0.0
1002
}
1002
{
1000
PORI
1011
1300.640428852102
1021
744.8502906341802
1031
0.0
1002
}
1002
{
1000
PINS
1011
1300.640428852102
1021
744.8502906341802
1031
0.0
1002
}
1002
{
1000
PINS2
1011
1485.045224455162
1021
954.2288127800928
1031
0.0
1002
}
1002
{
1000
C
1070
     1
1002
}
1001
GENIUS_GENODEF_13
1002
{
1000
HIER
1070
     0
1002
}
1002
{
1000
MANEDIT
1070
     0
1002
}
1002
{
1000
NOSEL
1070
     0
1002
}
1002
{
1000
BEHIND
1070
     0
1002
}
1002
{
1000
OTHER
1070
     0
1002
}
1002
{
1000
REACTOR
1002
}
1001
GENIUS_GENOBJ-N-REC_13
1002
{
1000
OWNER
1000
GEN
1002
}
  0
LINE
  5
14033
330
21
100
AcDbEntity
  8
AM_5
370
     9
100
AcDbLine
 10
1373.138047025358
 20
810.9051286815532
 30
0.0
 11
1373.138047025358
 21
789.8895721746726
 31
0.0
  0
LINE
  5
14034
330
21
100
AcDbEntity
  8
AM_5
370
     9
100
AcDbLine
 10
1438.13804109301
 20
810.9051286815532
 30
0.0
 11
1438.13804109301
 21
789.8895721746726
 31
0.0
  0
LINE
  5
14035
330
21
100
AcDbEntity
  8
AM_5
370
     9
100
AcDbLine
 10
1379.138047025358
 20
793.8895721746726
 30
0.0
 11
1432.13804109301
 21
793.8895721746726
 31
0.0
  0
LINE
  5
14036
330
21
100
AcDbEntity
  8
AM_5
370
     9
100
AcDbLine
 10
1379.138047025358
 20
792.8895721746727
 30
0.0
 11
1373.138047025358
 21
793.8895721746726
 31
0.0
  0
LINE
  5
14037
330
21
100
AcDbEntity
  8
AM_5
370
     9
100
AcDbLine
 10
1379.138047025358
 20
794.8895721746727
 30
0.0
 11
1373.138047025358
 21
793.8895721746726
 31
0.0
  0
LINE
  5
14038
330
21
100
AcDbEntity
  8
AM_5
370
     9
100
AcDbLine
 10
1373.138047025358
 20
793.8895721746726
 30
0.0
 11
1379.138047025358
 21
793.8895721746726
 31
0.0
  0
LINE
  5
14039
330
21
100
AcDbEntity
  8
AM_5
370
     9
100
AcDbLine
 10
1432.13804109301
 20
794.8895721746727
 30
0.0
 11
1438.13804109301
 21
793.8895721746726
 31
0.0
  0
LINE
  5
1403A
330
21
100
AcDbEntity
  8
AM_5
370
     9
100
AcDbLine
 10
1432.13804109301
 20
792.8895721746727
 30
0.0
 11
1438.13804109301
 21
793.8895721746726
 31
0.0
  0
LINE
  5
1403B
330
21
100
AcDbEntity
  8
AM_5
370
     9
100
AcDbLine
 10
1438.13804109301
 20
793.8895721746726
 30
0.0
 11
1432.13804109301
 21
793.8895721746726
 31
0.0
  0
TEXT
  5
1403C
330
21
100
AcDbEntity
  8
AM_5
100
AcDbText
 10
1393.018996440136
 20
797.8895721746726
 30
0.0
 40
10.0
  1
\U+220565
100
AcDbText
  0
TEXT
  5
1403D
330
21
100
AcDbEntity
  8
文字
100
AcDbText
 10
1314.54121423574
 20
881.1491530343895
 30
0.0
 40
10.0
  1
パイプネジ
 41
0.8
  7
0.8横
100
AcDbText
  0
TEXT
  5
1403E
330
21
100
AcDbEntity
  8
文字
100
AcDbText
 10
1314.476952589673
 20
813.6693390187296
 30
0.0
 40
10.0
  1
ワッシャー
 41
0.8
  7
0.8横
100
AcDbText
  0
TEXT
  5
1403F
330
21
100
AcDbEntity
  8
文字
100
AcDbText
 10
1314.476952589673
 20
768.2762178881572
 30
0.0
 40
10.0
  1
六角ナット
 41
0.8
  7
0.8横
100
AcDbText
  0
LWPOLYLINE
  5
14040
330
21
100
AcDbEntity
  8
仮想線
  6
HIDDEN
 48
0.5
100
AcDbPolyline
 90
        8
 70
     1
 43
0.0
 10
1321.425977567979
 20
921.2673460673382
 10
1337.42597756798
 20
921.2673460673384
 42
0.4142135623730951
 10
1341.425977567979
 20
925.2673460673383
 10
1341.425977567979
 20
941.267346067338
 42
0.4142135623730898
 10
1337.425977567979
 20
945.2673460673379
 10
1321.42597756798
 20
945.2673460673375
 42
0.4142135623730897
 10
1317.42597756798
 20
941.2673460673371
 10
1317.425977567979
 20
925.267346067338
 42
0.4142135623731005
1001
GENIUS_GENREC_14
1002
{
1000
PYDIR
1011
1317.42597756798
1021
945.2673460673375
1031
0.0
1002
}
1002
{
1000
PXDIR
1011
1341.425977567979
1021
921.2673460673382
1031
0.0
1002
}
1002
{
1000
PORI
1011
1317.42597756798
1021
921.2673460673382
1031
0.0
1002
}
1002
{
1000
PINS
1011
1317.42597756798
1021
921.2673460673382
1031
0.0
1002
}
1002
{
1000
HVAL
1000
30
1002
}
1002
{
1000
H
1070
     2
1002
}
1002
{
1000
WVAL
1000
30
1002
}
1002
{
1000
W
1070
     2
1002
}
1002
{
1000
C
1070
     1
1002
}
1001
GENIUS_GENOBJ-N-REC_13
1002
{
1000
OWNER
1000
GEN
1002
}
1001
GENIUS_GENODEF_13
1002
{
1000
HIER
1070
     0
1002
}
1002
{
1000
MANEDIT
1070
     0
1002
}
1002
{
1000
NOSEL
1070
     0
1002
}
1002
{
1000
BEHIND
1070
     0
1002
}
1002
{
1000
OTHER
1070
     0
1002
}
1002
{
1000
REACTOR
1002
}
  0
LWPOLYLINE
  5
14041
330
21
100
AcDbEntity
  8
0
100
AcDbPolyline
 90
        8
 70
     1
 43
0.0
 10
1270.088283298281
 20
550.3467918221629
 10
1285.088283298281
 20
550.3467918221631
 10
1285.588283298281
 20
550.8467918221631
 10
1285.588283298281
 20
585.8467918221629
 10
1285.088283298281
 20
586.3467918221629
 10
1270.088283298281
 20
586.3467918221629
 10
1269.088283298281
 20
585.3467918221629
 10
1269.088283298281
 20
551.3467918221627
1001
GENIUS_GENREC_14
1002
{
1000
PYDIR
1011
1269.088283298281
1021
586.3467918221629
1031
0.0
1002
}
1002
{
1000
PXDIR
1011
1285.588283298281
1021
550.3467918221629
1031
0.0
1002
}
1002
{
1000
PORI
1011
1269.088283298281
1021
550.3467918221629
1031
0.0
1002
}
1002
{
1000
PINS
1011
1269.088283298281
1021
550.3467918221629
1031
0.0
1002
}
1002
{
1000
HVAL
1000
36
1002
}
1002
{
1000
H
1070
     2
1002
}
1002
{
1000
WVAL
1000
16.5
1002
}
1002
{
1000
W
1070
     2
1002
}
1002
{
1000
C
1070
     1
1002
}
1001
GENIUS_GENOBJ-N-REC_13
1002
{
1000
OWNER
1000
GEN
1002
}
1001
GENIUS_GENODEF_13
1002
{
1000
HIER
1070
     0
1002
}
1002
{
1000
MANEDIT
1070
     0
1002
}
1002
{
1000
NOSEL
1070
     0
1002
}
1002
{
1000
BEHIND
1070
     0
1002
}
1002
{
1000
OTHER
1070
     0
1002
}
1002
{
1000
REACTOR
1002
}
1001
GENIUS_GENOREF_13
1005
0
  0
LINE
  5
14042
330
21
100
AcDbEntity
  8
弱線
100
AcDbLine
 10
1285.088283298281
 20
586.3467918221629
 30
0.0
 11
1285.088283298281
 21
550.3467918221631
 31
0.0
  0
LINE
  5
14043
330
21
100
AcDbEntity
  8
弱線
100
AcDbLine
 10
1270.088283298281
 20
550.3467918221629
 30
0.0
 11
1270.088283298281
 21
586.3467918221629
 31
0.0
  0
LINE
  5
14044
330
21
100
AcDbEntity
  8
弱線
100
AcDbLine
 10
1270.088283298281
 20
586.3031252396686
 30
0.0
 11
1285.088283298281
 21
586.3031252396686
 31
0.0
  0
LINE
  5
14045
330
21
100
AcDbEntity
  8
弱線
100
AcDbLine
 10
1270.088283298281
 20
586.015586665244
 30
0.0
 11
1285.088283298281
 21
586.015586665244
 31
0.0
  0
LINE
  5
14046
330
21
100
AcDbEntity
  8
弱線
100
AcDbLine
 10
1270.088283298281
 20
585.3669693659342
 30
0.0
 11
1285.088283298281
 21
585.3669693659342
 31
0.0
  0
LINE
  5
14047
330
21
100
AcDbEntity
  8
弱線
100
AcDbLine
 10
1270.088283298281
 20
584.5239489213272
 30
0.0
 11
1285.088283298281
 21
584.5239489213272
 31
0.0
  0
LINE
  5
14048
330
21
100
AcDbEntity
  8
弱線
100
AcDbLine
 10
1270.088283298281
 20
583.2709165197655
 30
0.0
 11
1285.088283298281
 21
583.2709165197655
 31
0.0
  0
LINE
  5
14049
330
21
100
AcDbEntity
  8
弱線
100
AcDbLine
 10
1270.088283298281
 20
581.9298646551185
 30
0.0
 11
1285.088283298281
 21
581.9298646551185
 31
0.0
  0
LINE
  5
1404A
330
21
100
AcDbEntity
  8
弱線
100
AcDbLine
 10
1270.088283298281
 20
580.1578092387367
 30
0.0
 11
1285.088283298281
 21
580.1578092387367
 31
0.0
  0
LINE
  5
1404B
330
21
100
AcDbEntity
  8
弱線
100
AcDbLine
 10
1270.088283298281
 20
578.4101164224337
 30
0.0
 11
1285.088283298281
 21
578.4101164224337
 31
0.0
  0
LINE
  5
1404C
330
21
100
AcDbEntity
  8
弱線
100
AcDbLine
 10
1270.088283298281
 20
576.2398006393977
 30
0.0
 11
1285.088283298281
 21
576.2398006393977
 31
0.0
  0
LINE
  5
1404D
330
21
100
AcDbEntity
  8
弱線
100
AcDbLine
 10
1270.088283298281
 20
574.2045692486699
 30
0.0
 11
1285.088283298281
 21
574.2045692486699
 31
0.0
  0
LINE
  5
1404E
330
21
100
AcDbEntity
  8
弱線
100
AcDbLine
 10
1270.088283298281
 20
571.7838965329782
 30
0.0
 11
1285.088283298281
 21
571.7838965329782
 31
0.0
  0
LINE
  5
1404F
330
21
100
AcDbEntity
  8
弱線
100
AcDbLine
 10
1270.088283298281
 20
569.5998242237249
 30
0.0
 11
1285.088283298281
 21
569.5998242237249
 31
0.0
  0
LINE
  5
14050
330
21
100
AcDbEntity
  8
弱線
100
AcDbLine
 10
1270.088283298281
 20
550.3904584046572
 30
0.0
 11
1285.088283298281
 21
550.3904584046572
 31
0.0
  0
LINE
  5
14051
330
21
100
AcDbEntity
  8
弱線
100
AcDbLine
 10
1270.088283298281
 20
550.6779969790819
 30
0.0
 11
1285.088283298281
 21
550.6779969790819
 31
0.0
  0
LINE
  5
14052
330
21
100
AcDbEntity
  8
弱線
100
AcDbLine
 10
1270.088283298281
 20
551.3266142783914
 30
0.0
 11
1285.088283298281
 21
551.3266142783914
 31
0.0
  0
LINE
  5
14053
330
21
100
AcDbEntity
  8
弱線
100
AcDbLine
 10
1270.088283298281
 20
552.1696347229982
 30
0.0
 11
1285.088283298281
 21
552.1696347229982
 31
0.0
  0
LINE
  5
14054
330
21
100
AcDbEntity
  8
弱線
100
AcDbLine
 10
1270.088283298281
 20
553.4226671245603
 30
0.0
 11
1285.088283298281
 21
553.4226671245603
 31
0.0
  0
LINE
  5
14055
330
21
100
AcDbEntity
  8
弱線
100
AcDbLine
 10
1270.088283298281
 20
554.7637189892071
 30
0.0
 11
1285.088283298281
 21
554.7637189892071
 31
0.0
  0
LINE
  5
14056
330
21
100
AcDbEntity
  8
弱線
100
AcDbLine
 10
1270.088283298281
 20
556.5357744055888
 30
0.0
 11
1285.088283298281
 21
556.5357744055888
 31
0.0
  0
LINE
  5
14057
330
21
100
AcDbEntity
  8
弱線
100
AcDbLine
 10
1270.088283298281
 20
558.2834672218917
 30
0.0
 11
1285.088283298281
 21
558.2834672218917
 31
0.0
  0
LINE
  5
14058
330
21
100
AcDbEntity
  8
弱線
100
AcDbLine
 10
1270.088283298281
 20
560.4537830049276
 30
0.0
 11
1285.088283298281
 21
560.4537830049276
 31
0.0
  0
LINE
  5
14059
330
21
100
AcDbEntity
  8
弱線
100
AcDbLine
 10
1270.088283298281
 20
562.4890143956559
 30
0.0
 11
1285.088283298281
 21
562.4890143956559
 31
0.0
  0
LINE
  5
1405A
330
21
100
AcDbEntity
  8
弱線
100
AcDbLine
 10
1270.088283298281
 20
564.9096871113472
 30
0.0
 11
1285.088283298281
 21
564.9096871113472
 31
0.0
  0
LINE
  5
1405B
330
21
100
AcDbEntity
  8
弱線
100
AcDbLine
 10
1270.088283298281
 20
567.0937594206009
 30
0.0
 11
1285.088283298281
 21
567.0937594206009
 31
0.0
  0
LWPOLYLINE
  5
1405C
330
21
100
AcDbEntity
  8
0
100
AcDbPolyline
 90
        8
 70
     1
 43
0.0
 10
989.3007779477413
 20
856.6485508221402
 10
989.3007779477413
 20
871.6485508221399
 10
988.8007779477412
 20
872.14855082214
 10
953.8007779477414
 20
872.14855082214
 10
953.3007779477417
 20
871.6485508221399
 10
953.3007779477417
 20
856.6485508221402
 10
954.3007779477417
 20
855.6485508221399
 10
988.3007779477416
 20
855.6485508221399
1001
GENIUS_GENREC_14
1002
{
1000
PYDIR
1011
953.3007779477417
1021
855.6485508221399
1031
0.0
1002
}
1002
{
1000
PXDIR
1011
989.3007779477413
1021
872.14855082214
1031
0.0
1002
}
1002
{
1000
PORI
1011
989.3007779477413
1021
855.6485508221399
1031
0.0
1002
}
1002
{
1000
PINS
1011
989.3007779477413
1021
855.6485508221399
1031
0.0
1002
}
1002
{
1000
HVAL
1000
36
1002
}
1002
{
1000
H
1070
     2
1002
}
1002
{
1000
WVAL
1000
16.5
1002
}
1002
{
1000
W
1070
     2
1002
}
1002
{
1000
C
1070
     1
1002
}
1001
GENIUS_GENOBJ-N-REC_13
1002
{
1000
OWNER
1000
GEN
1002
}
1001
GENIUS_GENODEF_13
1002
{
1000
HIER
1070
     0
1002
}
1002
{
1000
MANEDIT
1070
     0
1002
}
1002
{
1000
NOSEL
1070
     0
1002
}
1002
{
1000
BEHIND
1070
     0
1002
}
1002
{
1000
OTHER
1070
     0
1002
}
1002
{
1000
REACTOR
1002
}
1001
GENIUS_GENOREF_13
1005
0
  0
LINE
  5
1405D
330
21
100
AcDbEntity
  8
弱線
100
AcDbLine
 10
953.3007779477417
 20
871.6485508221399
 30
0.0
 11
989.3007779477413
 21
871.6485508221399
 31
0.0
  0
LINE
  5
1405E
330
21
100
AcDbEntity
  8
弱線
100
AcDbLine
 10
989.3007779477413
 20
856.6485508221402
 30
0.0
 11
953.3007779477417
 21
856.6485508221402
 31
0.0
  0
LINE
  5
1405F
330
21
100
AcDbEntity
  8
弱線
100
AcDbLine
 10
953.3444445302356
 20
856.6485508221402
 30
0.0
 11
953.3444445302356
 21
871.6485508221399
 31
0.0
  0
LINE
  5
14060
330
21
100
AcDbEntity
  8
弱線
100
AcDbLine
 10
953.6319831046602
 20
856.6485508221402
 30
0.0
 11
953.6319831046602
 21
871.6485508221399
 31
0.0
  0
LINE
  5
14061
330
21
100
AcDbEntity
  8
弱線
100
AcDbLine
 10
954.2806004039697
 20
856.6485508221402
 30
0.0
 11
954.2806004039697
 21
871.6485508221399
 31
0.0
  0
LINE
  5
14062
330
21
100
AcDbEntity
  8
弱線
100
AcDbLine
 10
955.123620848577
 20
856.6485508221402
 30
0.0
 11
955.123620848577
 21
871.6485508221399
 31
0.0
  0
LINE
  5
14063
330
21
100
AcDbEntity
  8
弱線
100
AcDbLine
 10
956.3766532501388
 20
856.6485508221402
 30
0.0
 11
956.3766532501388
 21
871.6485508221399
 31
0.0
  0
LINE
  5
14064
330
21
100
AcDbEntity
  8
弱線
100
AcDbLine
 10
957.7177051147858
 20
856.6485508221402
 30
0.0
 11
957.7177051147858
 21
871.6485508221399
 31
0.0
  0
LINE
  5
14065
330
21
100
AcDbEntity
  8
弱線
100
AcDbLine
 10
959.4897605311674
 20
856.6485508221402
 30
0.0
 11
959.4897605311674
 21
871.6485508221399
 31
0.0
  0
LINE
  5
14066
330
21
100
AcDbEntity
  8
弱線
100
AcDbLine
 10
961.2374533474703
 20
856.6485508221402
 30
0.0
 11
961.2374533474703
 21
871.6485508221399
 31
0.0
  0
LINE
  5
14067
330
21
100
AcDbEntity
  8
弱線
100
AcDbLine
 10
963.4077691305064
 20
856.6485508221402
 30
0.0
 11
963.4077691305064
 21
871.6485508221399
 31
0.0
  0
LINE
  5
14068
330
21
100
AcDbEntity
  8
弱線
100
AcDbLine
 10
965.4430005212345
 20
856.6485508221402
 30
0.0
 11
965.4430005212345
 21
871.6485508221399
 31
0.0
  0
LINE
  5
14069
330
21
100
AcDbEntity
  8
弱線
100
AcDbLine
 10
967.8636732369259
 20
856.6485508221402
 30
0.0
 11
967.8636732369259
 21
871.6485508221399
 31
0.0
  0
LINE
  5
1406A
330
21
100
AcDbEntity
  8
弱線
100
AcDbLine
 10
970.0477455461795
 20
856.6485508221402
 30
0.0
 11
970.0477455461795
 21
871.6485508221399
 31
0.0
  0
LINE
  5
1406B
330
21
100
AcDbEntity
  8
弱線
100
AcDbLine
 10
989.2571113652472
 20
856.6485508221402
 30
0.0
 11
989.2571113652472
 21
871.6485508221399
 31
0.0
  0
LINE
  5
1406C
330
21
100
AcDbEntity
  8
弱線
100
AcDbLine
 10
988.9695727908224
 20
856.6485508221402
 30
0.0
 11
988.9695727908224
 21
871.6485508221399
 31
0.0
  0
LINE
  5
1406D
330
21
100
AcDbEntity
  8
弱線
100
AcDbLine
 10
988.3209554915127
 20
856.6485508221402
 30
0.0
 11
988.3209554915127
 21
871.6485508221399
 31
0.0
  0
LINE
  5
1406E
330
21
100
AcDbEntity
  8
弱線
100
AcDbLine
 10
987.477935046906
 20
856.6485508221402
 30
0.0
 11
987.477935046906
 21
871.6485508221399
 31
0.0
  0
LINE
  5
1406F
330
21
100
AcDbEntity
  8
弱線
100
AcDbLine
 10
986.2249026453438
 20
856.6485508221402
 30
0.0
 11
986.2249026453438
 21
871.6485508221399
 31
0.0
  0
LINE
  5
14070
330
21
100
AcDbEntity
  8
弱線
100
AcDbLine
 10
984.8838507806972
 20
856.6485508221402
 30
0.0
 11
984.8838507806972
 21
871.6485508221399
 31
0.0
  0
LINE
  5
14071
330
21
100
AcDbEntity
  8
弱線
100
AcDbLine
 10
983.1117953643156
 20
856.6485508221402
 30
0.0
 11
983.1117953643156
 21
871.6485508221399
 31
0.0
  0
LINE
  5
14072
330
21
100
AcDbEntity
  8
弱線
100
AcDbLine
 10
981.3641025480123
 20
856.6485508221402
 30
0.0
 11
981.3641025480123
 21
871.6485508221399
 31
0.0
  0
LINE
  5
14073
330
21
100
AcDbEntity
  8
弱線
100
AcDbLine
 10
979.1937867649766
 20
856.6485508221402
 30
0.0
 11
979.1937867649766
 21
871.6485508221399
 31
0.0
  0
LINE
  5
14074
330
21
100
AcDbEntity
  8
弱線
100
AcDbLine
 10
977.1585553742484
 20
856.6485508221402
 30
0.0
 11
977.1585553742484
 21
871.6485508221399
 31
0.0
  0
LINE
  5
14075
330
21
100
AcDbEntity
  8
弱線
100
AcDbLine
 10
974.7378826585569
 20
856.6485508221402
 30
0.0
 11
974.7378826585569
 21
871.6485508221399
 31
0.0
  0
LINE
  5
14076
330
21
100
AcDbEntity
  8
弱線
100
AcDbLine
 10
972.5538103493034
 20
856.6485508221402
 30
0.0
 11
972.5538103493034
 21
871.6485508221399
 31
0.0
  0
INSERT
  5
141CE
330
21
100
AcDbEntity
  8
0
100
AcDbBlockReference
  2
A$C483F6562
 10
926.3025369477142
 20
252.646791822171
 30
0.0
 41
4.0
 42
4.0
 43
4.0
  0
ENDSEC
  0
SECTION
  2
OBJECTS
  0
DICTIONARY
  5
C
330
0
100
AcDbDictionary
281
     1
  3
ACAD_2007HEADERVARS_RT
350
14BAD
  3
ACAD_CIP_PREVIOUS_PRODUCT_INFO
350
12F3D
  3
ACAD_COLOR
350
1C
  3
ACAD_DETAILVIEWSTYLE
350
12F2F
  3
ACAD_FIELDLIST
350
1303C
  3
ACAD_GROUP
350
D
  3
ACAD_LAYOUT
350
1A
  3
ACAD_MATERIAL
350
1B
  3
ACAD_MLEADERSTYLE
350
1C5D
  3
ACAD_MLINESTYLE
350
17
  3
ACAD_PLOTSETTINGS
350
19
  3
ACAD_PLOTSTYLENAME
350
E
  3
ACAD_SCALELIST
350
1C3B
  3
ACAD_SECTIONVIEWSTYLE
350
12F2D
  3
ACAD_TABLESTYLE
350
1047
  3
ACAD_VISUALSTYLE
350
1036
  3
ACDB_RECOMPOSE_DATA
350
14BAB
  3
AcDbVariableDictionary
350
106A
  3
AcmDictionary
350
87
  3
AEC_PROPERTY_SET_DEFS
350
C74F
  3
AMG
350
2D
  3
AMGSNAPSETTINGS
350
3BD
  3
ASE_INDEX_DICTIONARY
350
AEBF
  3
DWGPROPS
350
14BAC
  0
DICTIONARY
  5
14F
330
2
100
AcDbDictionary
280
     1
281
     1
  3
ACAD_LAYERFILTERS
360
ADE9
  3
ACAD_LAYERSTATES
360
150
  3
ACLYDICTIONARY
360
ADE8
  3
AMLAYER_GROUPCOLORS
360
2F0D
  0
DICTIONARY
  5
2312
330
10
100
AcDbDictionary
280
     1
281
     1
  3
ADSK_XREC_LAYER_RECONCILED
360
2313
  0
DICTIONARY
  5
231E
330
132
100
AcDbDictionary
280
     1
281
     1
  3
ADSK_XREC_LAYER_RECONCILED
360
231F
  0
DICTIONARY
  5
2920
330
291F
100
AcDbDictionary
280
     1
281
     1
  0
DICTIONARY
  5
2922
330
2921
100
AcDbDictionary
280
     1
281
     1
  0
DICTIONARY
  5
6F74
330
6F73
100
AcDbDictionary
280
     1
281
     1
  0
DICTIONARY
  5
84BC
330
84BB
100
AcDbDictionary
280
     1
281
     1
  0
DICTIONARY
  5
E16F
330
E16E
100
AcDbDictionary
280
     1
281
     1
  0
DICTIONARY
  5
B54
330
21
100
AcDbDictionary
280
     1
281
     1
  3
ACAD_SORTENTS
360
108E
  0
DICTIONARY
  5
141CA
330
1415C
100
AcDbDictionary
280
     1
281
     1
  3
ACAD_SORTENTS
360
148FC
  0
DICTIONARY
  5
14BAD
102
{ACAD_REACTORS
330
C
102
}
330
C
100
AcDbDictionary
281
     1
  3
INTERFEREVPVS
350
14BAE
  0
XRECORD
  5
12F3D
102
{ACAD_REACTORS
330
C
102
}
330
C
100
AcDbXrecord
280
     1
300
AMECH_PP
300
2014
300
PDSP_F_S
  0
DICTIONARY
  5
1C
102
{ACAD_REACTORS
330
C
102
}
330
C
100
AcDbDictionary
281
     1
  0
DICTIONARY
  5
12F2F
102
{ACAD_REACTORS
330
C
102
}
330
C
100
AcDbDictionary
281
     1
  3
Imperial24
350
130B8
  3
Metric50
350
12F30
  0
FIELDLIST
  5
1303C
102
{ACAD_REACTORS
330
C
102
}
330
C
100
AcDbIdSet
 90
        3
330
14B9F
330
14BA0
330
14BA1
100
AcDbFieldList
  0
DICTIONARY
  5
D
102
{ACAD_REACTORS
330
C
102
}
330
C
100
AcDbDictionary
281
     1
  0
DICTIONARY
  5
1A
102
{ACAD_REACTORS
330
C
102
}
330
C
100
AcDbDictionary
281
     1
  3
Model
350
24
  3
レイアウト1
350
14442
  0
DICTIONARY
  5
1B
102
{ACAD_REACTORS
330
C
102
}
330
C
100
AcDbDictionary
281
     1
  3
ByBlock
350
1034
  3
ByLayer
350
1033
  3
Global
350
1035
  0
DICTIONARY
  5
1C5D
102
{ACAD_REACTORS
330
C
102
}
330
C
100
AcDbDictionary
281
     1
  3
Standard
350
1C5E
  0
DICTIONARY
  5
17
102
{ACAD_REACTORS
330
C
102
}
330
C
100
AcDbDictionary
281
     1
  3
Standard
350
18
  0
DICTIONARY
  5
19
102
{ACAD_REACTORS
330
C
102
}
330
C
100
AcDbDictionary
281
     1
  3
PDF-A4
350
1232A
  0
ACDBDICTIONARYWDFLT
  5
E
102
{ACAD_REACTORS
330
C
102
}
330
C
100
AcDbDictionary
281
     1
  3
Normal
350
F
100
AcDbDictionaryWithDefault
340
F
  0
DICTIONARY
  5
1C3B
102
{ACAD_REACTORS
330
C
102
}
330
C
100
AcDbDictionary
281
     1
  3
A0
350
4F36
  3
A1
350
1C3C
  3
A2
350
4294
  3
A3
350
4295
  3
A4
350
12F40
  3
A5
350
12F41
  3
A6
350
12F42
  3
A7
350
12F43
  3
A8
350
12F44
  3
A9
350
12F45
  3
B0
350
12F46
  3
B1
350
12F47
  3
B2
350
12F48
  3
B3
350
12F49
  3
B4
350
12F4A
  3
B5
350
12F4B
  3
B6
350
12F4C
  3
B7
350
12F4D
  0
DICTIONARY
  5
12F2D
102
{ACAD_REACTORS
330
C
102
}
330
C
100
AcDbDictionary
281
     1
  3
Imperial24
350
130B6
  3
Metric50
350
12F2E
  0
DICTIONARY
  5
1047
102
{ACAD_REACTORS
330
C
102
}
330
C
100
AcDbDictionary
281
     1
  3
Standard
350
1048
  0
DICTIONARY
  5
1036
102
{ACAD_REACTORS
330
C
102
}
330
C
100
AcDbDictionary
281
     1
  3
2dWireframe
350
103C
  3
3D Hidden
350
103E
  3
3dWireframe
350
103D
  3
Basic
350
103B
  3
Brighten
350
1042
  3
ColorChange
350
1046
  3
Conceptual
350
103F
  3
Dim
350
1041
  3
EdgeColorOff
350
12F2C
  3
Facepattern
350
1045
  3
Flat
350
1037
  3
FlatWithEdges
350
1038
  3
Gouraud
350
1039
  3
GouraudWithEdges
350
103A
  3
Hidden
350
12F24
  3
JitterOff
350
12F2A
  3
Linepattern
350
1044
  3
OverhangOff
350
12F2B
  3
Realistic
350
1040
  3
Shaded
350
12F29
  3
Shaded with edges
350
12F28
  3
Shades of Gray
350
12F25
  3
Sketchy
350
12F26
  3
Thicken
350
1043
  3
Wireframe
350
12F23
  3
X-Ray
350
12F27
  0
XRECORD
  5
14BAB
102
{ACAD_REACTORS
330
C
102
}
330
C
100
AcDbXrecord
280
     1
 90
        1
330
1048
  0
DICTIONARY
  5
106A
102
{ACAD_REACTORS
330
C
102
}
330
C
100
AcDbDictionary
281
     1
  3
CANNOSCALE
350
232A
  3
CMLEADERSTYLE
350
2328
  3
CTABLESTYLE
350
106B
  3
CVIEWDETAILSTYLE
350
12F8F
  3
CVIEWSECTIONSTYLE
350
12F90
  3
DIMASSOC
350
146BE
  3
HIDETEXT
350
146BC
  3
INDEXCTL
350
146BB
  3
LAYEREVAL
350
12F91
  3
LAYERNOTIFY
350
12F92
  3
LIGHTINGUNITS
350
232B
  3
MSLTSCALE
350
2329
  3
SOLIDHIST
350
146BF
  3
SORTENTS
350
146BA
  3
XCLIPFRAME
350
14BA9
  0
DICTIONARY
  5
87
102
{ACAD_REACTORS
330
C
102
}
330
C
100
AcDbDictionary
281
     1
  3
AcmStdDictionary
350
8B
  3
AMDTSECTSYM_ARROWCOLOR
350
105E
  0
DICTIONARY
  5
C74F
102
{ACAD_REACTORS
330
C
102
}
330
C
100
AcDbDictionary
281
     1
  0
DICTIONARY
  5
2D
102
{ACAD_REACTORS
330
C
102
}
330
C
100
AcDbDictionary
281
     1
  0
DICTIONARY
  5
3BD
102
{ACAD_REACTORS
330
C
102
}
330
C
100
AcDbDictionary
281
     1
  0
DICTIONARY
  5
AEBF
102
{ACAD_REACTORS
330
C
102
}
330
C
100
AcDbDictionary
281
     1
  3
ASEBlockHierarchyIndexRecord
350
AEC0
1001
DCO15
1040
1702825088.015
  0
XRECORD
  5
14BAC
102
{ACAD_REACTORS
330
C
102
}
330
C
100
AcDbXrecord
280
     1
  1
DWGPROPS COOKIE
  2

  3

  4

  6

  7

  8
HONPC031
  9

300
=
301
=
302
=
303
=
304
=
305
=
306
=
307
=
308
=
309
=
 40
2.461726666666666
 41
2453620.443977141
 42
2456669.445237917
  1

 90
        0
  0
DICTIONARY
  5
ADE9
102
{ACAD_REACTORS
330
14F
102
}
330
14F
100
AcDbDictionary
281
     1
  0
DICTIONARY
  5
150
102
{ACAD_REACTORS
330
14F
102
}
330
14F
100
AcDbDictionary
281
     1
  3
ACAD_VIEWS_セッティングイメージ
350
6F8E
  3
ニットク標準
350
151
  0
DICTIONARY
  5
ADE8
102
{ACAD_REACTORS
330
14F
102
}
330
14F
100
AcDbDictionary
281
     1
1001
ACAD
1000
<All
  0
DICTIONARY
  5
2F0D
102
{ACAD_REACTORS
330
14F
102
}
330
14F
100
AcDbDictionary
280
     1
281
     1
  0
XRECORD
  5
2313
102
{ACAD_REACTORS
330
2312
102
}
330
2312
100
AcDbXrecord
280
     1
290
     1
  0
XRECORD
  5
231F
102
{ACAD_REACTORS
330
231E
102
}
330
231E
100
AcDbXrecord
280
     1
290
     1
  0
SORTENTSTABLE
  5
108E
102
{ACAD_REACTORS
330
B54
102
}
330
B54
100
AcDbSortentsTable
330
21
331
13E84
  5
14038
331
14065
  5
14053
331
14026
  5
14094
331
13E80
  5
14034
331
14061
  5
1404F
331
13EBF
  5
14049
331
14022
  5
14090
331
13E7C
  5
14030
331
1405D
  5
1404B
331
13EBB
  5
14045
331
13E78
  5
1402C
331
14059
  5
14025
331
13EB7
  5
14041
331
1401E
  5
1408C
331
1401A
  5
13ED8
331
13E74
  5
14028
331
14055
  5
14021
331
14016
  5
13ED4
331
13E70
  5
14008
331
13EAF
  5
13FF7
331
14051
  5
1401D
331
14012
  5
13ED0
331
13E6C
  5
14004
331
13EAB
  5
13FF3
331
1404D
  5
14018
331
13E68
  5
14000
331
14049
  5
14014
331
13EA7
  5
13FEF
331
1400E
  5
13ECC
331
13EA3
  5
13FEB
331
14045
  5
14010
331
13E9F
  5
13FE7
331
14041
  5
1400B
331
13E9B
  5
13FE3
331
1403D
  5
140AB
331
135E0
  5
140B0
331
14039
  5
140A7
331
13ED2
  5
14076
331
13E97
  5
13FDF
331
13E93
  5
13FDB
331
14035
  5
140A3
331
14074
  5
14062
331
135DC
  5
14088
331
13E8F
  5
13FD7
331
135D8
  5
14084
331
14031
  5
1409F
331
14070
  5
1405E
331
135D4
  5
14080
331
13E8B
  5
13FD3
331
1402D
  5
1409B
331
1406C
  5
1405A
331
14068
  5
14056
331
135D0
  5
1407C
331
14029
  5
14097
331
13ECE
  5
14072
331
13ECA
  5
1406E
331
13EC6
  5
1406A
331
6A60
  5
768B
331
13E87
  5
1403B
331
13E83
  5
14037
331
14064
  5
14052
331
14025
  5
14093
331
13E7F
  5
14033
331
13EBE
  5
14048
331
14060
  5
1404E
331
14021
  5
1408F
331
13E7B
  5
1402F
331
1405C
  5
1404A
331
13EBA
  5
14044
331
14058
  5
14024
331
13EB6
  5
14040
331
13E77
  5
1402B
331
1401D
  5
1408B
331
14019
  5
13ED7
331
13EB2
  5
13FFA
331
14054
  5
14020
331
14015
  5
13ED3
331
13E6F
  5
14007
331
13EAE
  5
13FF6
331
14050
  5
1401C
331
14011
  5
13ECF
331
13E6B
  5
14003
331
1404C
  5
14017
331
13EAA
  5
13FF2
331
14048
  5
14013
331
C7AB
  5
13FD2
331
13EA6
  5
13FEE
331
13E67
  5
13FFF
331
1400D
  5
13ECB
331
13EA2
  5
13FEA
331
14044
  5
1400F
331
13E9E
  5
13FE6
331
14040
  5
140AE
331
13E9A
  5
13FE2
331
1403C
  5
140AA
331
14038
  5
140A6
331
13ED1
  5
14075
331
8437
  5
768A
331
13E96
  5
13FDE
331
135DF
  5
140AF
331
13E92
  5
13FDA
331
14034
  5
140A2
331
14073
  5
14061
331
135DB
  5
14087
331
13E8E
  5
13FD6
331
135D7
  5
14083
331
14030
  5
1409E
331
1406F
  5
1405D
331
135D3
  5
1407F
331
1402C
  5
1409A
331
1406B
  5
14059
331
14028
  5
14096
331
13ECD
  5
14071
331
13EC9
  5
1406D
331
13EC5
  5
14069
331
13EC1
  5
14065
331
135CF
  5
1407B
331
14067
  5
14055
331
13E86
  5
1403A
331
13E82
  5
14036
331
14063
  5
14051
331
14024
  5
14092
331
13E7E
  5
14032
331
13EBD
  5
14047
331
1405F
  5
1404D
331
14020
  5
1408E
331
13E7A
  5
1402E
331
1405B
  5
14027
331
13EB9
  5
14043
331
13EB5
  5
1403F
331
14057
  5
14023
331
13E76
  5
1402A
331
1401C
  5
1408A
331
14018
  5
13ED6
331
13EB1
  5
13FF9
331
13E72
  5
1400A
331
14053
  5
1401F
331
14014
  5
13ED2
331
13E6E
  5
14006
331
13EAD
  5
13FF5
331
1404F
  5
1401B
331
14010
  5
13ECE
331
13E6A
  5
14002
331
1404B
  5
14016
331
13EA9
  5
13FF1
331
C7AA
  5
13FD1
331
13EA5
  5
13FED
331
14047
  5
14012
331
13E66
  5
13FFE
331
1400C
  5
13ECA
331
13EA1
  5
13FE9
331
14043
  5
1400D
331
13E9D
  5
13FE5
331
1403F
  5
140AD
331
1403B
  5
140A9
331
13E99
  5
13FE1
331
13ED4
  5
14078
331
13ED0
  5
14074
331
13E95
  5
13FDD
331
14076
  5
14064
331
14037
  5
140A5
331
13E91
  5
13FD9
331
135DA
  5
14086
331
14033
  5
140A1
331
14072
  5
14060
331
135D6
  5
14082
331
13E8D
  5
13FD5
331
1402F
  5
1409D
331
1406E
  5
1405C
331
135D2
  5
1407E
331
13E89
  5
1403D
331
1402B
  5
14099
331
1406A
  5
14058
331
13ECC
  5
14070
331
13EC8
  5
1406C
331
13EC4
  5
14068
331
135CE
  5
1407A
331
13E85
  5
14039
331
14066
  5
14054
331
13E81
  5
14035
331
14027
  5
14095
331
14062
  5
14050
331
14023
  5
14091
331
13E7D
  5
14031
331
13EBC
  5
14046
331
1405E
  5
1404C
331
13EB8
  5
14042
331
13E79
  5
1402D
331
1405A
  5
14026
331
1401F
  5
1408D
331
1401B
  5
13EDA
331
14056
  5
14022
331
13E75
  5
14029
331
14017
  5
13ED5
331
13E71
  5
14009
331
13EB0
  5
13FF8
331
14052
  5
1401E
331
14013
  5
13ED1
331
13E6D
  5
14005
331
13EAC
  5
13FF4
331
1404E
  5
1401A
331
13E69
  5
14001
331
1404A
  5
14015
331
13EA8
  5
13FF0
331
1400F
  5
13ECD
331
13EA4
  5
13FEC
331
14046
  5
14011
331
13E65
  5
13FFD
331
13EA0
  5
13FE8
331
14042
  5
1400C
331
13E9C
  5
13FE4
331
1403E
  5
140AC
331
1403A
  5
140A8
331
13E98
  5
13FE0
331
13ED3
  5
14077
331
8435
  5
7688
331
13E94
  5
13FDC
331
14036
  5
140A4
331
14075
  5
14063
331
135DD
  5
14089
331
13E90
  5
13FD8
331
135D9
  5
14085
331
14032
  5
140A0
331
14071
  5
1405F
331
135D5
  5
14081
331
13E8C
  5
13FD4
331
1402E
  5
1409C
331
1406D
  5
1405B
331
14069
  5
14057
331
135D1
  5
1407D
331
1402A
  5
14098
331
13E88
  5
1403C
331
13ECF
  5
14073
331
13ECB
  5
1406F
331
13EC7
  5
1406B
331
13EC3
  5
14067
  0
SORTENTSTABLE
  5
148FC
102
{ACAD_REACTORS
330
141CA
102
}
330
141CA
100
AcDbSortentsTable
330
1415C
  0
XRECORD
  5
14BAE
102
{ACAD_REACTORS
330
14BAD
102
}
330
14BAD
100
AcDbXrecord
280
     1
340
103D
  0
ACDBDETAILVIEWSTYLE
  5
130B8
102
{ACAD_XDICTIONARY
360
14BEE
102
}
102
{ACAD_REACTORS
330
12F2F
330
14B98
102
}
330
12F2F
100
AcDbModelDocViewStyle
 70
     0
  3
Imperial24
290
     0
100
AcDbDetailViewStyle
 70
     0
 71
     0
 90
        3
 71
     1
340
11
 40
0.24
340
0
 40
0.24
300

 40
0.36
280
     3
 71
     2
340
16
 90
       25
 71
     3
340
11
 40
0.24
 90
        1
 40
0.75
 90
        1
300
%<\AcVar ViewType \f "%tc1">% %<\AcVar ViewDetailId>%\PSCALE %<\AcVar ViewScale \f "%sn">%
 71
     4
340
16
 90
       25
340
16
 90
       25
280
     0
  0
ACDBDETAILVIEWSTYLE
  5
12F30
102
{ACAD_XDICTIONARY
360
14BEA
102
}
102
{ACAD_REACTORS
330
12F2F
330
14B99
102
}
330
12F2F
100
AcDbModelDocViewStyle
 70
     0
  3
Metric50
290
     0
100
AcDbDetailViewStyle
 70
     0
 71
     0
 90
        3
 71
     1
340
11
 40
5.0
340
0
 40
5.0
300

 40
0.0
280
     1
 71
     2
340
16
 90
       25
 71
     3
340
11
 40
5.0
 90
        0
 40
15.0
 90
        1
300
%<\AcVar ViewDetailId>% (%<\AcVar ViewScale \f "%sn">%)
 71
     4
340
16
 90
       25
340
16
 90
       25
280
     0
  0
LAYOUT
  5
24
102
{ACAD_XDICTIONARY
360
14BAF
102
}
102
{ACAD_REACTORS
330
1A
102
}
330
1A
100
AcDbPlotSettings
  1

  2
none_device
  4
ISO_A4_(210.00_x_297.00_MM)
  6

 40
7.5
 41
20.0
 42
7.5
 43
20.0
 44
210.0
 45
297.0
 46
0.0
 47
0.0
 48
0.0
 49
0.0
140
0.0
141
0.0
142
1.0
143
8.454361574566588
 70
 11952
 72
     1
 73
     1
 74
     0
  7

 75
     0
147
0.1182821424397459
148
-254.3884169977614
149
215.582558771124
100
AcDbLayout
  1
Model
 70
     1
 71
     0
 10
0.0
 20
0.0
 11
12.0
 21
9.0
 12
0.0
 22
0.0
 32
0.0
 14
0.0
 24
0.0
 34
0.0
 15
0.0
 25
0.0
 35
0.0
146
0.0
 13
0.0
 23
0.0
 33
0.0
 16
1.0
 26
0.0
 36
0.0
 17
0.0
 27
1.0
 37
0.0
 76
     0
330
21
331
1031
1001
ACAD_PSEXT
1000
なし
1000
なし
1000
適切ではありません
1000
新しいプロッタ環境設定名を選択しない限り、レイアウトは印刷されません。
1070
     0
  0
LAYOUT
  5
14442
102
{ACAD_XDICTIONARY
360
14BF0
102
}
102
{ACAD_REACTORS
330
1A
102
}
330
1A
100
AcDbPlotSettings
  1

  2
EPSON EP-802A
  4

  6

 40
0.0
 41
0.0
 42
0.0
 43
0.0
 44
0.0
 45
0.0
 46
0.0
 47
0.0
 48
0.0
 49
0.0
140
0.0
141
0.0
142
1.0
143
1.0
 70
   688
 72
     0
 73
     0
 74
     5
  7

 75
    16
147
1.0
148
0.0
149
0.0
100
AcDbLayout
  1
レイアウト1
 70
     1
 71
     1
 10
0.0
 20
0.0
 11
12.0
 21
9.0
 12
0.0
 22
0.0
 32
0.0
 14
0.0
 24
0.0
 34
0.0
 15
0.0
 25
0.0
 35
0.0
146
0.0
 13
0.0
 23
0.0
 33
0.0
 16
1.0
 26
0.0
 36
0.0
 17
0.0
 27
1.0
 37
0.0
 76
     0
330
14441
  0
MATERIAL
  5
1034
102
{ACAD_XDICTIONARY
360
146D1
102
}
102
{ACAD_REACTORS
330
1B
102
}
330
1B
100
AcDbMaterial
  1
ByBlock
 73
     1
 78
     1
172
     1
176
     1
270
     1
274
     1
  0
MATERIAL
  5
1033
102
{ACAD_XDICTIONARY
360
146CF
102
}
102
{ACAD_REACTORS
330
1B
102
}
330
1B
100
AcDbMaterial
  1
ByLayer
 73
     1
 78
     1
172
     1
176
     1
270
     1
274
     1
  0
MATERIAL
  5
1035
102
{ACAD_XDICTIONARY
360
146D3
102
}
102
{ACAD_REACTORS
330
1B
102
}
330
1B
100
AcDbMaterial
  1
Global
 73
     1
 78
     1
172
     1
176
     1
270
     1
274
     1
  0
MLEADERSTYLE
  5
1C5E
102
{ACAD_REACTORS
330
1C5D
102
}
330
1C5D
100
AcDbMLeaderStyle
170
     2
171
     1
172
     0
 90
        2
 40
0.0
 41
0.0
173
     1
 91
-1056964608
340
14
 92
       -2
290
     1
 42
2.0
291
     1
 43
0.36
  3
Standard
 44
4.0
300

342
11
174
     1
178
     6
175
     1
176
     0
 93
-1056964608
 45
4.0
292
     0
297
     0
 46
4.0
 94
-1056964608
 47
1.0
 49
1.0
140
1.0
293
     1
141
0.0
294
     1
177
     0
142
1.0
295
     0
296
     0
143
0.125
1001
ACAD_MLEADERVER
1070
     2
  0
MLINESTYLE
  5
18
102
{ACAD_REACTORS
330
17
102
}
330
17
100
AcDbMlineStyle
  2
STANDARD
 70
     0
  3

 62
   256
 51
90.0
 52
90.0
 71
     2
 49
0.5
 62
   256
  6
BYLAYER
 49
-0.5
 62
   256
  6
BYLAYER
  0
PLOTSETTINGS
  5
1232A
102
{ACAD_XDICTIONARY
360
14BD2
102
}
102
{ACAD_REACTORS
330
19
102
}
330
19
100
AcDbPlotSettings
  1
PDF-A4
  2
Adobe PDF
  4
A4
  6

 40
3.174999952316281
 41
3.174999952316281
 42
3.175003051757812
 43
3.17498779296875
 44
209.9098358154297
 45
297.0318298339844
 46
2.5
 47
2.5
 48
0.0
 49
0.0
140
0.0
141
0.0
142
1.0
143
1.0
 70
  2736
 72
     1
 73
     0
 74
     5
  7
monochrome.ctb
 75
    16
147
1.0
148
0.0
149
0.0
1001
ACAD_PSEXT
1000
Adobe PDF
1000
Adobe PDF Converter
1000
My Documents
1000
Adobe PDF の作成
1070
     0
  0
ACDBPLACEHOLDER
  5
F
102
{ACAD_REACTORS
330
E
102
}
330
E
  0
SCALE
  5
4F36
102
{ACAD_REACTORS
330
1C3B
102
}
330
1C3B
100
AcDbScale
 70
     0
300
1:6
140
1.0
141
6.0
290
     0
  0
SCALE
  5
1C3C
102
{ACAD_REACTORS
330
1C3B
102
}
330
1C3B
100
AcDbScale
 70
     0
300
1:1
140
1.0
141
1.0
290
     1
  0
SCALE
  5
4294
102
{ACAD_REACTORS
330
1C3B
102
}
330
1C3B
100
AcDbScale
 70
     0
300
1:4
140
1.0
141
4.0
290
     0
  0
SCALE
  5
4295
102
{ACAD_REACTORS
330
1C3B
102
}
330
1C3B
100
AcDbScale
 70
     0
300
1:8
140
1.0
141
8.0
290
     0
  0
SCALE
  5
12F40
102
{ACAD_REACTORS
330
1C3B
102
}
330
1C3B
100
AcDbScale
 70
     0
300
1:2
140
1.0
141
2.0
290
     0
  0
SCALE
  5
12F41
102
{ACAD_REACTORS
330
1C3B
102
}
330
1C3B
100
AcDbScale
 70
     0
300
1:5
140
1.0
141
5.0
290
     0
  0
SCALE
  5
12F42
102
{ACAD_REACTORS
330
1C3B
102
}
330
1C3B
100
AcDbScale
 70
     0
300
1:10
140
1.0
141
10.0
290
     0
  0
SCALE
  5
12F43
102
{ACAD_REACTORS
330
1C3B
102
}
330
1C3B
100
AcDbScale
 70
     0
300
1:16
140
1.0
141
16.0
290
     0
  0
SCALE
  5
12F44
102
{ACAD_REACTORS
330
1C3B
102
}
330
1C3B
100
AcDbScale
 70
     0
300
1:20
140
1.0
141
20.0
290
     0
  0
SCALE
  5
12F45
102
{ACAD_REACTORS
330
1C3B
102
}
330
1C3B
100
AcDbScale
 70
     0
300
1:30
140
1.0
141
30.0
290
     0
  0
SCALE
  5
12F46
102
{ACAD_REACTORS
330
1C3B
102
}
330
1C3B
100
AcDbScale
 70
     0
300
1:40
140
1.0
141
40.0
290
     0
  0
SCALE
  5
12F47
102
{ACAD_REACTORS
330
1C3B
102
}
330
1C3B
100
AcDbScale
 70
     0
300
1:50
140
1.0
141
50.0
290
     0
  0
SCALE
  5
12F48
102
{ACAD_REACTORS
330
1C3B
102
}
330
1C3B
100
AcDbScale
 70
     0
300
1:100
140
1.0
141
100.0
290
     0
  0
SCALE
  5
12F49
102
{ACAD_REACTORS
330
1C3B
102
}
330
1C3B
100
AcDbScale
 70
     0
300
2:1
140
2.0
141
1.0
290
     0
  0
SCALE
  5
12F4A
102
{ACAD_REACTORS
330
1C3B
102
}
330
1C3B
100
AcDbScale
 70
     0
300
4:1
140
4.0
141
1.0
290
     0
  0
SCALE
  5
12F4B
102
{ACAD_REACTORS
330
1C3B
102
}
330
1C3B
100
AcDbScale
 70
     0
300
8:1
140
8.0
141
1.0
290
     0
  0
SCALE
  5
12F4C
102
{ACAD_REACTORS
330
1C3B
102
}
330
1C3B
100
AcDbScale
 70
     0
300
10:1
140
10.0
141
1.0
290
     0
  0
SCALE
  5
12F4D
102
{ACAD_REACTORS
330
1C3B
102
}
330
1C3B
100
AcDbScale
 70
     0
300
100:1
140
100.0
141
1.0
290
     0
  0
ACDBSECTIONVIEWSTYLE
  5
130B6
102
{ACAD_XDICTIONARY
360
14BEC
102
}
102
{ACAD_REACTORS
330
12F2D
330
14B96
102
}
330
12F2D
100
AcDbModelDocViewStyle
 70
     0
  3
Imperial24
290
     0
100
AcDbSectionViewStyle
 70
     0
 71
     0
 90
       78
 71
     1
340
11
 40
0.24
340
0
340
0
 40
0.24
300
I, O, Q, S, X, Z
 40
0.48
 90
        3
 40
0.18
 90
        1
 71
     2
340
16
 90
       25
340
16
 90
       50
 40
0.24
 40
0.0
 40
0.24
 71
     3
340
11
 40
0.24
 90
        1
 40
0.75
 90
        1
300
%<\AcVar ViewType \f "%tc1">% %<\AcVar ViewSectionStartId>%-%<\AcVar ViewSectionEndId>%\PSCALE %<\AcVar ViewScale \f "%sn">%
 71
     4
300
ANSI31
 40
1.0
 90
        0
290
     0
290
     0
 90
        6
 40
0.0
 40
1.570796326794896
 40
0.2617993877991494
 40
1.308996938995747
 40
-0.2617993877991494
 40
1.832595714594044
  0
ACDBSECTIONVIEWSTYLE
  5
12F2E
102
{ACAD_XDICTIONARY
360
14BE8
102
}
102
{ACAD_REACTORS
330
12F2D
330
14B97
102
}
330
12F2D
100
AcDbModelDocViewStyle
 70
     0
  3
Metric50
290
     0
100
AcDbSectionViewStyle
 70
     0
 71
     0
 90
      102
 71
     1
340
11
 40
5.0
340
0
340
0
 40
5.0
300
I, O, Q, S, X, Z
 40
10.0
 90
        0
 40
2.5
 90
        0
 71
     2
340
16
 90
       25
340
16
 90
       50
 40
5.0
 40
2.5
 40
5.0
 71
     3
340
11
 40
5.0
 90
        0
 40
15.0
 90
        1
300
%<\AcVar ViewSectionStartId>%-%<\AcVar ViewSectionEndId>% (%<\AcVar ViewScale \f "%sn">%)
 71
     4
300
ANSI31
 40
1.0
 90
        0
290
     0
290
     0
 90
        6
 40
0.0
 40
1.570796326794896
 40
0.2617993877991494
 40
1.308996938995747
 40
-0.2617993877991494
 40
1.832595714594044
  0
TABLESTYLE
  5
1048
102
{ACAD_XDICTIONARY
360
2325
102
}
102
{ACAD_REACTORS
330
1047
102
}
330
1047
100
AcDbTableStyle
  3
Standard
 70
     0
 71
     0
 40
1.5
 41
1.5
280
     0
281
     0
  7
STANDARD
140
4.5
170
     2
 62
     0
 63
     7
283
     0
274
    -2
284
     1
 64
     0
275
    -2
285
     1
 65
     0
276
    -2
286
     1
 66
     0
277
    -2
287
     1
 67
     0
278
    -2
288
     1
 68
     0
279
    -2
289
     1
 69
     0
  7
STANDARD
140
6.0
170
     5
 62
     0
 63
     7
283
     0
274
    -2
284
     1
 64
     0
275
    -2
285
     1
 65
     0
276
    -2
286
     1
 66
     0
277
    -2
287
     1
 67
     0
278
    -2
288
     1
 68
     0
279
    -2
289
     1
 69
     0
  7
STANDARD
140
4.5
170
     5
 62
     0
 63
     7
283
     0
274
    -2
284
     1
 64
     0
275
    -2
285
     1
 65
     0
276
    -2
286
     1
 66
     0
277
    -2
287
     1
 67
     0
278
    -2
288
     1
 68
     0
279
    -2
289
     1
 69
     0
  0
VISUALSTYLE
  5
103C
102
{ACAD_XDICTIONARY
360
14BBB
102
}
102
{ACAD_REACTORS
330
1036
102
}
330
1036
100
AcDbVisualStyle
  2

 70
     4
 71
     0
 72
     2
 73
     0
 90
        0
 40
-0.6
 41
-30.0
 62
     5
 63
     7
 74
     1
 91
        4
 64
     7
 65
   257
 75
     1
175
     1
 42
1.0
 92
        0
 66
   257
 43
1.0
 76
     1
 77
     6
 78
     2
 67
     7
 79
     5
170
     0
171
     0
290
     0
174
     0
 93
        1
 44
0.0
173
     0
291
     0
 45
0.0
1001
ACAD
1000
AcDbSavedByObjectVersion
1070
     0
  0
VISUALSTYLE
  5
103E
102
{ACAD_XDICTIONARY
360
14BBF
102
}
102
{ACAD_REACTORS
330
1036
102
}
330
1036
100
AcDbVisualStyle
  2

 70
     6
 71
     1
 72
     2
 73
     2
 90
        0
 40
-0.6
 41
-30.0
 62
     5
 63
     7
 74
     2
 91
        2
 64
     7
 65
   257
 75
     2
175
     1
 42
40.0
 92
        0
 66
   257
 43
1.0
 76
     1
 77
     6
 78
     2
 67
     7
 79
     3
170
     0
171
     0
290
     0
174
     0
 93
        1
 44
0.0
173
     0
291
     0
 45
0.0
1001
ACAD
1000
AcDbSavedByObjectVersion
1070
     0
  0
VISUALSTYLE
  5
103D
102
{ACAD_XDICTIONARY
360
14BBD
102
}
102
{ACAD_REACTORS
330
1036
102
}
330
1036
100
AcDbVisualStyle
  2

 70
     5
 71
     0
 72
     2
 73
     0
 90
        0
 40
-0.6
 41
-30.0
 62
     5
 63
     7
 74
     1
 91
        4
 64
     7
 65
   257
 75
     1
175
     1
 42
1.0
 92
        0
 66
   257
 43
1.0
 76
     1
 77
     6
 78
     2
 67
     7
 79
     5
170
     0
171
     0
290
     0
174
     0
 93
        1
 44
0.0
173
     0
291
     0
 45
0.0
1001
ACAD
1000
AcDbSavedByObjectVersion
1070
     0
  0
VISUALSTYLE
  5
103B
102
{ACAD_XDICTIONARY
360
14BB9
102
}
102
{ACAD_REACTORS
330
1036
102
}
330
1036
100
AcDbVisualStyle
  2

 70
     7
 71
     1
 72
     0
 73
     1
 90
        0
 40
-0.6
 41
-30.0
 62
     5
 63
     7
 74
     0
 91
        4
 64
     7
 65
   257
 75
     1
175
     1
 42
1.0
 92
        8
 66
     7
 43
1.0
 76
     1
 77
     6
 78
     2
 67
     7
 79
     5
170
     0
171
     0
290
     0
174
     0
 93
        1
 44
0.0
173
     0
291
     1
 45
0.0
1001
ACAD
1000
AcDbSavedByObjectVersion
1070
     0
  0
VISUALSTYLE
  5
1042
102
{ACAD_XDICTIONARY
360
14BC7
102
}
102
{ACAD_REACTORS
330
1036
102
}
330
1036
100
AcDbVisualStyle
  2

 70
    12
 71
     2
 72
     2
 73
     0
 90
        0
 40
-0.6
 41
-30.0
 62
     5
 63
     7
 74
     1
 91
        4
 64
     7
 65
   257
 75
     1
175
     1
 42
1.0
 92
        8
 66
     7
 43
1.0
 76
     1
 77
     6
 78
     2
 67
     7
 79
     5
170
     0
171
     0
290
     0
174
     0
 93
        1
 44
50.0
173
     0
291
     1
 45
0.0
1001
ACAD
1000
AcDbSavedByObjectVersion
1070
     0
  0
VISUALSTYLE
  5
1046
102
{ACAD_XDICTIONARY
360
14BCF
102
}
102
{ACAD_REACTORS
330
1036
102
}
330
1036
100
AcDbVisualStyle
  2

 70
    16
 71
     2
 72
     2
 73
     3
 90
        0
 40
-0.6
 41
-30.0
 62
     5
 63
     8
 74
     1
 91
        4
 64
     7
 65
   257
 75
     1
175
     1
 42
1.0
 92
        8
 66
     8
 43
1.0
 76
     1
 77
     6
 78
     2
 67
     7
 79
     5
170
     0
171
     0
290
     0
174
     0
 93
        1
 44
0.0
173
     0
291
     1
 45
0.0
1001
ACAD
1000
AcDbSavedByObjectVersion
1070
     0
  0
VISUALSTYLE
  5
103F
102
{ACAD_XDICTIONARY
360
14BC1
102
}
102
{ACAD_REACTORS
330
1036
102
}
330
1036
100
AcDbVisualStyle
  2

 70
     9
 71
     3
 72
     2
 73
     0
 90
        0
 40
-0.6
 41
-30.0
 62
     5
 63
     7
 74
     2
 91
        2
 64
     7
 65
   257
 75
     1
175
     1
 42
40.0
 92
        8
 66
     7
 43
1.0
 76
     1
 77
     6
 78
     2
 67
     7
 79
     3
170
     0
171
     0
290
     0
174
     0
 93
        1
 44
0.0
173
     0
291
     0
 45
0.0
1001
ACAD
1000
AcDbSavedByObjectVersion
1070
     0
  0
VISUALSTYLE
  5
1041
102
{ACAD_XDICTIONARY
360
14BC5
102
}
102
{ACAD_REACTORS
330
1036
102
}
330
1036
100
AcDbVisualStyle
  2

 70
    11
 71
     2
 72
     2
 73
     0
 90
        0
 40
-0.6
 41
-30.0
 62
     5
 63
     7
 74
     1
 91
        4
 64
     7
 65
   257
 75
     1
175
     1
 42
1.0
 92
        8
 66
     7
 43
1.0
 76
     1
 77
     6
 78
     2
 67
     7
 79
     5
170
     0
171
     0
290
     0
174
     0
 93
        1
 44
-50.0
173
     0
291
     1
 45
0.0
1001
ACAD
1000
AcDbSavedByObjectVersion
1070
     0
  0
VISUALSTYLE
  5
12F2C
102
{ACAD_XDICTIONARY
360
14BE6
102
}
102
{ACAD_REACTORS
330
1036
102
}
330
1036
100
AcDbVisualStyle
  2

 70
    22
 71
     2
 72
     2
 73
     0
 90
        0
 40
-0.6
 41
-30.0
 62
     5
 63
     7
 74
     1
 91
        4
 64
     7
 65
   257
 75
     1
175
     1
 42
1.0
 92
        8
 66
     7
 43
1.0
 76
     1
 77
     6
 78
     2
 67
     7
 79
     5
170
     0
171
     0
290
     0
174
     0
 93
        1
 44
0.0
173
     0
291
     1
 45
0.0
1001
ACAD
1000
AcDbSavedByObjectVersion
1070
     0
  0
VISUALSTYLE
  5
1045
102
{ACAD_XDICTIONARY
360
14BCD
102
}
102
{ACAD_REACTORS
330
1036
102
}
330
1036
100
AcDbVisualStyle
  2

 70
    15
 71
     2
 72
     2
 73
     0
 90
        0
 40
-0.6
 41
-30.0
 62
     5
 63
     7
 74
     1
 91
        4
 64
     7
 65
   257
 75
     1
175
     1
 42
1.0
 92
        8
 66
     7
 43
1.0
 76
     1
 77
     6
 78
     2
 67
     7
 79
     5
170
     0
171
     0
290
     0
174
     0
 93
        1
 44
0.0
173
     0
291
     1
 45
0.0
1001
ACAD
1000
AcDbSavedByObjectVersion
1070
     0
  0
VISUALSTYLE
  5
1037
102
{ACAD_XDICTIONARY
360
14BB1
102
}
102
{ACAD_REACTORS
330
1036
102
}
330
1036
100
AcDbVisualStyle
  2

 70
     0
 71
     2
 72
     1
 73
     1
 90
        2
 40
-0.6
 41
30.0
 62
     5
 63
     7
 74
     0
 91
        4
 64
     7
 65
   257
 75
     1
175
     1
 42
1.0
 92
        8
 66
     7
 43
1.0
 76
     1
 77
     6
 78
     2
 67
     7
 79
     5
170
     0
171
     0
290
     0
174
     0
 93
       13
 44
0.0
173
     0
291
     1
 45
0.0
1001
ACAD
1000
AcDbSavedByObjectVersion
1070
     0
  0
VISUALSTYLE
  5
1038
102
{ACAD_XDICTIONARY
360
14BB3
102
}
102
{ACAD_REACTORS
330
1036
102
}
330
1036
100
AcDbVisualStyle
  2

 70
     1
 71
     2
 72
     1
 73
     1
 90
        2
 40
-0.6
 41
30.0
 62
     5
 63
     7
 74
     1
 91
        4
 64
     7
 65
   257
 75
     1
175
     1
 42
1.0
 92
        0
 66
   257
 43
1.0
 76
     1
 77
     6
 78
     2
 67
     7
 79
     5
170
     0
171
     0
290
     0
174
     0
 93
       13
 44
0.0
173
     0
291
     1
 45
0.0
1001
ACAD
1000
AcDbSavedByObjectVersion
1070
     0
  0
VISUALSTYLE
  5
1039
102
{ACAD_XDICTIONARY
360
14BB5
102
}
102
{ACAD_REACTORS
330
1036
102
}
330
1036
100
AcDbVisualStyle
  2

 70
     2
 71
     2
 72
     2
 73
     1
 90
        2
 40
-0.6
 41
30.0
 62
     5
 63
     7
 74
     0
 91
        4
 64
     7
 65
   257
 75
     1
175
     1
 42
1.0
 92
        0
 66
     7
 43
1.0
 76
     1
 77
     6
 78
     2
 67
     7
 79
     5
170
     0
171
     0
290
     0
174
     0
 93
       13
 44
0.0
173
     0
291
     1
 45
0.0
1001
ACAD
1000
AcDbSavedByObjectVersion
1070
     0
  0
VISUALSTYLE
  5
103A
102
{ACAD_XDICTIONARY
360
14BB7
102
}
102
{ACAD_REACTORS
330
1036
102
}
330
1036
100
AcDbVisualStyle
  2

 70
     3
 71
     2
 72
     2
 73
     1
 90
        2
 40
-0.6
 41
30.0
 62
     5
 63
     7
 74
     1
 91
        4
 64
     7
 65
   257
 75
     1
175
     1
 42
1.0
 92
        0
 66
   257
 43
1.0
 76
     1
 77
     6
 78
     2
 67
     7
 79
     5
170
     0
171
     0
290
     0
174
     0
 93
       13
 44
0.0
173
     0
291
     1
 45
0.0
1001
ACAD
1000
AcDbSavedByObjectVersion
1070
     0
  0
VISUALSTYLE
  5
12F24
102
{ACAD_XDICTIONARY
360
14BD6
102
}
102
{ACAD_REACTORS
330
1036
102
}
330
1036
100
AcDbVisualStyle
  2

 70
     6
 71
     1
 72
     2
 73
     2
 90
        0
 40
-0.6
 41
-30.0
 62
     5
 63
     7
 74
     2
 91
        2
 64
     7
 65
   257
 75
     2
175
     1
 42
40.0
 92
        0
 66
   257
 43
1.0
 76
     1
 77
     6
 78
     2
 67
     7
 79
     3
170
     0
171
     0
290
     0
174
     0
 93
        1
 44
0.0
173
     0
291
     0
 45
0.0
1001
ACAD
1000
AcDbSavedByObjectVersion
1070
     0
  0
VISUALSTYLE
  5
12F2A
102
{ACAD_XDICTIONARY
360
14BE2
102
}
102
{ACAD_REACTORS
330
1036
102
}
330
1036
100
AcDbVisualStyle
  2

 70
    20
 71
     2
 72
     2
 73
     0
 90
        0
 40
-0.6
 41
-30.0
 62
     5
 63
     7
 74
     1
 91
        4
 64
     7
 65
   257
 75
     1
175
     1
 42
1.0
 92
       10
 66
     7
 43
1.0
 76
     1
 77
     6
 78
     2
 67
     7
 79
     5
170
     0
171
     0
290
     0
174
     0
 93
        1
 44
0.0
173
     0
291
     1
 45
0.0
1001
ACAD
1000
AcDbSavedByObjectVersion
1070
     0
  0
VISUALSTYLE
  5
1044
102
{ACAD_XDICTIONARY
360
14BCB
102
}
102
{ACAD_REACTORS
330
1036
102
}
330
1036
100
AcDbVisualStyle
  2

 70
    14
 71
     2
 72
     2
 73
     0
 90
        0
 40
-0.6
 41
-30.0
 62
     5
 63
     7
 74
     1
 91
        4
 64
     7
 65
   257
 75
     7
175
     7
 42
1.0
 92
        8
 66
     7
 43
1.0
 76
     1
 77
     6
 78
     2
 67
     7
 79
     5
170
     0
171
     0
290
     0
174
     0
 93
        1
 44
0.0
173
     0
291
     1
 45
0.0
1001
ACAD
1000
AcDbSavedByObjectVersion
1070
     0
  0
VISUALSTYLE
  5
12F2B
102
{ACAD_XDICTIONARY
360
14BE4
102
}
102
{ACAD_REACTORS
330
1036
102
}
330
1036
100
AcDbVisualStyle
  2

 70
    21
 71
     2
 72
     2
 73
     0
 90
        0
 40
-0.6
 41
-30.0
 62
     5
 63
     7
 74
     1
 91
        4
 64
     7
 65
   257
 75
     1
175
     1
 42
1.0
 92
        9
 66
     7
 43
1.0
 76
     1
 77
     6
 78
     2
 67
     7
 79
     5
170
     0
171
     0
290
     0
174
     0
 93
        1
 44
0.0
173
     0
291
     1
 45
0.0
1001
ACAD
1000
AcDbSavedByObjectVersion
1070
     0
  0
VISUALSTYLE
  5
1040
102
{ACAD_XDICTIONARY
360
14BC3
102
}
102
{ACAD_REACTORS
330
1036
102
}
330
1036
100
AcDbVisualStyle
  2

 70
     8
 71
     2
 72
     2
 73
     0
 90
        0
 40
-0.6
 41
-30.0
 62
     5
 63
     7
 74
     1
 91
        0
 64
     7
 65
   257
 75
     1
175
     1
 42
1.0
 92
        8
 66
     8
 43
1.0
 76
     1
 77
     6
 78
     2
 67
     7
 79
     5
170
     0
171
     0
290
     0
174
     0
 93
       13
 44
0.0
173
     0
291
     0
 45
0.0
1001
ACAD
1000
AcDbSavedByObjectVersion
1070
     0
  0
VISUALSTYLE
  5
12F29
102
{ACAD_XDICTIONARY
360
14BE0
102
}
102
{ACAD_REACTORS
330
1036
102
}
330
1036
100
AcDbVisualStyle
  2

 70
    27
 71
     2
 72
     2
 73
     1
 90
        2
 40
-0.6
 41
30.0
 62
     5
 63
     7
 74
     0
 91
        4
 64
     7
 65
   257
 75
     1
175
     1
 42
1.0
 92
        8
 66
   257
 43
1.0
 76
     1
 77
     6
 78
     2
 67
     8
 79
     3
170
     0
171
     0
290
     0
174
     0
 93
        5
 44
0.0
173
     0
291
     0
 45
0.0
1001
ACAD
1000
AcDbSavedByObjectVersion
1070
     0
  0
VISUALSTYLE
  5
12F28
102
{ACAD_XDICTIONARY
360
14BDE
102
}
102
{ACAD_REACTORS
330
1036
102
}
330
1036
100
AcDbVisualStyle
  2

 70
    26
 71
     2
 72
     2
 73
     1
 90
        2
 40
-0.6
 41
30.0
 62
     5
 63
     7
 74
     1
 91
       10
 64
     7
 65
   257
 75
     2
175
     1
 42
1.0
 92
        8
 66
   257
 43
1.0
 76
     1
 77
     6
 78
     2
 67
     7
 79
     3
170
     0
171
     0
290
     0
174
     0
 93
        5
 44
0.0
173
     0
291
     0
 45
0.0
1001
ACAD
1000
AcDbSavedByObjectVersion
1070
     0
  0
VISUALSTYLE
  5
12F25
102
{ACAD_XDICTIONARY
360
14BD8
102
}
102
{ACAD_REACTORS
330
1036
102
}
330
1036
100
AcDbVisualStyle
  2

 70
    23
 71
     2
 72
     2
 73
     3
 90
        0
 40
-0.6
 41
-30.0
 62
     5
 63
     7
 74
     2
 91
        2
 64
     7
 65
     7
 75
     1
175
     1
 42
40.0
 92
        8
 66
     7
 43
1.0
 76
     1
 77
     6
 78
     2
 67
     7
 79
     3
170
     0
171
     0
290
     0
174
     0
 93
        1
 44
0.0
173
     0
291
     0
 45
0.0
1001
ACAD
1000
AcDbSavedByObjectVersion
1070
     0
  0
VISUALSTYLE
  5
12F26
102
{ACAD_XDICTIONARY
360
14BDA
102
}
102
{ACAD_REACTORS
330
1036
102
}
330
1036
100
AcDbVisualStyle
  2

 70
    24
 71
     1
 72
     2
 73
     2
 90
        0
 40
-0.6
 41
-30.0
 62
     5
 63
     7
 74
     2
 91
        2
 64
     7
 65
     7
 75
     1
175
     1
 42
40.0
 92
       11
 66
     7
 43
1.0
 76
     1
 77
     6
 78
     2
 67
     7
 79
     6
170
     0
171
     0
290
     0
174
     0
 93
        1
 44
0.0
173
     0
291
     0
 45
0.0
1001
ACAD
1000
AcDbSavedByObjectVersion
1070
     0
  0
VISUALSTYLE
  5
1043
102
{ACAD_XDICTIONARY
360
14BC9
102
}
102
{ACAD_REACTORS
330
1036
102
}
330
1036
100
AcDbVisualStyle
  2

 70
    13
 71
     2
 72
     2
 73
     0
 90
        0
 40
-0.6
 41
-30.0
 62
     5
 63
     7
 74
     1
 91
        4
 64
     7
 65
   257
 75
     1
175
     1
 42
1.0
 92
       12
 66
     7
 43
1.0
 76
     1
 77
     6
 78
     2
 67
     7
 79
     5
170
     0
171
     0
290
     0
174
     0
 93
        1
 44
0.0
173
     0
291
     1
 45
0.0
1001
ACAD
1000
AcDbSavedByObjectVersion
1070
     0
  0
VISUALSTYLE
  5
12F23
102
{ACAD_XDICTIONARY
360
14BD4
102
}
102
{ACAD_REACTORS
330
1036
102
}
330
1036
100
AcDbVisualStyle
  2

 70
     5
 71
     0
 72
     2
 73
     0
 90
        0
 40
-0.6
 41
-30.0
 62
     5
 63
     7
 74
     1
 91
        4
 64
     7
 65
   257
 75
     1
175
     1
 42
1.0
 92
        0
 66
   257
 43
1.0
 76
     1
 77
     6
 78
     2
 67
     7
 79
     3
170
     0
171
     0
290
     0
174
     0
 93
        1
 44
0.0
173
     0
291
     0
 45
0.0
1001
ACAD
1000
AcDbSavedByObjectVersion
1070
     0
  0
VISUALSTYLE
  5
12F27
102
{ACAD_XDICTIONARY
360
14BDC
102
}
102
{ACAD_REACTORS
330
1036
102
}
330
1036
100
AcDbVisualStyle
  2

 70
    25
 71
     2
 72
     2
 73
     1
 90
        1
 40
0.5
 41
-30.0
 62
     5
 63
     7
 74
     1
 91
        0
 64
     7
 65
   257
 75
     1
175
     1
 42
1.0
 92
        8
 66
     7
 43
1.0
 76
     1
 77
     6
 78
     2
 67
     7
 79
     3
170
     0
171
     0
290
     0
174
     0
 93
       13
 44
0.0
173
     0
291
     0
 45
0.0
1001
ACAD
1000
AcDbSavedByObjectVersion
1070
     0
  0
DICTIONARYVAR
  5
232A
102
{ACAD_REACTORS
330
106A
102
}
330
106A
100
DictionaryVariables
280
     0
  1
1:1
  0
DICTIONARYVAR
  5
2328
102
{ACAD_REACTORS
330
106A
102
}
330
106A
100
DictionaryVariables
280
     0
  1
STANDARD
  0
DICTIONARYVAR
  5
106B
102
{ACAD_REACTORS
330
106A
102
}
330
106A
100
DictionaryVariables
280
     0
  1
STANDARD
  0
DICTIONARYVAR
  5
12F8F
102
{ACAD_REACTORS
330
106A
102
}
330
106A
100
DictionaryVariables
280
     0
  1
Metric50
  0
DICTIONARYVAR
  5
12F90
102
{ACAD_REACTORS
330
106A
102
}
330
106A
100
DictionaryVariables
280
     0
  1
Metric50
  0
DICTIONARYVAR
  5
146BE
102
{ACAD_REACTORS
330
106A
102
}
330
106A
100
DictionaryVariables
280
     0
  1
2
  0
DICTIONARYVAR
  5
146BC
102
{ACAD_REACTORS
330
106A
102
}
330
106A
100
DictionaryVariables
280
     0
  1
1
  0
DICTIONARYVAR
  5
146BB
102
{ACAD_REACTORS
330
106A
102
}
330
106A
100
DictionaryVariables
280
     0
  1
0
  0
DICTIONARYVAR
  5
12F91
102
{ACAD_REACTORS
330
106A
102
}
330
106A
100
DictionaryVariables
280
     0
  1
1
  0
DICTIONARYVAR
  5
12F92
102
{ACAD_REACTORS
330
106A
102
}
330
106A
100
DictionaryVariables
280
     0
  1
15
  0
DICTIONARYVAR
  5
232B
102
{ACAD_REACTORS
330
106A
102
}
330
106A
100
DictionaryVariables
280
     0
  1
0
  0
DICTIONARYVAR
  5
2329
102
{ACAD_REACTORS
330
106A
102
}
330
106A
100
DictionaryVariables
280
     0
  1
0
  0
DICTIONARYVAR
  5
146BF
102
{ACAD_REACTORS
330
106A
102
}
330
106A
100
DictionaryVariables
280
     0
  1
1
  0
DICTIONARYVAR
  5
146BA
102
{ACAD_REACTORS
330
106A
102
}
330
106A
100
DictionaryVariables
280
     0
  1
127
  0
DICTIONARYVAR
  5
14BA9
102
{ACAD_REACTORS
330
106A
102
}
330
106A
100
DictionaryVariables
280
     0
  1
2
  0
DICTIONARY
  5
8B
102
{ACAD_REACTORS
330
87
102
}
330
87
100
AcDbDictionary
281
     1
  0
XRECORD
  5
105E
102
{ACAD_REACTORS
330
87
102
}
330
87
100
AcDbXrecord
280
     1
 90
-1023410169
  0
XRECORD
  5
AEC0
102
{ACAD_REACTORS
330
AEBF
102
}
330
AEBF
100
AcDbXrecord
280
     1
330
0
330
0
330
0
330
0
330
0
330
9AFB
330
9AFC
330
9D71
330
9FFB
330
0
330
0
330
0
330
0
330
0
330
0
330
0
330
0
330
0
330
A266
330
A267
330
A268
330
0
330
0
330
0
330
0
330
0
330
0
330
0
330
0
330
0
330
0
330
0
330
0
330
0
330
0
330
0
330
0
330
0
330
0
330
0
330
0
330
0
330
0
330
0
330
0
330
0
330
A1B5
330
0
330
A2BB
330
0
330
0
330
0
330
0
330
0
330
0
330
0
330
0
330
0
330
0
330
0
330
0
330
0
330
0
330
0
330
0
330
0
330
0
330
0
330
0
330
0
330
0
330
0
330
0
330
0
330
0
330
0
330
0
330
0
330
0
330
0
330
0
330
0
330
0
330
0
330
0
330
0
330
0
330
0
330
0
330
0
330
0
330
0
330
0
330
0
330
0
330
0
330
0
330
0
330
0
330
0
330
0
330
0
330
0
330
0
330
0
330
0
330
0
330
0
330
0
330
0
330
0
330
0
330
0
330
0
330
0
330
0
330
0
330
0
330
0
330
0
330
0
330
0
330
0
330
0
330
0
330
0
330
0
330
0
330
0
330
0
330
0
330
0
330
0
330
0
330
0
330
0
330
0
330
0
330
0
330
0
330
0
330
0
330
0
330
0
330
0
330
0
330
0
330
0
330
0
330
0
330
0
330
0
330
0
330
0
330
0
330
0
330
0
330
0
330
0
330
0
330
0
330
0
330
0
330
0
330
0
330
0
330
0
330
0
330
0
330
0
330
0
330
0
330
0
330
0
330
0
330
0
330
0
330
0
330
0
330
0
330
0
330
0
330
0
330
0
330
0
330
0
330
0
330
0
330
0
330
0
330
0
330
0
330
0
330
0
330
0
330
0
330
0
330
0
330
0
330
0
330
0
330
0
330
0
330
0
330
0
330
0
330
0
330
0
330
0
330
0
330
0
330
0
330
0
330
0
330
0
330
0
330
0
330
0
330
0
330
0
330
0
330
0
330
0
330
0
330
0
330
0
330
0
330
0
330
0
330
0
330
0
330
0
330
0
330
0
330
0
330
0
330
0
330
0
330
0
330
0
330
0
330
0
330
0
330
0
330
0
330
0
330
0
330
0
330
0
330
0
330
0
330
0
330
0
330
0
330
0
330
0
330
0
330
0
330
0
330
0
330
0
330
0
330
0
330
0
330
0
330
0
330
0
330
0
330
0
330
0
330
0
330
0
330
0
330
0
330
0
330
0
  0
XRECORD
  5
6F8E
102
{ACAD_XDICTIONARY
360
6F8F
102
}
102
{ACAD_REACTORS
330
150
102
}
330
150
100
AcDbXrecord
280
     1
 91
    33280
301

290
     0
302
0
330
0
 90
        8
 62
     1
370
    25
331
16
  1
色_1
330
0
 90
        8
 62
    52
370
     9
331
0
  1
色_52
330
0
 90
        9
 62
   253
370
     0
331
16
  1
色_253
330
0
 90
        8
 62
     3
370
     9
331
16
  1
色_3
330
0
 90
        8
 62
     7
370
    18
331
16
  1
色_7
330
0
 90
        8
 62
     4
370
     9
331
8F
  1
色_4
330
0
 90
        0
 62
     2
370
    13
331
90
  1
色_2
330
0
 90
        0
 62
     1
370
     9
331
91
  1
色_1
330
0
 90
        8
 62
   133
370
     9
331
16
  1
色_133
330
0
 90
        8
 62
   253
370
     9
331
0
  1
色_253
330
0
 90
        8
 62
    22
370
     9
331
50
  1
色_22
330
0
 90
        8
 62
   191
370
    15
331
16
  1
色_191
330
0
 90
        8
 62
     4
370
    15
331
16
  1
色_4
330
0
 90
        8
 62
     3
370
    13
331
16
  1
色_3
330
0
 90
        8
 62
     6
370
     5
331
A6
  1
色_6
330
0
 90
        8
 62
   253
370
     5
331
16
  1
色_253
330
0
 90
        8
 62
    42
370
    13
331
0
  1
色_42
330
0
 90
        8
 62
   101
370
     5
331
0
  1
色_101
330
129
 90
        0
 62
     7
370
    15
331
16
  1
色_7
330
0
 90
        0
 62
     1
370
    25
331
16
  1
色_1
330
0
 90
        8
 62
     3
370
    13
331
16
  1
色_3
330
10
 90
        8
 62
     7
370
    18
331
16
  1
色_7
  0
XRECORD
  5
151
102
{ACAD_REACTORS
330
150
102
}
330
150
100
AcDbXrecord
280
     1
 91
      496
330
0
 90
        8
 62
     1
370
    -3
331
0
  1
色_1
330
0
 90
        8
 62
   191
370
    -3
331
16
  1
色_191
330
0
 90
        8
 62
     4
370
    -3
331
16
  1
色_4
330
0
 90
        8
 62
     2
370
    -3
331
16
  1
色_2
330
0
 90
        8
 62
     3
370
    -3
331
16
  1
色_3
330
0
 90
        8
 62
     6
370
    -3
331
16
  1
色_6
330
0
 90
        8
 62
     7
370
    -3
331
16
  1
色_7
330
0
 90
        8
 62
    40
370
    -3
331
0
  1
色_40
330
0
 90
        8
 62
   101
370
    -3
331
0
  1
色_101
330
129
 90
        0
 62
     7
370
    -3
331
16
  1
色_7
330
10
 90
        8
 62
     7
370
    -3
331
16
  0
DICTIONARY
  5
14BEE
330
130B8
100
AcDbDictionary
280
     1
281
     1
  3
ACAD_XREC_ROUNDTRIP
360
14BEF
  0
DICTIONARY
  5
14BEA
330
12F30
100
AcDbDictionary
280
     1
281
     1
  3
ACAD_XREC_ROUNDTRIP
360
14BEB
  0
DICTIONARY
  5
14BAF
330
24
100
AcDbDictionary
280
     1
281
     1
  3
ACAD_XREC_ROUNDTRIP
360
14BB0
  0
DICTIONARY
  5
14BF0
330
14442
100
AcDbDictionary
280
     1
281
     1
  3
ACAD_XREC_ROUNDTRIP
360
14BF1
  0
DICTIONARY
  5
146D1
330
1034
100
AcDbDictionary
280
     1
281
     1
  3
ACAD_XREC_ROUNDTRIP
360
146D2
  0
DICTIONARY
  5
146CF
330
1033
100
AcDbDictionary
280
     1
281
     1
  3
ACAD_XREC_ROUNDTRIP
360
146D0
  0
DICTIONARY
  5
146D3
330
1035
100
AcDbDictionary
280
     1
281
     1
  3
ACAD_XREC_ROUNDTRIP
360
146D4
  0
DICTIONARY
  5
14BD2
330
1232A
100
AcDbDictionary
280
     1
281
     1
  3
ACAD_XREC_ROUNDTRIP
360
14BD3
  0
DICTIONARY
  5
14BEC
330
130B6
100
AcDbDictionary
280
     1
281
     1
  3
ACAD_XREC_ROUNDTRIP
360
14BED
  0
DICTIONARY
  5
14BE8
330
12F2E
100
AcDbDictionary
280
     1
281
     1
  3
ACAD_XREC_ROUNDTRIP
360
14BE9
  0
DICTIONARY
  5
2325
330
1048
100
AcDbDictionary
280
     1
281
     1
  3
ACAD_ROUNDTRIP_2008_TABLESTYLE_CELLSTYLEMAP
360
14BAA
  3
ACAD_XREC_ROUNDTRIP
360
14BD1
  0
DICTIONARY
  5
14BBB
330
103C
100
AcDbDictionary
280
     1
281
     1
  3
ACAD_XREC_ROUNDTRIP
360
14BBC
  0
DICTIONARY
  5
14BBF
330
103E
100
AcDbDictionary
280
     1
281
     1
  3
ACAD_XREC_ROUNDTRIP
360
14BC0
  0
DICTIONARY
  5
14BBD
330
103D
100
AcDbDictionary
280
     1
281
     1
  3
ACAD_XREC_ROUNDTRIP
360
14BBE
  0
DICTIONARY
  5
14BB9
330
103B
100
AcDbDictionary
280
     1
281
     1
  3
ACAD_XREC_ROUNDTRIP
360
14BBA
  0
DICTIONARY
  5
14BC7
330
1042
100
AcDbDictionary
280
     1
281
     1
  3
ACAD_XREC_ROUNDTRIP
360
14BC8
  0
DICTIONARY
  5
14BCF
330
1046
100
AcDbDictionary
280
     1
281
     1
  3
ACAD_XREC_ROUNDTRIP
360
14BD0
  0
DICTIONARY
  5
14BC1
330
103F
100
AcDbDictionary
280
     1
281
     1
  3
ACAD_XREC_ROUNDTRIP
360
14BC2
  0
DICTIONARY
  5
14BC5
330
1041
100
AcDbDictionary
280
     1
281
     1
  3
ACAD_XREC_ROUNDTRIP
360
14BC6
  0
DICTIONARY
  5
14BE6
330
12F2C
100
AcDbDictionary
280
     1
281
     1
  3
ACAD_XREC_ROUNDTRIP
360
14BE7
  0
DICTIONARY
  5
14BCD
330
1045
100
AcDbDictionary
280
     1
281
     1
  3
ACAD_XREC_ROUNDTRIP
360
14BCE
  0
DICTIONARY
  5
14BB1
330
1037
100
AcDbDictionary
280
     1
281
     1
  3
ACAD_XREC_ROUNDTRIP
360
14BB2
  0
DICTIONARY
  5
14BB3
330
1038
100
AcDbDictionary
280
     1
281
     1
  3
ACAD_XREC_ROUNDTRIP
360
14BB4
  0
DICTIONARY
  5
14BB5
330
1039
100
AcDbDictionary
280
     1
281
     1
  3
ACAD_XREC_ROUNDTRIP
360
14BB6
  0
DICTIONARY
  5
14BB7
330
103A
100
AcDbDictionary
280
     1
281
     1
  3
ACAD_XREC_ROUNDTRIP
360
14BB8
  0
DICTIONARY
  5
14BD6
330
12F24
100
AcDbDictionary
280
     1
281
     1
  3
ACAD_XREC_ROUNDTRIP
360
14BD7
  0
DICTIONARY
  5
14BE2
330
12F2A
100
AcDbDictionary
280
     1
281
     1
  3
ACAD_XREC_ROUNDTRIP
360
14BE3
  0
DICTIONARY
  5
14BCB
330
1044
100
AcDbDictionary
280
     1
281
     1
  3
ACAD_XREC_ROUNDTRIP
360
14BCC
  0
DICTIONARY
  5
14BE4
330
12F2B
100
AcDbDictionary
280
     1
281
     1
  3
ACAD_XREC_ROUNDTRIP
360
14BE5
  0
DICTIONARY
  5
14BC3
330
1040
100
AcDbDictionary
280
     1
281
     1
  3
ACAD_XREC_ROUNDTRIP
360
14BC4
  0
DICTIONARY
  5
14BE0
330
12F29
100
AcDbDictionary
280
     1
281
     1
  3
ACAD_XREC_ROUNDTRIP
360
14BE1
  0
DICTIONARY
  5
14BDE
330
12F28
100
AcDbDictionary
280
     1
281
     1
  3
ACAD_XREC_ROUNDTRIP
360
14BDF
  0
DICTIONARY
  5
14BD8
330
12F25
100
AcDbDictionary
280
     1
281
     1
  3
ACAD_XREC_ROUNDTRIP
360
14BD9
  0
DICTIONARY
  5
14BDA
330
12F26
100
AcDbDictionary
280
     1
281
     1
  3
ACAD_XREC_ROUNDTRIP
360
14BDB
  0
DICTIONARY
  5
14BC9
330
1043
100
AcDbDictionary
280
     1
281
     1
  3
ACAD_XREC_ROUNDTRIP
360
14BCA
  0
DICTIONARY
  5
14BD4
330
12F23
100
AcDbDictionary
280
     1
281
     1
  3
ACAD_XREC_ROUNDTRIP
360
14BD5
  0
DICTIONARY
  5
14BDC
330
12F27
100
AcDbDictionary
280
     1
281
     1
  3
ACAD_XREC_ROUNDTRIP
360
14BDD
  0
DICTIONARY
  5
6F8F
330
6F8E
100
AcDbDictionary
280
     1
281
     1
  3
AcadLayerStateAnnoScale
360
6F90
  0
XRECORD
  5
14BEF
102
{ACAD_REACTORS
330
14BEE
102
}
330
14BEE
100
AcDbXrecord
280
     1
102
DISPLAYNAME
  1
Imperial24
102
FLAGS
 90
        0
  0
XRECORD
  5
14BEB
102
{ACAD_REACTORS
330
14BEA
102
}
330
14BEA
100
AcDbXrecord
280
     1
102
DISPLAYNAME
  1
Metric50
102
FLAGS
 90
        0
  0
XRECORD
  5
14BB0
102
{ACAD_REACTORS
330
14BAF
102
}
330
14BAF
100
AcDbXrecord
280
     1
102
SHADEPLOT
 70
     0
102
SHADEPLOTRESLEVEL
 70
     2
102
SHADEPLOTCUSTOMDPI
 70
   300
  0
XRECORD
  5
14BF1
102
{ACAD_REACTORS
330
14BF0
102
}
330
14BF0
100
AcDbXrecord
280
     1
102
SHADEPLOT
 70
     0
102
SHADEPLOTRESLEVEL
 70
     2
102
SHADEPLOTCUSTOMDPI
 70
   300
  0
XRECORD
  5
146D2
102
{ACAD_REACTORS
330
146D1
102
}
330
146D1
100
AcDbXrecord
280
     1
102
MATERIAL
148
0.0
149
0.0
149
0.0
 93
        0
 94
      127
282
     0
 72
     1
 77
     1
171
     1
175
     1
179
     1
273
     0
  0
XRECORD
  5
146D0
102
{ACAD_REACTORS
330
146CF
102
}
330
146CF
100
AcDbXrecord
280
     1
102
MATERIAL
148
0.0
149
0.0
149
0.0
 93
        0
 94
      127
282
     0
 72
     1
 77
     1
171
     1
175
     1
179
     1
273
     0
  0
XRECORD
  5
146D4
102
{ACAD_REACTORS
330
146D3
102
}
330
146D3
100
AcDbXrecord
280
     1
102
MATERIAL
148
0.0
149
0.0
149
0.0
 93
        0
 94
      127
282
     0
 72
     1
 77
     1
171
     1
175
     1
179
     1
273
     0
  0
XRECORD
  5
14BD3
102
{ACAD_REACTORS
330
14BD2
102
}
330
14BD2
100
AcDbXrecord
280
     1
102
SHADEPLOT
 70
     1
102
SHADEPLOTRESLEVEL
 70
     4
102
SHADEPLOTCUSTOMDPI
 70
   300
  0
XRECORD
  5
14BED
102
{ACAD_REACTORS
330
14BEC
102
}
330
14BEC
100
AcDbXrecord
280
     1
102
DISPLAYNAME
  1
Imperial24
102
FLAGS
 90
        0
  0
XRECORD
  5
14BE9
102
{ACAD_REACTORS
330
14BE8
102
}
330
14BE8
100
AcDbXrecord
280
     1
102
DISPLAYNAME
  1
Metric50
102
FLAGS
 90
        0
  0
CELLSTYLEMAP
  5
14BAA
102
{ACAD_REACTORS
330
2325
102
}
330
2325
100
AcDbCellStyleMap
 90
        3
300
CELLSTYLE
  1
TABLEFORMAT_BEGIN
 90
        5
170
     1
 91
        0
 92
    32768
 62
   257
 93
        1
300
CONTENTFORMAT
  1
CONTENTFORMAT_BEGIN
 90
        0
 91
        0
 92
      512
 93
        0
300

 40
0.0
140
1.0
 94
        5
 62
     0
340
11
144
6.0
309
CONTENTFORMAT_END
171
     1
301
MARGIN
  1
CELLMARGIN_BEGIN
 40
1.5
 40
1.5
 40
1.5
 40
1.5
 40
0.18
 40
0.18
309
CELLMARGIN_END
 94
        6
 95
        1
302
GRIDFORMAT
  1
GRIDFORMAT_BEGIN
 90
        0
 91
        1
 62
     0
 92
       -2
340
0
 93
        0
 40
0.045
309
GRIDFORMAT_END
 95
        2
302
GRIDFORMAT
  1
GRIDFORMAT_BEGIN
 90
        0
 91
        1
 62
     0
 92
       -2
340
0
 93
        0
 40
0.045
309
GRIDFORMAT_END
 95
        4
302
GRIDFORMAT
  1
GRIDFORMAT_BEGIN
 90
        0
 91
        1
 62
     0
 92
       -2
340
0
 93
        0
 40
0.045
309
GRIDFORMAT_END
 95
        8
302
GRIDFORMAT
  1
GRIDFORMAT_BEGIN
 90
        0
 91
        1
 62
     0
 92
       -2
340
0
 93
        0
 40
0.045
309
GRIDFORMAT_END
 95
       16
302
GRIDFORMAT
  1
GRIDFORMAT_BEGIN
 90
        0
 91
        1
 62
     0
 92
       -2
340
0
 93
        0
 40
0.045
309
GRIDFORMAT_END
 95
       32
302
GRIDFORMAT
  1
GRIDFORMAT_BEGIN
 90
        0
 91
        1
 62
     0
 92
       -2
340
0
 93
        0
 40
0.045
309
GRIDFORMAT_END
309
TABLEFORMAT_END
  1
CELLSTYLE_BEGIN
 90
        1
 91
        1
300
_TITLE
309
CELLSTYLE_END
300
CELLSTYLE
  1
TABLEFORMAT_BEGIN
 90
        5
170
     1
 91
        0
 92
        0
 62
   257
 93
        1
300
CONTENTFORMAT
  1
CONTENTFORMAT_BEGIN
 90
        0
 91
        0
 92
      512
 93
        0
300

 40
0.0
140
1.0
 94
        5
 62
     0
340
11
144
4.5
309
CONTENTFORMAT_END
171
     1
301
MARGIN
  1
CELLMARGIN_BEGIN
 40
1.5
 40
1.5
 40
1.5
 40
1.5
 40
0.18
 40
0.18
309
CELLMARGIN_END
 94
        6
 95
        1
302
GRIDFORMAT
  1
GRIDFORMAT_BEGIN
 90
        0
 91
        1
 62
     0
 92
       -2
340
0
 93
        0
 40
0.045
309
GRIDFORMAT_END
 95
        2
302
GRIDFORMAT
  1
GRIDFORMAT_BEGIN
 90
        0
 91
        1
 62
     0
 92
       -2
340
0
 93
        0
 40
0.045
309
GRIDFORMAT_END
 95
        4
302
GRIDFORMAT
  1
GRIDFORMAT_BEGIN
 90
        0
 91
        1
 62
     0
 92
       -2
340
0
 93
        0
 40
0.045
309
GRIDFORMAT_END
 95
        8
302
GRIDFORMAT
  1
GRIDFORMAT_BEGIN
 90
        0
 91
        1
 62
     0
 92
       -2
340
0
 93
        0
 40
0.045
309
GRIDFORMAT_END
 95
       16
302
GRIDFORMAT
  1
GRIDFORMAT_BEGIN
 90
        0
 91
        1
 62
     0
 92
       -2
340
0
 93
        0
 40
0.045
309
GRIDFORMAT_END
 95
       32
302
GRIDFORMAT
  1
GRIDFORMAT_BEGIN
 90
        0
 91
        1
 62
     0
 92
       -2
340
0
 93
        0
 40
0.045
309
GRIDFORMAT_END
309
TABLEFORMAT_END
  1
CELLSTYLE_BEGIN
 90
        2
 91
        1
300
_HEADER
309
CELLSTYLE_END
300
CELLSTYLE
  1
TABLEFORMAT_BEGIN
 90
        5
170
     1
 91
        0
 92
        0
 62
   257
 93
        1
300
CONTENTFORMAT
  1
CONTENTFORMAT_BEGIN
 90
        0
 91
        0
 92
      512
 93
        0
300

 40
0.0
140
1.0
 94
        2
 62
     0
340
11
144
4.5
309
CONTENTFORMAT_END
171
     1
301
MARGIN
  1
CELLMARGIN_BEGIN
 40
1.5
 40
1.5
 40
1.5
 40
1.5
 40
0.18
 40
0.18
309
CELLMARGIN_END
 94
        6
 95
        1
302
GRIDFORMAT
  1
GRIDFORMAT_BEGIN
 90
        0
 91
        1
 62
     0
 92
       -2
340
0
 93
        0
 40
0.045
309
GRIDFORMAT_END
 95
        2
302
GRIDFORMAT
  1
GRIDFORMAT_BEGIN
 90
        0
 91
        1
 62
     0
 92
       -2
340
0
 93
        0
 40
0.045
309
GRIDFORMAT_END
 95
        4
302
GRIDFORMAT
  1
GRIDFORMAT_BEGIN
 90
        0
 91
        1
 62
     0
 92
       -2
340
0
 93
        0
 40
0.045
309
GRIDFORMAT_END
 95
        8
302
GRIDFORMAT
  1
GRIDFORMAT_BEGIN
 90
        0
 91
        1
 62
     0
 92
       -2
340
0
 93
        0
 40
0.045
309
GRIDFORMAT_END
 95
       16
302
GRIDFORMAT
  1
GRIDFORMAT_BEGIN
 90
        0
 91
        1
 62
     0
 92
       -2
340
0
 93
        0
 40
0.045
309
GRIDFORMAT_END
 95
       32
302
GRIDFORMAT
  1
GRIDFORMAT_BEGIN
 90
        0
 91
        1
 62
     0
 92
       -2
340
0
 93
        0
 40
0.045
309
GRIDFORMAT_END
309
TABLEFORMAT_END
  1
CELLSTYLE_BEGIN
 90
        3
 91
        2
300
_DATA
309
CELLSTYLE_END
  0
XRECORD
  5
14BD1
102
{ACAD_REACTORS
330
2325
102
}
330
2325
100
AcDbXrecord
280
     1
102
ACAD_ROUNDTRIP_PRE2007_TABLESTYLE
 90
      512
 91
        0
  1

 92
      512
 93
        0
  2

 94
      512
 95
        0
  3

  0
XRECORD
  5
14BBC
102
{ACAD_REACTORS
330
14BBB
102
}
330
14BBB
100
AcDbXrecord
280
     1
102
RTVSPost2010Prop28
280
     1
102
RTVSPost2010PropOp28
 70
     1
102
RTVSPost2010Prop29
280
     1
102
RTVSPost2010PropOp29
 70
     1
102
RTVSPost2010Prop30
280
     0
102
RTVSPost2010PropOp30
 70
     1
102
RTVSPost2010Prop31
280
     0
102
RTVSPost2010PropOp31
 70
     1
102
RTVSPost2010Prop32
280
     0
102
RTVSPost2010PropOp32
 70
     1
102
RTVSPost2010Prop33
280
     0
102
RTVSPost2010PropOp33
 70
     1
102
RTVSPost2010Prop34
280
     0
102
RTVSPost2010PropOp34
 70
     1
102
RTVSPost2010Prop35
280
     0
102
RTVSPost2010PropOp35
 70
     1
102
RTVSPost2010Prop36
280
     0
102
RTVSPost2010PropOp36
 70
     1
102
RTVSPost2010Prop37
 90
       50
102
RTVSPost2010PropOp37
 70
     1
102
RTVSPost2010Prop38
140
0.0
102
RTVSPost2010PropOp38
 70
     1
102
RTVSPost2010Prop39
140
1.0
102
RTVSPost2010PropOp39
 70
     1
102
RTVSPost2010Prop40
 90
        0
102
RTVSPost2010PropOp40
 70
     1
102
RTVSPost2010Prop41ColorIndex
 90
       18
102
RTVSPost2010Prop41ColorRGB
 90
        0
102
RTVSPost2010PropOp41
 70
     1
102
RTVSPost2010Prop42
 90
       50
102
RTVSPost2010PropOp42
 70
     1
102
RTVSPost2010Prop43
 90
        3
102
RTVSPost2010PropOp43
 70
     1
102
RTVSPost2010Prop44ColorIndex
 90
        5
102
RTVSPost2010Prop44ColorRGB
 90
      255
102
RTVSPost2010PropOp44
 70
     1
102
RTVSPost2010Prop45
280
     0
102
RTVSPost2010PropOp45
 70
     1
102
RTVSPost2010Prop46
 90
       50
102
RTVSPost2010PropOp46
 70
     1
102
RTVSPost2010Prop47
 90
       50
102
RTVSPost2010PropOp47
 70
     1
102
RTVSPost2010Prop48
 90
       50
102
RTVSPost2010PropOp48
 70
     1
102
RTVSPost2010Prop49
280
     0
102
RTVSPost2010PropOp49
 70
     1
102
RTVSPost2010Prop50
 90
       50
102
RTVSPost2010PropOp50
 70
     1
102
RTVSPost2010Prop51ColorIndex
 90
      256
102
RTVSPost2010Prop51ColorRGB
 90
-16777216
102
RTVSPost2010PropOp51
 70
     0
102
RTVSPost2010Prop52
140
1.0
102
RTVSPost2010PropOp52
 70
     0
102
RTVSPost2010Prop53
 90
        2
102
RTVSPost2010PropOp53
 70
     1
102
RTVSPost2010Prop54
  1
strokes_ogs.tif
102
RTVSPost2010PropOp54
 70
     1
102
RTVSPost2010Prop55
280
     0
102
RTVSPost2010PropOp55
 70
     1
102
RTVSPost2010Prop56
140
1.0
102
RTVSPost2010PropOp56
 70
     1
102
RTVSPost2010Prop57
140
1.0
102
RTVSPost2010PropOp57
 70
     1
102
RTVSPropertyOp0
 70
     1
102
RTVSPropertyOp1
 70
     1
102
RTVSPropertyOp2
 70
     1
102
RTVSPropertyOp3
 70
     1
102
RTVSPropertyOp4
 70
     1
102
RTVSPropertyOp5
 70
     1
102
RTVSPropertyOp6
 70
     1
102
RTVSPropertyOp7
 70
     1
102
RTVSPropertyOp8
 70
     1
102
RTVSPropertyOp9
 70
     1
102
RTVSPropertyOp10
 70
     1
102
RTVSPropertyOp11
 70
     1
102
RTVSPropertyOp12
 70
     1
102
RTVSPropertyOp13
 70
     1
102
RTVSPropertyOp14
 70
     1
102
RTVSPropertyOp15
 70
     1
102
RTVSPropertyOp16
 70
     1
102
RTVSPropertyOp17
 70
     1
102
RTVSPropertyOp18
 70
     1
102
RTVSPropertyOp19
 70
     1
102
RTVSPropertyOp20
 70
     1
102
RTVSPropertyOp21
 70
     1
102
RTVSPropertyOp22
 70
     1
102
RTVSPropertyOp23
 70
     1
102
RTVSPropertyOp24
 70
     1
102
RTVSPropertyOp25
 70
     1
102
RTVSPropertyOp26
 70
     1
102
RTVSPropertyOp27
 70
     1
102
RTVSPropertyOp28
 70
     1
102
RTVSPropertyOp29
 70
     1
102
RTVSPropertyOp30
 70
     1
102
RTVSPropertyOp31
 70
     1
102
RTVSPropertyOp32
 70
     1
102
RTVSPropertyOp33
 70
     1
102
RTVSPropertyOp34
 70
     1
102
RTVSPropertyOp35
 70
     1
102
RTVSPropertyOp36
 70
     1
102
RTVSPropertyOp37
 70
     1
102
RTVSPropertyOp38
 70
     1
102
RTVSPropertyOp39
 70
     1
102
RTVSPropertyOp40
 70
     1
102
RTVSPropertyOp41
 70
     1
102
RTVSPropertyOp42
 70
     1
102
RTVSPropertyOp43
 70
     1
102
RTVSPropertyOp44
 70
     1
102
RTVSPropertyOp45
 70
     1
102
RTVSPropertyOp46
 70
     1
102
RTVSPropertyOp47
 70
     1
102
RTVSPropertyOp48
 70
     1
102
RTVSPropertyOp49
 70
     1
102
RTVSPropertyOp50
 70
     1
102
RTVSPropertyOp51
 70
     0
102
RTVSPropertyOp52
 70
     0
102
RTVSPropertyOp53
 70
     1
102
RTVSPropertyOp54
 70
     1
102
RTVSPropertyOp55
 70
     1
102
RTVSPropertyOp56
 70
     1
102
RTVSPropertyOp57
 70
     1
102
RTVSPropertyOp58
 70
     1
102
RTVSPropertyOp59
 70
     1
102
RTVSPropertyOp60
 70
     1
102
RTVSPropertyOp61
 70
     1
102
RTVSPropertyOp62
 70
     1
  0
XRECORD
  5
14BC0
102
{ACAD_REACTORS
330
14BBF
102
}
330
14BBF
100
AcDbXrecord
280
     1
102
RTVSPost2010Prop28
280
     0
102
RTVSPost2010PropOp28
 70
     1
102
RTVSPost2010Prop29
280
     1
102
RTVSPost2010PropOp29
 70
     1
102
RTVSPost2010Prop30
280
     1
102
RTVSPost2010PropOp30
 70
     1
102
RTVSPost2010Prop31
280
     0
102
RTVSPost2010PropOp31
 70
     1
102
RTVSPost2010Prop32
280
     0
102
RTVSPost2010PropOp32
 70
     1
102
RTVSPost2010Prop33
280
     0
102
RTVSPost2010PropOp33
 70
     1
102
RTVSPost2010Prop34
280
     0
102
RTVSPost2010PropOp34
 70
     1
102
RTVSPost2010Prop35
280
     0
102
RTVSPost2010PropOp35
 70
     1
102
RTVSPost2010Prop36
280
     0
102
RTVSPost2010PropOp36
 70
     1
102
RTVSPost2010Prop37
 90
       50
102
RTVSPost2010PropOp37
 70
     1
102
RTVSPost2010Prop38
140
0.0
102
RTVSPost2010PropOp38
 70
     1
102
RTVSPost2010Prop39
140
1.0
102
RTVSPost2010PropOp39
 70
     1
102
RTVSPost2010Prop40
 90
        0
102
RTVSPost2010PropOp40
 70
     1
102
RTVSPost2010Prop41ColorIndex
 90
       18
102
RTVSPost2010Prop41ColorRGB
 90
        0
102
RTVSPost2010PropOp41
 70
     1
102
RTVSPost2010Prop42
 90
       50
102
RTVSPost2010PropOp42
 70
     1
102
RTVSPost2010Prop43
 90
        3
102
RTVSPost2010PropOp43
 70
     1
102
RTVSPost2010Prop44ColorIndex
 90
        5
102
RTVSPost2010Prop44ColorRGB
 90
      255
102
RTVSPost2010PropOp44
 70
     1
102
RTVSPost2010Prop45
280
     0
102
RTVSPost2010PropOp45
 70
     1
102
RTVSPost2010Prop46
 90
       50
102
RTVSPost2010PropOp46
 70
     1
102
RTVSPost2010Prop47
 90
       50
102
RTVSPost2010PropOp47
 70
     1
102
RTVSPost2010Prop48
 90
       50
102
RTVSPost2010PropOp48
 70
     1
102
RTVSPost2010Prop49
280
     0
102
RTVSPost2010PropOp49
 70
     1
102
RTVSPost2010Prop50
 90
       50
102
RTVSPost2010PropOp50
 70
     1
102
RTVSPost2010Prop51ColorIndex
 90
      256
102
RTVSPost2010Prop51ColorRGB
 90
-16777216
102
RTVSPost2010PropOp51
 70
     0
102
RTVSPost2010Prop52
140
1.0
102
RTVSPost2010PropOp52
 70
     0
102
RTVSPost2010Prop53
 90
        2
102
RTVSPost2010PropOp53
 70
     1
102
RTVSPost2010Prop54
  1
strokes_ogs.tif
102
RTVSPost2010PropOp54
 70
     1
102
RTVSPost2010Prop55
280
     0
102
RTVSPost2010PropOp55
 70
     1
102
RTVSPost2010Prop56
140
1.0
102
RTVSPost2010PropOp56
 70
     1
102
RTVSPost2010Prop57
140
1.0
102
RTVSPost2010PropOp57
 70
     1
102
RTVSPropertyOp0
 70
     1
102
RTVSPropertyOp1
 70
     1
102
RTVSPropertyOp2
 70
     1
102
RTVSPropertyOp3
 70
     1
102
RTVSPropertyOp4
 70
     1
102
RTVSPropertyOp5
 70
     1
102
RTVSPropertyOp6
 70
     1
102
RTVSPropertyOp7
 70
     1
102
RTVSPropertyOp8
 70
     1
102
RTVSPropertyOp9
 70
     1
102
RTVSPropertyOp10
 70
     1
102
RTVSPropertyOp11
 70
     1
102
RTVSPropertyOp12
 70
     1
102
RTVSPropertyOp13
 70
     1
102
RTVSPropertyOp14
 70
     1
102
RTVSPropertyOp15
 70
     1
102
RTVSPropertyOp16
 70
     1
102
RTVSPropertyOp17
 70
     1
102
RTVSPropertyOp18
 70
     1
102
RTVSPropertyOp19
 70
     1
102
RTVSPropertyOp20
 70
     1
102
RTVSPropertyOp21
 70
     1
102
RTVSPropertyOp22
 70
     1
102
RTVSPropertyOp23
 70
     1
102
RTVSPropertyOp24
 70
     1
102
RTVSPropertyOp25
 70
     1
102
RTVSPropertyOp26
 70
     1
102
RTVSPropertyOp27
 70
     1
102
RTVSPropertyOp28
 70
     1
102
RTVSPropertyOp29
 70
     1
102
RTVSPropertyOp30
 70
     1
102
RTVSPropertyOp31
 70
     1
102
RTVSPropertyOp32
 70
     1
102
RTVSPropertyOp33
 70
     1
102
RTVSPropertyOp34
 70
     1
102
RTVSPropertyOp35
 70
     1
102
RTVSPropertyOp36
 70
     1
102
RTVSPropertyOp37
 70
     1
102
RTVSPropertyOp38
 70
     1
102
RTVSPropertyOp39
 70
     1
102
RTVSPropertyOp40
 70
     1
102
RTVSPropertyOp41
 70
     1
102
RTVSPropertyOp42
 70
     1
102
RTVSPropertyOp43
 70
     1
102
RTVSPropertyOp44
 70
     1
102
RTVSPropertyOp45
 70
     1
102
RTVSPropertyOp46
 70
     1
102
RTVSPropertyOp47
 70
     1
102
RTVSPropertyOp48
 70
     1
102
RTVSPropertyOp49
 70
     1
102
RTVSPropertyOp50
 70
     1
102
RTVSPropertyOp51
 70
     0
102
RTVSPropertyOp52
 70
     0
102
RTVSPropertyOp53
 70
     1
102
RTVSPropertyOp54
 70
     1
102
RTVSPropertyOp55
 70
     1
102
RTVSPropertyOp56
 70
     1
102
RTVSPropertyOp57
 70
     1
102
RTVSPropertyOp58
 70
     1
102
RTVSPropertyOp59
 70
     1
102
RTVSPropertyOp60
 70
     1
102
RTVSPropertyOp61
 70
     1
102
RTVSPropertyOp62
 70
     1
  0
XRECORD
  5
14BBE
102
{ACAD_REACTORS
330
14BBD
102
}
330
14BBD
100
AcDbXrecord
280
     1
102
RTVSPost2010Prop28
280
     0
102
RTVSPost2010PropOp28
 70
     1
102
RTVSPost2010Prop29
280
     1
102
RTVSPost2010PropOp29
 70
     1
102
RTVSPost2010Prop30
280
     1
102
RTVSPost2010PropOp30
 70
     1
102
RTVSPost2010Prop31
280
     0
102
RTVSPost2010PropOp31
 70
     1
102
RTVSPost2010Prop32
280
     0
102
RTVSPost2010PropOp32
 70
     1
102
RTVSPost2010Prop33
280
     0
102
RTVSPost2010PropOp33
 70
     1
102
RTVSPost2010Prop34
280
     0
102
RTVSPost2010PropOp34
 70
     1
102
RTVSPost2010Prop35
280
     0
102
RTVSPost2010PropOp35
 70
     1
102
RTVSPost2010Prop36
280
     0
102
RTVSPost2010PropOp36
 70
     1
102
RTVSPost2010Prop37
 90
       50
102
RTVSPost2010PropOp37
 70
     1
102
RTVSPost2010Prop38
140
0.0
102
RTVSPost2010PropOp38
 70
     1
102
RTVSPost2010Prop39
140
1.0
102
RTVSPost2010PropOp39
 70
     1
102
RTVSPost2010Prop40
 90
        0
102
RTVSPost2010PropOp40
 70
     1
102
RTVSPost2010Prop41ColorIndex
 90
       18
102
RTVSPost2010Prop41ColorRGB
 90
        0
102
RTVSPost2010PropOp41
 70
     1
102
RTVSPost2010Prop42
 90
       50
102
RTVSPost2010PropOp42
 70
     1
102
RTVSPost2010Prop43
 90
        3
102
RTVSPost2010PropOp43
 70
     1
102
RTVSPost2010Prop44ColorIndex
 90
        5
102
RTVSPost2010Prop44ColorRGB
 90
      255
102
RTVSPost2010PropOp44
 70
     1
102
RTVSPost2010Prop45
280
     0
102
RTVSPost2010PropOp45
 70
     1
102
RTVSPost2010Prop46
 90
       50
102
RTVSPost2010PropOp46
 70
     1
102
RTVSPost2010Prop47
 90
       50
102
RTVSPost2010PropOp47
 70
     1
102
RTVSPost2010Prop48
 90
       50
102
RTVSPost2010PropOp48
 70
     1
102
RTVSPost2010Prop49
280
     0
102
RTVSPost2010PropOp49
 70
     1
102
RTVSPost2010Prop50
 90
       50
102
RTVSPost2010PropOp50
 70
     1
102
RTVSPost2010Prop51ColorIndex
 90
      256
102
RTVSPost2010Prop51ColorRGB
 90
-16777216
102
RTVSPost2010PropOp51
 70
     0
102
RTVSPost2010Prop52
140
1.0
102
RTVSPost2010PropOp52
 70
     0
102
RTVSPost2010Prop53
 90
        2
102
RTVSPost2010PropOp53
 70
     1
102
RTVSPost2010Prop54
  1
strokes_ogs.tif
102
RTVSPost2010PropOp54
 70
     1
102
RTVSPost2010Prop55
280
     0
102
RTVSPost2010PropOp55
 70
     1
102
RTVSPost2010Prop56
140
1.0
102
RTVSPost2010PropOp56
 70
     1
102
RTVSPost2010Prop57
140
1.0
102
RTVSPost2010PropOp57
 70
     1
102
RTVSPropertyOp0
 70
     1
102
RTVSPropertyOp1
 70
     1
102
RTVSPropertyOp2
 70
     1
102
RTVSPropertyOp3
 70
     1
102
RTVSPropertyOp4
 70
     1
102
RTVSPropertyOp5
 70
     1
102
RTVSPropertyOp6
 70
     1
102
RTVSPropertyOp7
 70
     1
102
RTVSPropertyOp8
 70
     1
102
RTVSPropertyOp9
 70
     1
102
RTVSPropertyOp10
 70
     1
102
RTVSPropertyOp11
 70
     1
102
RTVSPropertyOp12
 70
     1
102
RTVSPropertyOp13
 70
     1
102
RTVSPropertyOp14
 70
     1
102
RTVSPropertyOp15
 70
     1
102
RTVSPropertyOp16
 70
     1
102
RTVSPropertyOp17
 70
     1
102
RTVSPropertyOp18
 70
     1
102
RTVSPropertyOp19
 70
     1
102
RTVSPropertyOp20
 70
     1
102
RTVSPropertyOp21
 70
     1
102
RTVSPropertyOp22
 70
     1
102
RTVSPropertyOp23
 70
     1
102
RTVSPropertyOp24
 70
     1
102
RTVSPropertyOp25
 70
     1
102
RTVSPropertyOp26
 70
     1
102
RTVSPropertyOp27
 70
     1
102
RTVSPropertyOp28
 70
     1
102
RTVSPropertyOp29
 70
     1
102
RTVSPropertyOp30
 70
     1
102
RTVSPropertyOp31
 70
     1
102
RTVSPropertyOp32
 70
     1
102
RTVSPropertyOp33
 70
     1
102
RTVSPropertyOp34
 70
     1
102
RTVSPropertyOp35
 70
     1
102
RTVSPropertyOp36
 70
     1
102
RTVSPropertyOp37
 70
     1
102
RTVSPropertyOp38
 70
     1
102
RTVSPropertyOp39
 70
     1
102
RTVSPropertyOp40
 70
     1
102
RTVSPropertyOp41
 70
     1
102
RTVSPropertyOp42
 70
     1
102
RTVSPropertyOp43
 70
     1
102
RTVSPropertyOp44
 70
     1
102
RTVSPropertyOp45
 70
     1
102
RTVSPropertyOp46
 70
     1
102
RTVSPropertyOp47
 70
     1
102
RTVSPropertyOp48
 70
     1
102
RTVSPropertyOp49
 70
     1
102
RTVSPropertyOp50
 70
     1
102
RTVSPropertyOp51
 70
     0
102
RTVSPropertyOp52
 70
     0
102
RTVSPropertyOp53
 70
     1
102
RTVSPropertyOp54
 70
     1
102
RTVSPropertyOp55
 70
     1
102
RTVSPropertyOp56
 70
     1
102
RTVSPropertyOp57
 70
     1
102
RTVSPropertyOp58
 70
     1
102
RTVSPropertyOp59
 70
     1
102
RTVSPropertyOp60
 70
     1
102
RTVSPropertyOp61
 70
     1
102
RTVSPropertyOp62
 70
     1
  0
XRECORD
  5
14BBA
102
{ACAD_REACTORS
330
14BB9
102
}
330
14BB9
100
AcDbXrecord
280
     1
102
RTVSPost2010Prop28
280
     0
102
RTVSPost2010PropOp28
 70
     1
102
RTVSPost2010Prop29
280
     1
102
RTVSPost2010PropOp29
 70
     1
102
RTVSPost2010Prop30
280
     1
102
RTVSPost2010PropOp30
 70
     1
102
RTVSPost2010Prop31
280
     0
102
RTVSPost2010PropOp31
 70
     1
102
RTVSPost2010Prop32
280
     0
102
RTVSPost2010PropOp32
 70
     1
102
RTVSPost2010Prop33
280
     0
102
RTVSPost2010PropOp33
 70
     1
102
RTVSPost2010Prop34
280
     0
102
RTVSPost2010PropOp34
 70
     1
102
RTVSPost2010Prop35
280
     0
102
RTVSPost2010PropOp35
 70
     1
102
RTVSPost2010Prop36
280
     0
102
RTVSPost2010PropOp36
 70
     1
102
RTVSPost2010Prop37
 90
       50
102
RTVSPost2010PropOp37
 70
     1
102
RTVSPost2010Prop38
140
0.0
102
RTVSPost2010PropOp38
 70
     1
102
RTVSPost2010Prop39
140
1.0
102
RTVSPost2010PropOp39
 70
     1
102
RTVSPost2010Prop40
 90
        0
102
RTVSPost2010PropOp40
 70
     1
102
RTVSPost2010Prop41ColorIndex
 90
       18
102
RTVSPost2010Prop41ColorRGB
 90
        0
102
RTVSPost2010PropOp41
 70
     1
102
RTVSPost2010Prop42
 90
       50
102
RTVSPost2010PropOp42
 70
     1
102
RTVSPost2010Prop43
 90
        3
102
RTVSPost2010PropOp43
 70
     1
102
RTVSPost2010Prop44ColorIndex
 90
        5
102
RTVSPost2010Prop44ColorRGB
 90
      255
102
RTVSPost2010PropOp44
 70
     1
102
RTVSPost2010Prop45
280
     0
102
RTVSPost2010PropOp45
 70
     1
102
RTVSPost2010Prop46
 90
       50
102
RTVSPost2010PropOp46
 70
     1
102
RTVSPost2010Prop47
 90
       50
102
RTVSPost2010PropOp47
 70
     1
102
RTVSPost2010Prop48
 90
       50
102
RTVSPost2010PropOp48
 70
     1
102
RTVSPost2010Prop49
280
     0
102
RTVSPost2010PropOp49
 70
     1
102
RTVSPost2010Prop50
 90
       50
102
RTVSPost2010PropOp50
 70
     1
102
RTVSPost2010Prop51ColorIndex
 90
      256
102
RTVSPost2010Prop51ColorRGB
 90
-16777216
102
RTVSPost2010PropOp51
 70
     0
102
RTVSPost2010Prop52
140
1.0
102
RTVSPost2010PropOp52
 70
     0
102
RTVSPost2010Prop53
 90
        2
102
RTVSPost2010PropOp53
 70
     1
102
RTVSPost2010Prop54
  1
strokes_ogs.tif
102
RTVSPost2010PropOp54
 70
     1
102
RTVSPost2010Prop55
280
     0
102
RTVSPost2010PropOp55
 70
     1
102
RTVSPost2010Prop56
140
1.0
102
RTVSPost2010PropOp56
 70
     1
102
RTVSPost2010Prop57
140
1.0
102
RTVSPost2010PropOp57
 70
     1
102
RTVSPropertyOp0
 70
     1
102
RTVSPropertyOp1
 70
     1
102
RTVSPropertyOp2
 70
     1
102
RTVSPropertyOp3
 70
     1
102
RTVSPropertyOp4
 70
     1
102
RTVSPropertyOp5
 70
     1
102
RTVSPropertyOp6
 70
     1
102
RTVSPropertyOp7
 70
     1
102
RTVSPropertyOp8
 70
     1
102
RTVSPropertyOp9
 70
     1
102
RTVSPropertyOp10
 70
     1
102
RTVSPropertyOp11
 70
     1
102
RTVSPropertyOp12
 70
     1
102
RTVSPropertyOp13
 70
     1
102
RTVSPropertyOp14
 70
     1
102
RTVSPropertyOp15
 70
     1
102
RTVSPropertyOp16
 70
     1
102
RTVSPropertyOp17
 70
     1
102
RTVSPropertyOp18
 70
     1
102
RTVSPropertyOp19
 70
     1
102
RTVSPropertyOp20
 70
     1
102
RTVSPropertyOp21
 70
     1
102
RTVSPropertyOp22
 70
     1
102
RTVSPropertyOp23
 70
     1
102
RTVSPropertyOp24
 70
     1
102
RTVSPropertyOp25
 70
     1
102
RTVSPropertyOp26
 70
     1
102
RTVSPropertyOp27
 70
     1
102
RTVSPropertyOp28
 70
     1
102
RTVSPropertyOp29
 70
     1
102
RTVSPropertyOp30
 70
     1
102
RTVSPropertyOp31
 70
     1
102
RTVSPropertyOp32
 70
     1
102
RTVSPropertyOp33
 70
     1
102
RTVSPropertyOp34
 70
     1
102
RTVSPropertyOp35
 70
     1
102
RTVSPropertyOp36
 70
     1
102
RTVSPropertyOp37
 70
     1
102
RTVSPropertyOp38
 70
     1
102
RTVSPropertyOp39
 70
     1
102
RTVSPropertyOp40
 70
     1
102
RTVSPropertyOp41
 70
     1
102
RTVSPropertyOp42
 70
     1
102
RTVSPropertyOp43
 70
     1
102
RTVSPropertyOp44
 70
     1
102
RTVSPropertyOp45
 70
     1
102
RTVSPropertyOp46
 70
     1
102
RTVSPropertyOp47
 70
     1
102
RTVSPropertyOp48
 70
     1
102
RTVSPropertyOp49
 70
     1
102
RTVSPropertyOp50
 70
     1
102
RTVSPropertyOp51
 70
     0
102
RTVSPropertyOp52
 70
     0
102
RTVSPropertyOp53
 70
     1
102
RTVSPropertyOp54
 70
     1
102
RTVSPropertyOp55
 70
     1
102
RTVSPropertyOp56
 70
     1
102
RTVSPropertyOp57
 70
     1
102
RTVSPropertyOp58
 70
     1
102
RTVSPropertyOp59
 70
     1
102
RTVSPropertyOp60
 70
     1
102
RTVSPropertyOp61
 70
     1
102
RTVSPropertyOp62
 70
     1
  0
XRECORD
  5
14BC8
102
{ACAD_REACTORS
330
14BC7
102
}
330
14BC7
100
AcDbXrecord
280
     1
102
RTVSPost2010Prop28
280
     0
102
RTVSPost2010PropOp28
 70
     1
102
RTVSPost2010Prop29
280
     1
102
RTVSPost2010PropOp29
 70
     1
102
RTVSPost2010Prop30
280
     1
102
RTVSPost2010PropOp30
 70
     1
102
RTVSPost2010Prop31
280
     0
102
RTVSPost2010PropOp31
 70
     1
102
RTVSPost2010Prop32
280
     0
102
RTVSPost2010PropOp32
 70
     1
102
RTVSPost2010Prop33
280
     0
102
RTVSPost2010PropOp33
 70
     1
102
RTVSPost2010Prop34
280
     0
102
RTVSPost2010PropOp34
 70
     1
102
RTVSPost2010Prop35
280
     0
102
RTVSPost2010PropOp35
 70
     1
102
RTVSPost2010Prop36
280
     0
102
RTVSPost2010PropOp36
 70
     1
102
RTVSPost2010Prop37
 90
       50
102
RTVSPost2010PropOp37
 70
     1
102
RTVSPost2010Prop38
140
0.0
102
RTVSPost2010PropOp38
 70
     1
102
RTVSPost2010Prop39
140
1.0
102
RTVSPost2010PropOp39
 70
     1
102
RTVSPost2010Prop40
 90
        0
102
RTVSPost2010PropOp40
 70
     1
102
RTVSPost2010Prop41ColorIndex
 90
       18
102
RTVSPost2010Prop41ColorRGB
 90
        0
102
RTVSPost2010PropOp41
 70
     1
102
RTVSPost2010Prop42
 90
       50
102
RTVSPost2010PropOp42
 70
     1
102
RTVSPost2010Prop43
 90
        3
102
RTVSPost2010PropOp43
 70
     1
102
RTVSPost2010Prop44ColorIndex
 90
        5
102
RTVSPost2010Prop44ColorRGB
 90
      255
102
RTVSPost2010PropOp44
 70
     1
102
RTVSPost2010Prop45
280
     0
102
RTVSPost2010PropOp45
 70
     1
102
RTVSPost2010Prop46
 90
       50
102
RTVSPost2010PropOp46
 70
     1
102
RTVSPost2010Prop47
 90
       50
102
RTVSPost2010PropOp47
 70
     1
102
RTVSPost2010Prop48
 90
       50
102
RTVSPost2010PropOp48
 70
     1
102
RTVSPost2010Prop49
280
     0
102
RTVSPost2010PropOp49
 70
     1
102
RTVSPost2010Prop50
 90
       50
102
RTVSPost2010PropOp50
 70
     1
102
RTVSPost2010Prop51ColorIndex
 90
      256
102
RTVSPost2010Prop51ColorRGB
 90
-16777216
102
RTVSPost2010PropOp51
 70
     0
102
RTVSPost2010Prop52
140
1.0
102
RTVSPost2010PropOp52
 70
     0
102
RTVSPost2010Prop53
 90
        2
102
RTVSPost2010PropOp53
 70
     1
102
RTVSPost2010Prop54
  1
strokes_ogs.tif
102
RTVSPost2010PropOp54
 70
     1
102
RTVSPost2010Prop55
280
     0
102
RTVSPost2010PropOp55
 70
     1
102
RTVSPost2010Prop56
140
1.0
102
RTVSPost2010PropOp56
 70
     1
102
RTVSPost2010Prop57
140
1.0
102
RTVSPost2010PropOp57
 70
     1
102
RTVSPropertyOp0
 70
     1
102
RTVSPropertyOp1
 70
     1
102
RTVSPropertyOp2
 70
     1
102
RTVSPropertyOp3
 70
     1
102
RTVSPropertyOp4
 70
     1
102
RTVSPropertyOp5
 70
     1
102
RTVSPropertyOp6
 70
     1
102
RTVSPropertyOp7
 70
     1
102
RTVSPropertyOp8
 70
     1
102
RTVSPropertyOp9
 70
     1
102
RTVSPropertyOp10
 70
     1
102
RTVSPropertyOp11
 70
     1
102
RTVSPropertyOp12
 70
     1
102
RTVSPropertyOp13
 70
     1
102
RTVSPropertyOp14
 70
     1
102
RTVSPropertyOp15
 70
     1
102
RTVSPropertyOp16
 70
     1
102
RTVSPropertyOp17
 70
     1
102
RTVSPropertyOp18
 70
     1
102
RTVSPropertyOp19
 70
     1
102
RTVSPropertyOp20
 70
     1
102
RTVSPropertyOp21
 70
     1
102
RTVSPropertyOp22
 70
     1
102
RTVSPropertyOp23
 70
     1
102
RTVSPropertyOp24
 70
     1
102
RTVSPropertyOp25
 70
     1
102
RTVSPropertyOp26
 70
     1
102
RTVSPropertyOp27
 70
     1
102
RTVSPropertyOp28
 70
     1
102
RTVSPropertyOp29
 70
     1
102
RTVSPropertyOp30
 70
     1
102
RTVSPropertyOp31
 70
     1
102
RTVSPropertyOp32
 70
     1
102
RTVSPropertyOp33
 70
     1
102
RTVSPropertyOp34
 70
     1
102
RTVSPropertyOp35
 70
     1
102
RTVSPropertyOp36
 70
     1
102
RTVSPropertyOp37
 70
     1
102
RTVSPropertyOp38
 70
     1
102
RTVSPropertyOp39
 70
     1
102
RTVSPropertyOp40
 70
     1
102
RTVSPropertyOp41
 70
     1
102
RTVSPropertyOp42
 70
     1
102
RTVSPropertyOp43
 70
     1
102
RTVSPropertyOp44
 70
     1
102
RTVSPropertyOp45
 70
     1
102
RTVSPropertyOp46
 70
     1
102
RTVSPropertyOp47
 70
     1
102
RTVSPropertyOp48
 70
     1
102
RTVSPropertyOp49
 70
     1
102
RTVSPropertyOp50
 70
     1
102
RTVSPropertyOp51
 70
     0
102
RTVSPropertyOp52
 70
     0
102
RTVSPropertyOp53
 70
     1
102
RTVSPropertyOp54
 70
     1
102
RTVSPropertyOp55
 70
     1
102
RTVSPropertyOp56
 70
     1
102
RTVSPropertyOp57
 70
     1
102
RTVSPropertyOp58
 70
     1
102
RTVSPropertyOp59
 70
     1
102
RTVSPropertyOp60
 70
     1
102
RTVSPropertyOp61
 70
     1
102
RTVSPropertyOp62
 70
     1
  0
XRECORD
  5
14BD0
102
{ACAD_REACTORS
330
14BCF
102
}
330
14BCF
100
AcDbXrecord
280
     1
102
RTVSPost2010Prop28
280
     0
102
RTVSPost2010PropOp28
 70
     1
102
RTVSPost2010Prop29
280
     1
102
RTVSPost2010PropOp29
 70
     1
102
RTVSPost2010Prop30
280
     1
102
RTVSPost2010PropOp30
 70
     1
102
RTVSPost2010Prop31
280
     0
102
RTVSPost2010PropOp31
 70
     1
102
RTVSPost2010Prop32
280
     0
102
RTVSPost2010PropOp32
 70
     1
102
RTVSPost2010Prop33
280
     0
102
RTVSPost2010PropOp33
 70
     1
102
RTVSPost2010Prop34
280
     0
102
RTVSPost2010PropOp34
 70
     1
102
RTVSPost2010Prop35
280
     0
102
RTVSPost2010PropOp35
 70
     1
102
RTVSPost2010Prop36
280
     0
102
RTVSPost2010PropOp36
 70
     1
102
RTVSPost2010Prop37
 90
       50
102
RTVSPost2010PropOp37
 70
     1
102
RTVSPost2010Prop38
140
0.0
102
RTVSPost2010PropOp38
 70
     1
102
RTVSPost2010Prop39
140
1.0
102
RTVSPost2010PropOp39
 70
     1
102
RTVSPost2010Prop40
 90
        0
102
RTVSPost2010PropOp40
 70
     1
102
RTVSPost2010Prop41ColorIndex
 90
       18
102
RTVSPost2010Prop41ColorRGB
 90
        0
102
RTVSPost2010PropOp41
 70
     1
102
RTVSPost2010Prop42
 90
       50
102
RTVSPost2010PropOp42
 70
     1
102
RTVSPost2010Prop43
 90
        3
102
RTVSPost2010PropOp43
 70
     1
102
RTVSPost2010Prop44ColorIndex
 90
        5
102
RTVSPost2010Prop44ColorRGB
 90
      255
102
RTVSPost2010PropOp44
 70
     1
102
RTVSPost2010Prop45
280
     0
102
RTVSPost2010PropOp45
 70
     1
102
RTVSPost2010Prop46
 90
       50
102
RTVSPost2010PropOp46
 70
     1
102
RTVSPost2010Prop47
 90
       50
102
RTVSPost2010PropOp47
 70
     1
102
RTVSPost2010Prop48
 90
       50
102
RTVSPost2010PropOp48
 70
     1
102
RTVSPost2010Prop49
280
     0
102
RTVSPost2010PropOp49
 70
     1
102
RTVSPost2010Prop50
 90
       50
102
RTVSPost2010PropOp50
 70
     1
102
RTVSPost2010Prop51ColorIndex
 90
      256
102
RTVSPost2010Prop51ColorRGB
 90
-16777216
102
RTVSPost2010PropOp51
 70
     0
102
RTVSPost2010Prop52
140
1.0
102
RTVSPost2010PropOp52
 70
     0
102
RTVSPost2010Prop53
 90
        2
102
RTVSPost2010PropOp53
 70
     1
102
RTVSPost2010Prop54
  1
strokes_ogs.tif
102
RTVSPost2010PropOp54
 70
     1
102
RTVSPost2010Prop55
280
     0
102
RTVSPost2010PropOp55
 70
     1
102
RTVSPost2010Prop56
140
1.0
102
RTVSPost2010PropOp56
 70
     1
102
RTVSPost2010Prop57
140
1.0
102
RTVSPost2010PropOp57
 70
     1
102
RTVSPropertyOp0
 70
     1
102
RTVSPropertyOp1
 70
     1
102
RTVSPropertyOp2
 70
     1
102
RTVSPropertyOp3
 70
     1
102
RTVSPropertyOp4
 70
     1
102
RTVSPropertyOp5
 70
     1
102
RTVSPropertyOp6
 70
     1
102
RTVSPropertyOp7
 70
     1
102
RTVSPropertyOp8
 70
     1
102
RTVSPropertyOp9
 70
     1
102
RTVSPropertyOp10
 70
     1
102
RTVSPropertyOp11
 70
     1
102
RTVSPropertyOp12
 70
     1
102
RTVSPropertyOp13
 70
     1
102
RTVSPropertyOp14
 70
     1
102
RTVSPropertyOp15
 70
     1
102
RTVSPropertyOp16
 70
     1
102
RTVSPropertyOp17
 70
     1
102
RTVSPropertyOp18
 70
     1
102
RTVSPropertyOp19
 70
     1
102
RTVSPropertyOp20
 70
     1
102
RTVSPropertyOp21
 70
     1
102
RTVSPropertyOp22
 70
     1
102
RTVSPropertyOp23
 70
     1
102
RTVSPropertyOp24
 70
     1
102
RTVSPropertyOp25
 70
     1
102
RTVSPropertyOp26
 70
     1
102
RTVSPropertyOp27
 70
     1
102
RTVSPropertyOp28
 70
     1
102
RTVSPropertyOp29
 70
     1
102
RTVSPropertyOp30
 70
     1
102
RTVSPropertyOp31
 70
     1
102
RTVSPropertyOp32
 70
     1
102
RTVSPropertyOp33
 70
     1
102
RTVSPropertyOp34
 70
     1
102
RTVSPropertyOp35
 70
     1
102
RTVSPropertyOp36
 70
     1
102
RTVSPropertyOp37
 70
     1
102
RTVSPropertyOp38
 70
     1
102
RTVSPropertyOp39
 70
     1
102
RTVSPropertyOp40
 70
     1
102
RTVSPropertyOp41
 70
     1
102
RTVSPropertyOp42
 70
     1
102
RTVSPropertyOp43
 70
     1
102
RTVSPropertyOp44
 70
     1
102
RTVSPropertyOp45
 70
     1
102
RTVSPropertyOp46
 70
     1
102
RTVSPropertyOp47
 70
     1
102
RTVSPropertyOp48
 70
     1
102
RTVSPropertyOp49
 70
     1
102
RTVSPropertyOp50
 70
     1
102
RTVSPropertyOp51
 70
     0
102
RTVSPropertyOp52
 70
     0
102
RTVSPropertyOp53
 70
     1
102
RTVSPropertyOp54
 70
     1
102
RTVSPropertyOp55
 70
     1
102
RTVSPropertyOp56
 70
     1
102
RTVSPropertyOp57
 70
     1
102
RTVSPropertyOp58
 70
     1
102
RTVSPropertyOp59
 70
     1
102
RTVSPropertyOp60
 70
     1
102
RTVSPropertyOp61
 70
     1
102
RTVSPropertyOp62
 70
     1
  0
XRECORD
  5
14BC2
102
{ACAD_REACTORS
330
14BC1
102
}
330
14BC1
100
AcDbXrecord
280
     1
102
RTVSPost2010Prop28
280
     0
102
RTVSPost2010PropOp28
 70
     1
102
RTVSPost2010Prop29
280
     1
102
RTVSPost2010PropOp29
 70
     1
102
RTVSPost2010Prop30
280
     1
102
RTVSPost2010PropOp30
 70
     1
102
RTVSPost2010Prop31
280
     0
102
RTVSPost2010PropOp31
 70
     1
102
RTVSPost2010Prop32
280
     0
102
RTVSPost2010PropOp32
 70
     1
102
RTVSPost2010Prop33
280
     0
102
RTVSPost2010PropOp33
 70
     1
102
RTVSPost2010Prop34
280
     0
102
RTVSPost2010PropOp34
 70
     1
102
RTVSPost2010Prop35
280
     0
102
RTVSPost2010PropOp35
 70
     1
102
RTVSPost2010Prop36
280
     0
102
RTVSPost2010PropOp36
 70
     1
102
RTVSPost2010Prop37
 90
       50
102
RTVSPost2010PropOp37
 70
     1
102
RTVSPost2010Prop38
140
0.0
102
RTVSPost2010PropOp38
 70
     1
102
RTVSPost2010Prop39
140
1.0
102
RTVSPost2010PropOp39
 70
     1
102
RTVSPost2010Prop40
 90
        0
102
RTVSPost2010PropOp40
 70
     1
102
RTVSPost2010Prop41ColorIndex
 90
       18
102
RTVSPost2010Prop41ColorRGB
 90
        0
102
RTVSPost2010PropOp41
 70
     1
102
RTVSPost2010Prop42
 90
       50
102
RTVSPost2010PropOp42
 70
     1
102
RTVSPost2010Prop43
 90
        3
102
RTVSPost2010PropOp43
 70
     1
102
RTVSPost2010Prop44ColorIndex
 90
        5
102
RTVSPost2010Prop44ColorRGB
 90
      255
102
RTVSPost2010PropOp44
 70
     1
102
RTVSPost2010Prop45
280
     0
102
RTVSPost2010PropOp45
 70
     1
102
RTVSPost2010Prop46
 90
       50
102
RTVSPost2010PropOp46
 70
     1
102
RTVSPost2010Prop47
 90
       50
102
RTVSPost2010PropOp47
 70
     1
102
RTVSPost2010Prop48
 90
       50
102
RTVSPost2010PropOp48
 70
     1
102
RTVSPost2010Prop49
280
     0
102
RTVSPost2010PropOp49
 70
     1
102
RTVSPost2010Prop50
 90
       50
102
RTVSPost2010PropOp50
 70
     1
102
RTVSPost2010Prop51ColorIndex
 90
      256
102
RTVSPost2010Prop51ColorRGB
 90
-16777216
102
RTVSPost2010PropOp51
 70
     0
102
RTVSPost2010Prop52
140
1.0
102
RTVSPost2010PropOp52
 70
     0
102
RTVSPost2010Prop53
 90
        2
102
RTVSPost2010PropOp53
 70
     1
102
RTVSPost2010Prop54
  1
strokes_ogs.tif
102
RTVSPost2010PropOp54
 70
     1
102
RTVSPost2010Prop55
280
     0
102
RTVSPost2010PropOp55
 70
     1
102
RTVSPost2010Prop56
140
1.0
102
RTVSPost2010PropOp56
 70
     1
102
RTVSPost2010Prop57
140
1.0
102
RTVSPost2010PropOp57
 70
     1
102
RTVSPropertyOp0
 70
     1
102
RTVSPropertyOp1
 70
     1
102
RTVSPropertyOp2
 70
     1
102
RTVSPropertyOp3
 70
     1
102
RTVSPropertyOp4
 70
     1
102
RTVSPropertyOp5
 70
     1
102
RTVSPropertyOp6
 70
     1
102
RTVSPropertyOp7
 70
     1
102
RTVSPropertyOp8
 70
     1
102
RTVSPropertyOp9
 70
     1
102
RTVSPropertyOp10
 70
     1
102
RTVSPropertyOp11
 70
     1
102
RTVSPropertyOp12
 70
     1
102
RTVSPropertyOp13
 70
     1
102
RTVSPropertyOp14
 70
     1
102
RTVSPropertyOp15
 70
     1
102
RTVSPropertyOp16
 70
     1
102
RTVSPropertyOp17
 70
     1
102
RTVSPropertyOp18
 70
     1
102
RTVSPropertyOp19
 70
     1
102
RTVSPropertyOp20
 70
     1
102
RTVSPropertyOp21
 70
     1
102
RTVSPropertyOp22
 70
     1
102
RTVSPropertyOp23
 70
     1
102
RTVSPropertyOp24
 70
     1
102
RTVSPropertyOp25
 70
     1
102
RTVSPropertyOp26
 70
     1
102
RTVSPropertyOp27
 70
     1
102
RTVSPropertyOp28
 70
     1
102
RTVSPropertyOp29
 70
     1
102
RTVSPropertyOp30
 70
     1
102
RTVSPropertyOp31
 70
     1
102
RTVSPropertyOp32
 70
     1
102
RTVSPropertyOp33
 70
     1
102
RTVSPropertyOp34
 70
     1
102
RTVSPropertyOp35
 70
     1
102
RTVSPropertyOp36
 70
     1
102
RTVSPropertyOp37
 70
     1
102
RTVSPropertyOp38
 70
     1
102
RTVSPropertyOp39
 70
     1
102
RTVSPropertyOp40
 70
     1
102
RTVSPropertyOp41
 70
     1
102
RTVSPropertyOp42
 70
     1
102
RTVSPropertyOp43
 70
     1
102
RTVSPropertyOp44
 70
     1
102
RTVSPropertyOp45
 70
     1
102
RTVSPropertyOp46
 70
     1
102
RTVSPropertyOp47
 70
     1
102
RTVSPropertyOp48
 70
     1
102
RTVSPropertyOp49
 70
     1
102
RTVSPropertyOp50
 70
     1
102
RTVSPropertyOp51
 70
     0
102
RTVSPropertyOp52
 70
     0
102
RTVSPropertyOp53
 70
     1
102
RTVSPropertyOp54
 70
     1
102
RTVSPropertyOp55
 70
     1
102
RTVSPropertyOp56
 70
     1
102
RTVSPropertyOp57
 70
     1
102
RTVSPropertyOp58
 70
     1
102
RTVSPropertyOp59
 70
     1
102
RTVSPropertyOp60
 70
     1
102
RTVSPropertyOp61
 70
     1
102
RTVSPropertyOp62
 70
     1
  0
XRECORD
  5
14BC6
102
{ACAD_REACTORS
330
14BC5
102
}
330
14BC5
100
AcDbXrecord
280
     1
102
RTVSPost2010Prop28
280
     0
102
RTVSPost2010PropOp28
 70
     1
102
RTVSPost2010Prop29
280
     1
102
RTVSPost2010PropOp29
 70
     1
102
RTVSPost2010Prop30
280
     1
102
RTVSPost2010PropOp30
 70
     1
102
RTVSPost2010Prop31
280
     0
102
RTVSPost2010PropOp31
 70
     1
102
RTVSPost2010Prop32
280
     0
102
RTVSPost2010PropOp32
 70
     1
102
RTVSPost2010Prop33
280
     0
102
RTVSPost2010PropOp33
 70
     1
102
RTVSPost2010Prop34
280
     0
102
RTVSPost2010PropOp34
 70
     1
102
RTVSPost2010Prop35
280
     0
102
RTVSPost2010PropOp35
 70
     1
102
RTVSPost2010Prop36
280
     0
102
RTVSPost2010PropOp36
 70
     1
102
RTVSPost2010Prop37
 90
       50
102
RTVSPost2010PropOp37
 70
     1
102
RTVSPost2010Prop38
140
0.0
102
RTVSPost2010PropOp38
 70
     1
102
RTVSPost2010Prop39
140
1.0
102
RTVSPost2010PropOp39
 70
     1
102
RTVSPost2010Prop40
 90
        0
102
RTVSPost2010PropOp40
 70
     1
102
RTVSPost2010Prop41ColorIndex
 90
       18
102
RTVSPost2010Prop41ColorRGB
 90
        0
102
RTVSPost2010PropOp41
 70
     1
102
RTVSPost2010Prop42
 90
       50
102
RTVSPost2010PropOp42
 70
     1
102
RTVSPost2010Prop43
 90
        3
102
RTVSPost2010PropOp43
 70
     1
102
RTVSPost2010Prop44ColorIndex
 90
        5
102
RTVSPost2010Prop44ColorRGB
 90
      255
102
RTVSPost2010PropOp44
 70
     1
102
RTVSPost2010Prop45
280
     0
102
RTVSPost2010PropOp45
 70
     1
102
RTVSPost2010Prop46
 90
       50
102
RTVSPost2010PropOp46
 70
     1
102
RTVSPost2010Prop47
 90
       50
102
RTVSPost2010PropOp47
 70
     1
102
RTVSPost2010Prop48
 90
       50
102
RTVSPost2010PropOp48
 70
     1
102
RTVSPost2010Prop49
280
     0
102
RTVSPost2010PropOp49
 70
     1
102
RTVSPost2010Prop50
 90
       50
102
RTVSPost2010PropOp50
 70
     1
102
RTVSPost2010Prop51ColorIndex
 90
      256
102
RTVSPost2010Prop51ColorRGB
 90
-16777216
102
RTVSPost2010PropOp51
 70
     0
102
RTVSPost2010Prop52
140
1.0
102
RTVSPost2010PropOp52
 70
     0
102
RTVSPost2010Prop53
 90
        2
102
RTVSPost2010PropOp53
 70
     1
102
RTVSPost2010Prop54
  1
strokes_ogs.tif
102
RTVSPost2010PropOp54
 70
     1
102
RTVSPost2010Prop55
280
     0
102
RTVSPost2010PropOp55
 70
     1
102
RTVSPost2010Prop56
140
1.0
102
RTVSPost2010PropOp56
 70
     1
102
RTVSPost2010Prop57
140
1.0
102
RTVSPost2010PropOp57
 70
     1
102
RTVSPropertyOp0
 70
     1
102
RTVSPropertyOp1
 70
     1
102
RTVSPropertyOp2
 70
     1
102
RTVSPropertyOp3
 70
     1
102
RTVSPropertyOp4
 70
     1
102
RTVSPropertyOp5
 70
     1
102
RTVSPropertyOp6
 70
     1
102
RTVSPropertyOp7
 70
     1
102
RTVSPropertyOp8
 70
     1
102
RTVSPropertyOp9
 70
     1
102
RTVSPropertyOp10
 70
     1
102
RTVSPropertyOp11
 70
     1
102
RTVSPropertyOp12
 70
     1
102
RTVSPropertyOp13
 70
     1
102
RTVSPropertyOp14
 70
     1
102
RTVSPropertyOp15
 70
     1
102
RTVSPropertyOp16
 70
     1
102
RTVSPropertyOp17
 70
     1
102
RTVSPropertyOp18
 70
     1
102
RTVSPropertyOp19
 70
     1
102
RTVSPropertyOp20
 70
     1
102
RTVSPropertyOp21
 70
     1
102
RTVSPropertyOp22
 70
     1
102
RTVSPropertyOp23
 70
     1
102
RTVSPropertyOp24
 70
     1
102
RTVSPropertyOp25
 70
     1
102
RTVSPropertyOp26
 70
     1
102
RTVSPropertyOp27
 70
     1
102
RTVSPropertyOp28
 70
     1
102
RTVSPropertyOp29
 70
     1
102
RTVSPropertyOp30
 70
     1
102
RTVSPropertyOp31
 70
     1
102
RTVSPropertyOp32
 70
     1
102
RTVSPropertyOp33
 70
     1
102
RTVSPropertyOp34
 70
     1
102
RTVSPropertyOp35
 70
     1
102
RTVSPropertyOp36
 70
     1
102
RTVSPropertyOp37
 70
     1
102
RTVSPropertyOp38
 70
     1
102
RTVSPropertyOp39
 70
     1
102
RTVSPropertyOp40
 70
     1
102
RTVSPropertyOp41
 70
     1
102
RTVSPropertyOp42
 70
     1
102
RTVSPropertyOp43
 70
     1
102
RTVSPropertyOp44
 70
     1
102
RTVSPropertyOp45
 70
     1
102
RTVSPropertyOp46
 70
     1
102
RTVSPropertyOp47
 70
     1
102
RTVSPropertyOp48
 70
     1
102
RTVSPropertyOp49
 70
     1
102
RTVSPropertyOp50
 70
     1
102
RTVSPropertyOp51
 70
     0
102
RTVSPropertyOp52
 70
     0
102
RTVSPropertyOp53
 70
     1
102
RTVSPropertyOp54
 70
     1
102
RTVSPropertyOp55
 70
     1
102
RTVSPropertyOp56
 70
     1
102
RTVSPropertyOp57
 70
     1
102
RTVSPropertyOp58
 70
     1
102
RTVSPropertyOp59
 70
     1
102
RTVSPropertyOp60
 70
     1
102
RTVSPropertyOp61
 70
     1
102
RTVSPropertyOp62
 70
     1
  0
XRECORD
  5
14BE7
102
{ACAD_REACTORS
330
14BE6
102
}
330
14BE6
100
AcDbXrecord
280
     1
102
RTVSPost2010Prop28
280
     0
102
RTVSPost2010PropOp28
 70
     0
102
RTVSPost2010Prop29
280
     1
102
RTVSPost2010PropOp29
 70
     0
102
RTVSPost2010Prop30
280
     1
102
RTVSPost2010PropOp30
 70
     0
102
RTVSPost2010Prop31
280
     0
102
RTVSPost2010PropOp31
 70
     0
102
RTVSPost2010Prop32
280
     0
102
RTVSPost2010PropOp32
 70
     0
102
RTVSPost2010Prop33
280
     0
102
RTVSPost2010PropOp33
 70
     0
102
RTVSPost2010Prop34
280
     0
102
RTVSPost2010PropOp34
 70
     0
102
RTVSPost2010Prop35
280
     0
102
RTVSPost2010PropOp35
 70
     0
102
RTVSPost2010Prop36
280
     0
102
RTVSPost2010PropOp36
 70
     0
102
RTVSPost2010Prop37
 90
       50
102
RTVSPost2010PropOp37
 70
     0
102
RTVSPost2010Prop38
140
0.0
102
RTVSPost2010PropOp38
 70
     0
102
RTVSPost2010Prop39
140
1.0
102
RTVSPost2010PropOp39
 70
     0
102
RTVSPost2010Prop40
 90
        0
102
RTVSPost2010PropOp40
 70
     0
102
RTVSPost2010Prop41ColorIndex
 90
       18
102
RTVSPost2010Prop41ColorRGB
 90
        0
102
RTVSPost2010PropOp41
 70
     0
102
RTVSPost2010Prop42
 90
       50
102
RTVSPost2010PropOp42
 70
     0
102
RTVSPost2010Prop43
 90
        3
102
RTVSPost2010PropOp43
 70
     0
102
RTVSPost2010Prop44ColorIndex
 90
        5
102
RTVSPost2010Prop44ColorRGB
 90
      255
102
RTVSPost2010PropOp44
 70
     0
102
RTVSPost2010Prop45
280
     0
102
RTVSPost2010PropOp45
 70
     0
102
RTVSPost2010Prop46
 90
       50
102
RTVSPost2010PropOp46
 70
     0
102
RTVSPost2010Prop47
 90
       50
102
RTVSPost2010PropOp47
 70
     0
102
RTVSPost2010Prop48
 90
       50
102
RTVSPost2010PropOp48
 70
     0
102
RTVSPost2010Prop49
280
     0
102
RTVSPost2010PropOp49
 70
     0
102
RTVSPost2010Prop50
 90
       50
102
RTVSPost2010PropOp50
 70
     0
102
RTVSPost2010Prop51ColorIndex
 90
      256
102
RTVSPost2010Prop51ColorRGB
 90
-16777216
102
RTVSPost2010PropOp51
 70
     0
102
RTVSPost2010Prop52
140
1.0
102
RTVSPost2010PropOp52
 70
     0
102
RTVSPost2010Prop53
 90
        2
102
RTVSPost2010PropOp53
 70
     0
102
RTVSPost2010Prop54
  1
strokes_ogs.tif
102
RTVSPost2010PropOp54
 70
     0
102
RTVSPost2010Prop55
280
     0
102
RTVSPost2010PropOp55
 70
     0
102
RTVSPost2010Prop56
140
1.0
102
RTVSPost2010PropOp56
 70
     0
102
RTVSPost2010Prop57
140
1.0
102
RTVSPost2010PropOp57
 70
     0
102
RTVSPropertyOp0
 70
     0
102
RTVSPropertyOp1
 70
     0
102
RTVSPropertyOp2
 70
     0
102
RTVSPropertyOp3
 70
     0
102
RTVSPropertyOp4
 70
     0
102
RTVSPropertyOp5
 70
     0
102
RTVSPropertyOp6
 70
     0
102
RTVSPropertyOp7
 70
     0
102
RTVSPropertyOp8
 70
     0
102
RTVSPropertyOp9
 70
     0
102
RTVSPropertyOp10
 70
     0
102
RTVSPropertyOp11
 70
     0
102
RTVSPropertyOp12
 70
     0
102
RTVSPropertyOp13
 70
     0
102
RTVSPropertyOp14
 70
     2
102
RTVSPropertyOp15
 70
     0
102
RTVSPropertyOp16
 70
     0
102
RTVSPropertyOp17
 70
     0
102
RTVSPropertyOp18
 70
     0
102
RTVSPropertyOp19
 70
     0
102
RTVSPropertyOp20
 70
     0
102
RTVSPropertyOp21
 70
     0
102
RTVSPropertyOp22
 70
     0
102
RTVSPropertyOp23
 70
     0
102
RTVSPropertyOp24
 70
     0
102
RTVSPropertyOp25
 70
     0
102
RTVSPropertyOp26
 70
     0
102
RTVSPropertyOp27
 70
     0
102
RTVSPropertyOp28
 70
     0
102
RTVSPropertyOp29
 70
     0
102
RTVSPropertyOp30
 70
     0
102
RTVSPropertyOp31
 70
     0
102
RTVSPropertyOp32
 70
     0
102
RTVSPropertyOp33
 70
     0
102
RTVSPropertyOp34
 70
     0
102
RTVSPropertyOp35
 70
     0
102
RTVSPropertyOp36
 70
     0
102
RTVSPropertyOp37
 70
     0
102
RTVSPropertyOp38
 70
     0
102
RTVSPropertyOp39
 70
     0
102
RTVSPropertyOp40
 70
     0
102
RTVSPropertyOp41
 70
     0
102
RTVSPropertyOp42
 70
     0
102
RTVSPropertyOp43
 70
     0
102
RTVSPropertyOp44
 70
     0
102
RTVSPropertyOp45
 70
     0
102
RTVSPropertyOp46
 70
     0
102
RTVSPropertyOp47
 70
     0
102
RTVSPropertyOp48
 70
     0
102
RTVSPropertyOp49
 70
     0
102
RTVSPropertyOp50
 70
     0
102
RTVSPropertyOp51
 70
     0
102
RTVSPropertyOp52
 70
     0
102
RTVSPropertyOp53
 70
     0
102
RTVSPropertyOp54
 70
     0
102
RTVSPropertyOp55
 70
     0
102
RTVSPropertyOp56
 70
     0
102
RTVSPropertyOp57
 70
     0
102
RTVSPropertyOp58
 70
     1
102
RTVSPropertyOp59
 70
     1
102
RTVSPropertyOp60
 70
     1
102
RTVSPropertyOp61
 70
     1
102
RTVSPropertyOp62
 70
     1
  0
XRECORD
  5
14BCE
102
{ACAD_REACTORS
330
14BCD
102
}
330
14BCD
100
AcDbXrecord
280
     1
102
RTVSPost2010Prop28
280
     0
102
RTVSPost2010PropOp28
 70
     1
102
RTVSPost2010Prop29
280
     1
102
RTVSPost2010PropOp29
 70
     1
102
RTVSPost2010Prop30
280
     1
102
RTVSPost2010PropOp30
 70
     1
102
RTVSPost2010Prop31
280
     0
102
RTVSPost2010PropOp31
 70
     1
102
RTVSPost2010Prop32
280
     0
102
RTVSPost2010PropOp32
 70
     1
102
RTVSPost2010Prop33
280
     0
102
RTVSPost2010PropOp33
 70
     1
102
RTVSPost2010Prop34
280
     0
102
RTVSPost2010PropOp34
 70
     1
102
RTVSPost2010Prop35
280
     0
102
RTVSPost2010PropOp35
 70
     1
102
RTVSPost2010Prop36
280
     0
102
RTVSPost2010PropOp36
 70
     1
102
RTVSPost2010Prop37
 90
       50
102
RTVSPost2010PropOp37
 70
     1
102
RTVSPost2010Prop38
140
0.0
102
RTVSPost2010PropOp38
 70
     1
102
RTVSPost2010Prop39
140
1.0
102
RTVSPost2010PropOp39
 70
     1
102
RTVSPost2010Prop40
 90
        0
102
RTVSPost2010PropOp40
 70
     1
102
RTVSPost2010Prop41ColorIndex
 90
       18
102
RTVSPost2010Prop41ColorRGB
 90
        0
102
RTVSPost2010PropOp41
 70
     1
102
RTVSPost2010Prop42
 90
       50
102
RTVSPost2010PropOp42
 70
     1
102
RTVSPost2010Prop43
 90
        3
102
RTVSPost2010PropOp43
 70
     1
102
RTVSPost2010Prop44ColorIndex
 90
        5
102
RTVSPost2010Prop44ColorRGB
 90
      255
102
RTVSPost2010PropOp44
 70
     1
102
RTVSPost2010Prop45
280
     0
102
RTVSPost2010PropOp45
 70
     1
102
RTVSPost2010Prop46
 90
       50
102
RTVSPost2010PropOp46
 70
     1
102
RTVSPost2010Prop47
 90
       50
102
RTVSPost2010PropOp47
 70
     1
102
RTVSPost2010Prop48
 90
       50
102
RTVSPost2010PropOp48
 70
     1
102
RTVSPost2010Prop49
280
     0
102
RTVSPost2010PropOp49
 70
     1
102
RTVSPost2010Prop50
 90
       50
102
RTVSPost2010PropOp50
 70
     1
102
RTVSPost2010Prop51ColorIndex
 90
      256
102
RTVSPost2010Prop51ColorRGB
 90
-16777216
102
RTVSPost2010PropOp51
 70
     0
102
RTVSPost2010Prop52
140
1.0
102
RTVSPost2010PropOp52
 70
     0
102
RTVSPost2010Prop53
 90
        2
102
RTVSPost2010PropOp53
 70
     1
102
RTVSPost2010Prop54
  1
strokes_ogs.tif
102
RTVSPost2010PropOp54
 70
     1
102
RTVSPost2010Prop55
280
     0
102
RTVSPost2010PropOp55
 70
     1
102
RTVSPost2010Prop56
140
1.0
102
RTVSPost2010PropOp56
 70
     1
102
RTVSPost2010Prop57
140
1.0
102
RTVSPost2010PropOp57
 70
     1
102
RTVSPropertyOp0
 70
     1
102
RTVSPropertyOp1
 70
     1
102
RTVSPropertyOp2
 70
     1
102
RTVSPropertyOp3
 70
     1
102
RTVSPropertyOp4
 70
     1
102
RTVSPropertyOp5
 70
     1
102
RTVSPropertyOp6
 70
     1
102
RTVSPropertyOp7
 70
     1
102
RTVSPropertyOp8
 70
     1
102
RTVSPropertyOp9
 70
     1
102
RTVSPropertyOp10
 70
     1
102
RTVSPropertyOp11
 70
     1
102
RTVSPropertyOp12
 70
     1
102
RTVSPropertyOp13
 70
     1
102
RTVSPropertyOp14
 70
     1
102
RTVSPropertyOp15
 70
     1
102
RTVSPropertyOp16
 70
     1
102
RTVSPropertyOp17
 70
     1
102
RTVSPropertyOp18
 70
     1
102
RTVSPropertyOp19
 70
     1
102
RTVSPropertyOp20
 70
     1
102
RTVSPropertyOp21
 70
     1
102
RTVSPropertyOp22
 70
     1
102
RTVSPropertyOp23
 70
     1
102
RTVSPropertyOp24
 70
     1
102
RTVSPropertyOp25
 70
     1
102
RTVSPropertyOp26
 70
     1
102
RTVSPropertyOp27
 70
     1
102
RTVSPropertyOp28
 70
     1
102
RTVSPropertyOp29
 70
     1
102
RTVSPropertyOp30
 70
     1
102
RTVSPropertyOp31
 70
     1
102
RTVSPropertyOp32
 70
     1
102
RTVSPropertyOp33
 70
     1
102
RTVSPropertyOp34
 70
     1
102
RTVSPropertyOp35
 70
     1
102
RTVSPropertyOp36
 70
     1
102
RTVSPropertyOp37
 70
     1
102
RTVSPropertyOp38
 70
     1
102
RTVSPropertyOp39
 70
     1
102
RTVSPropertyOp40
 70
     1
102
RTVSPropertyOp41
 70
     1
102
RTVSPropertyOp42
 70
     1
102
RTVSPropertyOp43
 70
     1
102
RTVSPropertyOp44
 70
     1
102
RTVSPropertyOp45
 70
     1
102
RTVSPropertyOp46
 70
     1
102
RTVSPropertyOp47
 70
     1
102
RTVSPropertyOp48
 70
     1
102
RTVSPropertyOp49
 70
     1
102
RTVSPropertyOp50
 70
     1
102
RTVSPropertyOp51
 70
     0
102
RTVSPropertyOp52
 70
     0
102
RTVSPropertyOp53
 70
     1
102
RTVSPropertyOp54
 70
     1
102
RTVSPropertyOp55
 70
     1
102
RTVSPropertyOp56
 70
     1
102
RTVSPropertyOp57
 70
     1
102
RTVSPropertyOp58
 70
     1
102
RTVSPropertyOp59
 70
     1
102
RTVSPropertyOp60
 70
     1
102
RTVSPropertyOp61
 70
     1
102
RTVSPropertyOp62
 70
     1
  0
XRECORD
  5
14BB2
102
{ACAD_REACTORS
330
14BB1
102
}
330
14BB1
100
AcDbXrecord
280
     1
102
RTVSPost2010Prop28
280
     0
102
RTVSPost2010PropOp28
 70
     1
102
RTVSPost2010Prop29
280
     1
102
RTVSPost2010PropOp29
 70
     1
102
RTVSPost2010Prop30
280
     1
102
RTVSPost2010PropOp30
 70
     1
102
RTVSPost2010Prop31
280
     0
102
RTVSPost2010PropOp31
 70
     1
102
RTVSPost2010Prop32
280
     0
102
RTVSPost2010PropOp32
 70
     1
102
RTVSPost2010Prop33
280
     0
102
RTVSPost2010PropOp33
 70
     1
102
RTVSPost2010Prop34
280
     0
102
RTVSPost2010PropOp34
 70
     1
102
RTVSPost2010Prop35
280
     0
102
RTVSPost2010PropOp35
 70
     1
102
RTVSPost2010Prop36
280
     0
102
RTVSPost2010PropOp36
 70
     1
102
RTVSPost2010Prop37
 90
       50
102
RTVSPost2010PropOp37
 70
     1
102
RTVSPost2010Prop38
140
0.0
102
RTVSPost2010PropOp38
 70
     1
102
RTVSPost2010Prop39
140
1.0
102
RTVSPost2010PropOp39
 70
     1
102
RTVSPost2010Prop40
 90
        0
102
RTVSPost2010PropOp40
 70
     1
102
RTVSPost2010Prop41ColorIndex
 90
       18
102
RTVSPost2010Prop41ColorRGB
 90
        0
102
RTVSPost2010PropOp41
 70
     1
102
RTVSPost2010Prop42
 90
       50
102
RTVSPost2010PropOp42
 70
     1
102
RTVSPost2010Prop43
 90
        3
102
RTVSPost2010PropOp43
 70
     1
102
RTVSPost2010Prop44ColorIndex
 90
        5
102
RTVSPost2010Prop44ColorRGB
 90
      255
102
RTVSPost2010PropOp44
 70
     1
102
RTVSPost2010Prop45
280
     0
102
RTVSPost2010PropOp45
 70
     1
102
RTVSPost2010Prop46
 90
       50
102
RTVSPost2010PropOp46
 70
     1
102
RTVSPost2010Prop47
 90
       50
102
RTVSPost2010PropOp47
 70
     1
102
RTVSPost2010Prop48
 90
       50
102
RTVSPost2010PropOp48
 70
     1
102
RTVSPost2010Prop49
280
     0
102
RTVSPost2010PropOp49
 70
     1
102
RTVSPost2010Prop50
 90
       50
102
RTVSPost2010PropOp50
 70
     1
102
RTVSPost2010Prop51ColorIndex
 90
      256
102
RTVSPost2010Prop51ColorRGB
 90
-16777216
102
RTVSPost2010PropOp51
 70
     0
102
RTVSPost2010Prop52
140
1.0
102
RTVSPost2010PropOp52
 70
     0
102
RTVSPost2010Prop53
 90
        2
102
RTVSPost2010PropOp53
 70
     1
102
RTVSPost2010Prop54
  1
strokes_ogs.tif
102
RTVSPost2010PropOp54
 70
     1
102
RTVSPost2010Prop55
280
     0
102
RTVSPost2010PropOp55
 70
     1
102
RTVSPost2010Prop56
140
1.0
102
RTVSPost2010PropOp56
 70
     1
102
RTVSPost2010Prop57
140
1.0
102
RTVSPost2010PropOp57
 70
     1
102
RTVSPropertyOp0
 70
     1
102
RTVSPropertyOp1
 70
     1
102
RTVSPropertyOp2
 70
     1
102
RTVSPropertyOp3
 70
     1
102
RTVSPropertyOp4
 70
     1
102
RTVSPropertyOp5
 70
     1
102
RTVSPropertyOp6
 70
     1
102
RTVSPropertyOp7
 70
     1
102
RTVSPropertyOp8
 70
     1
102
RTVSPropertyOp9
 70
     1
102
RTVSPropertyOp10
 70
     1
102
RTVSPropertyOp11
 70
     1
102
RTVSPropertyOp12
 70
     1
102
RTVSPropertyOp13
 70
     1
102
RTVSPropertyOp14
 70
     1
102
RTVSPropertyOp15
 70
     1
102
RTVSPropertyOp16
 70
     1
102
RTVSPropertyOp17
 70
     1
102
RTVSPropertyOp18
 70
     1
102
RTVSPropertyOp19
 70
     1
102
RTVSPropertyOp20
 70
     1
102
RTVSPropertyOp21
 70
     1
102
RTVSPropertyOp22
 70
     1
102
RTVSPropertyOp23
 70
     1
102
RTVSPropertyOp24
 70
     1
102
RTVSPropertyOp25
 70
     1
102
RTVSPropertyOp26
 70
     1
102
RTVSPropertyOp27
 70
     1
102
RTVSPropertyOp28
 70
     1
102
RTVSPropertyOp29
 70
     1
102
RTVSPropertyOp30
 70
     1
102
RTVSPropertyOp31
 70
     1
102
RTVSPropertyOp32
 70
     1
102
RTVSPropertyOp33
 70
     1
102
RTVSPropertyOp34
 70
     1
102
RTVSPropertyOp35
 70
     1
102
RTVSPropertyOp36
 70
     1
102
RTVSPropertyOp37
 70
     1
102
RTVSPropertyOp38
 70
     1
102
RTVSPropertyOp39
 70
     1
102
RTVSPropertyOp40
 70
     1
102
RTVSPropertyOp41
 70
     1
102
RTVSPropertyOp42
 70
     1
102
RTVSPropertyOp43
 70
     1
102
RTVSPropertyOp44
 70
     1
102
RTVSPropertyOp45
 70
     1
102
RTVSPropertyOp46
 70
     1
102
RTVSPropertyOp47
 70
     1
102
RTVSPropertyOp48
 70
     1
102
RTVSPropertyOp49
 70
     1
102
RTVSPropertyOp50
 70
     1
102
RTVSPropertyOp51
 70
     0
102
RTVSPropertyOp52
 70
     0
102
RTVSPropertyOp53
 70
     1
102
RTVSPropertyOp54
 70
     1
102
RTVSPropertyOp55
 70
     1
102
RTVSPropertyOp56
 70
     1
102
RTVSPropertyOp57
 70
     1
102
RTVSPropertyOp58
 70
     1
102
RTVSPropertyOp59
 70
     1
102
RTVSPropertyOp60
 70
     1
102
RTVSPropertyOp61
 70
     1
102
RTVSPropertyOp62
 70
     1
  0
XRECORD
  5
14BB4
102
{ACAD_REACTORS
330
14BB3
102
}
330
14BB3
100
AcDbXrecord
280
     1
102
RTVSPost2010Prop28
280
     0
102
RTVSPost2010PropOp28
 70
     1
102
RTVSPost2010Prop29
280
     1
102
RTVSPost2010PropOp29
 70
     1
102
RTVSPost2010Prop30
280
     1
102
RTVSPost2010PropOp30
 70
     1
102
RTVSPost2010Prop31
280
     0
102
RTVSPost2010PropOp31
 70
     1
102
RTVSPost2010Prop32
280
     0
102
RTVSPost2010PropOp32
 70
     1
102
RTVSPost2010Prop33
280
     0
102
RTVSPost2010PropOp33
 70
     1
102
RTVSPost2010Prop34
280
     0
102
RTVSPost2010PropOp34
 70
     1
102
RTVSPost2010Prop35
280
     0
102
RTVSPost2010PropOp35
 70
     1
102
RTVSPost2010Prop36
280
     0
102
RTVSPost2010PropOp36
 70
     1
102
RTVSPost2010Prop37
 90
       50
102
RTVSPost2010PropOp37
 70
     1
102
RTVSPost2010Prop38
140
0.0
102
RTVSPost2010PropOp38
 70
     1
102
RTVSPost2010Prop39
140
1.0
102
RTVSPost2010PropOp39
 70
     1
102
RTVSPost2010Prop40
 90
        0
102
RTVSPost2010PropOp40
 70
     1
102
RTVSPost2010Prop41ColorIndex
 90
       18
102
RTVSPost2010Prop41ColorRGB
 90
        0
102
RTVSPost2010PropOp41
 70
     1
102
RTVSPost2010Prop42
 90
       50
102
RTVSPost2010PropOp42
 70
     1
102
RTVSPost2010Prop43
 90
        3
102
RTVSPost2010PropOp43
 70
     1
102
RTVSPost2010Prop44ColorIndex
 90
        5
102
RTVSPost2010Prop44ColorRGB
 90
      255
102
RTVSPost2010PropOp44
 70
     1
102
RTVSPost2010Prop45
280
     0
102
RTVSPost2010PropOp45
 70
     1
102
RTVSPost2010Prop46
 90
       50
102
RTVSPost2010PropOp46
 70
     1
102
RTVSPost2010Prop47
 90
       50
102
RTVSPost2010PropOp47
 70
     1
102
RTVSPost2010Prop48
 90
       50
102
RTVSPost2010PropOp48
 70
     1
102
RTVSPost2010Prop49
280
     0
102
RTVSPost2010PropOp49
 70
     1
102
RTVSPost2010Prop50
 90
       50
102
RTVSPost2010PropOp50
 70
     1
102
RTVSPost2010Prop51ColorIndex
 90
      256
102
RTVSPost2010Prop51ColorRGB
 90
-16777216
102
RTVSPost2010PropOp51
 70
     0
102
RTVSPost2010Prop52
140
1.0
102
RTVSPost2010PropOp52
 70
     0
102
RTVSPost2010Prop53
 90
        2
102
RTVSPost2010PropOp53
 70
     1
102
RTVSPost2010Prop54
  1
strokes_ogs.tif
102
RTVSPost2010PropOp54
 70
     1
102
RTVSPost2010Prop55
280
     0
102
RTVSPost2010PropOp55
 70
     1
102
RTVSPost2010Prop56
140
1.0
102
RTVSPost2010PropOp56
 70
     1
102
RTVSPost2010Prop57
140
1.0
102
RTVSPost2010PropOp57
 70
     1
102
RTVSPropertyOp0
 70
     1
102
RTVSPropertyOp1
 70
     1
102
RTVSPropertyOp2
 70
     1
102
RTVSPropertyOp3
 70
     1
102
RTVSPropertyOp4
 70
     1
102
RTVSPropertyOp5
 70
     1
102
RTVSPropertyOp6
 70
     1
102
RTVSPropertyOp7
 70
     1
102
RTVSPropertyOp8
 70
     1
102
RTVSPropertyOp9
 70
     1
102
RTVSPropertyOp10
 70
     1
102
RTVSPropertyOp11
 70
     1
102
RTVSPropertyOp12
 70
     1
102
RTVSPropertyOp13
 70
     1
102
RTVSPropertyOp14
 70
     1
102
RTVSPropertyOp15
 70
     1
102
RTVSPropertyOp16
 70
     1
102
RTVSPropertyOp17
 70
     1
102
RTVSPropertyOp18
 70
     1
102
RTVSPropertyOp19
 70
     1
102
RTVSPropertyOp20
 70
     1
102
RTVSPropertyOp21
 70
     1
102
RTVSPropertyOp22
 70
     1
102
RTVSPropertyOp23
 70
     1
102
RTVSPropertyOp24
 70
     1
102
RTVSPropertyOp25
 70
     1
102
RTVSPropertyOp26
 70
     1
102
RTVSPropertyOp27
 70
     1
102
RTVSPropertyOp28
 70
     1
102
RTVSPropertyOp29
 70
     1
102
RTVSPropertyOp30
 70
     1
102
RTVSPropertyOp31
 70
     1
102
RTVSPropertyOp32
 70
     1
102
RTVSPropertyOp33
 70
     1
102
RTVSPropertyOp34
 70
     1
102
RTVSPropertyOp35
 70
     1
102
RTVSPropertyOp36
 70
     1
102
RTVSPropertyOp37
 70
     1
102
RTVSPropertyOp38
 70
     1
102
RTVSPropertyOp39
 70
     1
102
RTVSPropertyOp40
 70
     1
102
RTVSPropertyOp41
 70
     1
102
RTVSPropertyOp42
 70
     1
102
RTVSPropertyOp43
 70
     1
102
RTVSPropertyOp44
 70
     1
102
RTVSPropertyOp45
 70
     1
102
RTVSPropertyOp46
 70
     1
102
RTVSPropertyOp47
 70
     1
102
RTVSPropertyOp48
 70
     1
102
RTVSPropertyOp49
 70
     1
102
RTVSPropertyOp50
 70
     1
102
RTVSPropertyOp51
 70
     0
102
RTVSPropertyOp52
 70
     0
102
RTVSPropertyOp53
 70
     1
102
RTVSPropertyOp54
 70
     1
102
RTVSPropertyOp55
 70
     1
102
RTVSPropertyOp56
 70
     1
102
RTVSPropertyOp57
 70
     1
102
RTVSPropertyOp58
 70
     1
102
RTVSPropertyOp59
 70
     1
102
RTVSPropertyOp60
 70
     1
102
RTVSPropertyOp61
 70
     1
102
RTVSPropertyOp62
 70
     1
  0
XRECORD
  5
14BB6
102
{ACAD_REACTORS
330
14BB5
102
}
330
14BB5
100
AcDbXrecord
280
     1
102
RTVSPost2010Prop28
280
     0
102
RTVSPost2010PropOp28
 70
     1
102
RTVSPost2010Prop29
280
     1
102
RTVSPost2010PropOp29
 70
     1
102
RTVSPost2010Prop30
280
     1
102
RTVSPost2010PropOp30
 70
     1
102
RTVSPost2010Prop31
280
     0
102
RTVSPost2010PropOp31
 70
     1
102
RTVSPost2010Prop32
280
     0
102
RTVSPost2010PropOp32
 70
     1
102
RTVSPost2010Prop33
280
     0
102
RTVSPost2010PropOp33
 70
     1
102
RTVSPost2010Prop34
280
     0
102
RTVSPost2010PropOp34
 70
     1
102
RTVSPost2010Prop35
280
     0
102
RTVSPost2010PropOp35
 70
     1
102
RTVSPost2010Prop36
280
     0
102
RTVSPost2010PropOp36
 70
     1
102
RTVSPost2010Prop37
 90
       50
102
RTVSPost2010PropOp37
 70
     1
102
RTVSPost2010Prop38
140
0.0
102
RTVSPost2010PropOp38
 70
     1
102
RTVSPost2010Prop39
140
1.0
102
RTVSPost2010PropOp39
 70
     1
102
RTVSPost2010Prop40
 90
        0
102
RTVSPost2010PropOp40
 70
     1
102
RTVSPost2010Prop41ColorIndex
 90
       18
102
RTVSPost2010Prop41ColorRGB
 90
        0
102
RTVSPost2010PropOp41
 70
     1
102
RTVSPost2010Prop42
 90
       50
102
RTVSPost2010PropOp42
 70
     1
102
RTVSPost2010Prop43
 90
        3
102
RTVSPost2010PropOp43
 70
     1
102
RTVSPost2010Prop44ColorIndex
 90
        5
102
RTVSPost2010Prop44ColorRGB
 90
      255
102
RTVSPost2010PropOp44
 70
     1
102
RTVSPost2010Prop45
280
     0
102
RTVSPost2010PropOp45
 70
     1
102
RTVSPost2010Prop46
 90
       50
102
RTVSPost2010PropOp46
 70
     1
102
RTVSPost2010Prop47
 90
       50
102
RTVSPost2010PropOp47
 70
     1
102
RTVSPost2010Prop48
 90
       50
102
RTVSPost2010PropOp48
 70
     1
102
RTVSPost2010Prop49
280
     0
102
RTVSPost2010PropOp49
 70
     1
102
RTVSPost2010Prop50
 90
       50
102
RTVSPost2010PropOp50
 70
     1
102
RTVSPost2010Prop51ColorIndex
 90
      256
102
RTVSPost2010Prop51ColorRGB
 90
-16777216
102
RTVSPost2010PropOp51
 70
     0
102
RTVSPost2010Prop52
140
1.0
102
RTVSPost2010PropOp52
 70
     0
102
RTVSPost2010Prop53
 90
        2
102
RTVSPost2010PropOp53
 70
     1
102
RTVSPost2010Prop54
  1
strokes_ogs.tif
102
RTVSPost2010PropOp54
 70
     1
102
RTVSPost2010Prop55
280
     0
102
RTVSPost2010PropOp55
 70
     1
102
RTVSPost2010Prop56
140
1.0
102
RTVSPost2010PropOp56
 70
     1
102
RTVSPost2010Prop57
140
1.0
102
RTVSPost2010PropOp57
 70
     1
102
RTVSPropertyOp0
 70
     1
102
RTVSPropertyOp1
 70
     1
102
RTVSPropertyOp2
 70
     1
102
RTVSPropertyOp3
 70
     1
102
RTVSPropertyOp4
 70
     1
102
RTVSPropertyOp5
 70
     1
102
RTVSPropertyOp6
 70
     1
102
RTVSPropertyOp7
 70
     1
102
RTVSPropertyOp8
 70
     1
102
RTVSPropertyOp9
 70
     1
102
RTVSPropertyOp10
 70
     1
102
RTVSPropertyOp11
 70
     1
102
RTVSPropertyOp12
 70
     1
102
RTVSPropertyOp13
 70
     1
102
RTVSPropertyOp14
 70
     1
102
RTVSPropertyOp15
 70
     1
102
RTVSPropertyOp16
 70
     1
102
RTVSPropertyOp17
 70
     1
102
RTVSPropertyOp18
 70
     1
102
RTVSPropertyOp19
 70
     1
102
RTVSPropertyOp20
 70
     1
102
RTVSPropertyOp21
 70
     1
102
RTVSPropertyOp22
 70
     1
102
RTVSPropertyOp23
 70
     1
102
RTVSPropertyOp24
 70
     1
102
RTVSPropertyOp25
 70
     1
102
RTVSPropertyOp26
 70
     1
102
RTVSPropertyOp27
 70
     1
102
RTVSPropertyOp28
 70
     1
102
RTVSPropertyOp29
 70
     1
102
RTVSPropertyOp30
 70
     1
102
RTVSPropertyOp31
 70
     1
102
RTVSPropertyOp32
 70
     1
102
RTVSPropertyOp33
 70
     1
102
RTVSPropertyOp34
 70
     1
102
RTVSPropertyOp35
 70
     1
102
RTVSPropertyOp36
 70
     1
102
RTVSPropertyOp37
 70
     1
102
RTVSPropertyOp38
 70
     1
102
RTVSPropertyOp39
 70
     1
102
RTVSPropertyOp40
 70
     1
102
RTVSPropertyOp41
 70
     1
102
RTVSPropertyOp42
 70
     1
102
RTVSPropertyOp43
 70
     1
102
RTVSPropertyOp44
 70
     1
102
RTVSPropertyOp45
 70
     1
102
RTVSPropertyOp46
 70
     1
102
RTVSPropertyOp47
 70
     1
102
RTVSPropertyOp48
 70
     1
102
RTVSPropertyOp49
 70
     1
102
RTVSPropertyOp50
 70
     1
102
RTVSPropertyOp51
 70
     0
102
RTVSPropertyOp52
 70
     0
102
RTVSPropertyOp53
 70
     1
102
RTVSPropertyOp54
 70
     1
102
RTVSPropertyOp55
 70
     1
102
RTVSPropertyOp56
 70
     1
102
RTVSPropertyOp57
 70
     1
102
RTVSPropertyOp58
 70
     1
102
RTVSPropertyOp59
 70
     1
102
RTVSPropertyOp60
 70
     1
102
RTVSPropertyOp61
 70
     1
102
RTVSPropertyOp62
 70
     1
  0
XRECORD
  5
14BB8
102
{ACAD_REACTORS
330
14BB7
102
}
330
14BB7
100
AcDbXrecord
280
     1
102
RTVSPost2010Prop28
280
     0
102
RTVSPost2010PropOp28
 70
     1
102
RTVSPost2010Prop29
280
     1
102
RTVSPost2010PropOp29
 70
     1
102
RTVSPost2010Prop30
280
     1
102
RTVSPost2010PropOp30
 70
     1
102
RTVSPost2010Prop31
280
     0
102
RTVSPost2010PropOp31
 70
     1
102
RTVSPost2010Prop32
280
     0
102
RTVSPost2010PropOp32
 70
     1
102
RTVSPost2010Prop33
280
     0
102
RTVSPost2010PropOp33
 70
     1
102
RTVSPost2010Prop34
280
     0
102
RTVSPost2010PropOp34
 70
     1
102
RTVSPost2010Prop35
280
     0
102
RTVSPost2010PropOp35
 70
     1
102
RTVSPost2010Prop36
280
     0
102
RTVSPost2010PropOp36
 70
     1
102
RTVSPost2010Prop37
 90
       50
102
RTVSPost2010PropOp37
 70
     1
102
RTVSPost2010Prop38
140
0.0
102
RTVSPost2010PropOp38
 70
     1
102
RTVSPost2010Prop39
140
1.0
102
RTVSPost2010PropOp39
 70
     1
102
RTVSPost2010Prop40
 90
        0
102
RTVSPost2010PropOp40
 70
     1
102
RTVSPost2010Prop41ColorIndex
 90
       18
102
RTVSPost2010Prop41ColorRGB
 90
        0
102
RTVSPost2010PropOp41
 70
     1
102
RTVSPost2010Prop42
 90
       50
102
RTVSPost2010PropOp42
 70
     1
102
RTVSPost2010Prop43
 90
        3
102
RTVSPost2010PropOp43
 70
     1
102
RTVSPost2010Prop44ColorIndex
 90
        5
102
RTVSPost2010Prop44ColorRGB
 90
      255
102
RTVSPost2010PropOp44
 70
     1
102
RTVSPost2010Prop45
280
     0
102
RTVSPost2010PropOp45
 70
     1
102
RTVSPost2010Prop46
 90
       50
102
RTVSPost2010PropOp46
 70
     1
102
RTVSPost2010Prop47
 90
       50
102
RTVSPost2010PropOp47
 70
     1
102
RTVSPost2010Prop48
 90
       50
102
RTVSPost2010PropOp48
 70
     1
102
RTVSPost2010Prop49
280
     0
102
RTVSPost2010PropOp49
 70
     1
102
RTVSPost2010Prop50
 90
       50
102
RTVSPost2010PropOp50
 70
     1
102
RTVSPost2010Prop51ColorIndex
 90
      256
102
RTVSPost2010Prop51ColorRGB
 90
-16777216
102
RTVSPost2010PropOp51
 70
     0
102
RTVSPost2010Prop52
140
1.0
102
RTVSPost2010PropOp52
 70
     0
102
RTVSPost2010Prop53
 90
        2
102
RTVSPost2010PropOp53
 70
     1
102
RTVSPost2010Prop54
  1
strokes_ogs.tif
102
RTVSPost2010PropOp54
 70
     1
102
RTVSPost2010Prop55
280
     0
102
RTVSPost2010PropOp55
 70
     1
102
RTVSPost2010Prop56
140
1.0
102
RTVSPost2010PropOp56
 70
     1
102
RTVSPost2010Prop57
140
1.0
102
RTVSPost2010PropOp57
 70
     1
102
RTVSPropertyOp0
 70
     1
102
RTVSPropertyOp1
 70
     1
102
RTVSPropertyOp2
 70
     1
102
RTVSPropertyOp3
 70
     1
102
RTVSPropertyOp4
 70
     1
102
RTVSPropertyOp5
 70
     1
102
RTVSPropertyOp6
 70
     1
102
RTVSPropertyOp7
 70
     1
102
RTVSPropertyOp8
 70
     1
102
RTVSPropertyOp9
 70
     1
102
RTVSPropertyOp10
 70
     1
102
RTVSPropertyOp11
 70
     1
102
RTVSPropertyOp12
 70
     1
102
RTVSPropertyOp13
 70
     1
102
RTVSPropertyOp14
 70
     1
102
RTVSPropertyOp15
 70
     1
102
RTVSPropertyOp16
 70
     1
102
RTVSPropertyOp17
 70
     1
102
RTVSPropertyOp18
 70
     1
102
RTVSPropertyOp19
 70
     1
102
RTVSPropertyOp20
 70
     1
102
RTVSPropertyOp21
 70
     1
102
RTVSPropertyOp22
 70
     1
102
RTVSPropertyOp23
 70
     1
102
RTVSPropertyOp24
 70
     1
102
RTVSPropertyOp25
 70
     1
102
RTVSPropertyOp26
 70
     1
102
RTVSPropertyOp27
 70
     1
102
RTVSPropertyOp28
 70
     1
102
RTVSPropertyOp29
 70
     1
102
RTVSPropertyOp30
 70
     1
102
RTVSPropertyOp31
 70
     1
102
RTVSPropertyOp32
 70
     1
102
RTVSPropertyOp33
 70
     1
102
RTVSPropertyOp34
 70
     1
102
RTVSPropertyOp35
 70
     1
102
RTVSPropertyOp36
 70
     1
102
RTVSPropertyOp37
 70
     1
102
RTVSPropertyOp38
 70
     1
102
RTVSPropertyOp39
 70
     1
102
RTVSPropertyOp40
 70
     1
102
RTVSPropertyOp41
 70
     1
102
RTVSPropertyOp42
 70
     1
102
RTVSPropertyOp43
 70
     1
102
RTVSPropertyOp44
 70
     1
102
RTVSPropertyOp45
 70
     1
102
RTVSPropertyOp46
 70
     1
102
RTVSPropertyOp47
 70
     1
102
RTVSPropertyOp48
 70
     1
102
RTVSPropertyOp49
 70
     1
102
RTVSPropertyOp50
 70
     1
102
RTVSPropertyOp51
 70
     0
102
RTVSPropertyOp52
 70
     0
102
RTVSPropertyOp53
 70
     1
102
RTVSPropertyOp54
 70
     1
102
RTVSPropertyOp55
 70
     1
102
RTVSPropertyOp56
 70
     1
102
RTVSPropertyOp57
 70
     1
102
RTVSPropertyOp58
 70
     1
102
RTVSPropertyOp59
 70
     1
102
RTVSPropertyOp60
 70
     1
102
RTVSPropertyOp61
 70
     1
102
RTVSPropertyOp62
 70
     1
  0
XRECORD
  5
14BD7
102
{ACAD_REACTORS
330
14BD6
102
}
330
14BD6
100
AcDbXrecord
280
     1
102
RTVSPost2010Prop28
280
     0
102
RTVSPost2010PropOp28
 70
     1
102
RTVSPost2010Prop29
280
     1
102
RTVSPost2010PropOp29
 70
     1
102
RTVSPost2010Prop30
280
     1
102
RTVSPost2010PropOp30
 70
     1
102
RTVSPost2010Prop31
280
     0
102
RTVSPost2010PropOp31
 70
     1
102
RTVSPost2010Prop32
280
     0
102
RTVSPost2010PropOp32
 70
     1
102
RTVSPost2010Prop33
280
     0
102
RTVSPost2010PropOp33
 70
     1
102
RTVSPost2010Prop34
280
     0
102
RTVSPost2010PropOp34
 70
     1
102
RTVSPost2010Prop35
280
     0
102
RTVSPost2010PropOp35
 70
     1
102
RTVSPost2010Prop36
280
     0
102
RTVSPost2010PropOp36
 70
     1
102
RTVSPost2010Prop37
 90
       50
102
RTVSPost2010PropOp37
 70
     1
102
RTVSPost2010Prop38
140
0.0
102
RTVSPost2010PropOp38
 70
     1
102
RTVSPost2010Prop39
140
1.0
102
RTVSPost2010PropOp39
 70
     1
102
RTVSPost2010Prop40
 90
        0
102
RTVSPost2010PropOp40
 70
     1
102
RTVSPost2010Prop41ColorIndex
 90
       18
102
RTVSPost2010Prop41ColorRGB
 90
        0
102
RTVSPost2010PropOp41
 70
     1
102
RTVSPost2010Prop42
 90
       50
102
RTVSPost2010PropOp42
 70
     1
102
RTVSPost2010Prop43
 90
        3
102
RTVSPost2010PropOp43
 70
     1
102
RTVSPost2010Prop44ColorIndex
 90
        5
102
RTVSPost2010Prop44ColorRGB
 90
      255
102
RTVSPost2010PropOp44
 70
     1
102
RTVSPost2010Prop45
280
     0
102
RTVSPost2010PropOp45
 70
     1
102
RTVSPost2010Prop46
 90
       50
102
RTVSPost2010PropOp46
 70
     1
102
RTVSPost2010Prop47
 90
       50
102
RTVSPost2010PropOp47
 70
     1
102
RTVSPost2010Prop48
 90
       50
102
RTVSPost2010PropOp48
 70
     1
102
RTVSPost2010Prop49
280
     0
102
RTVSPost2010PropOp49
 70
     1
102
RTVSPost2010Prop50
 90
       50
102
RTVSPost2010PropOp50
 70
     1
102
RTVSPost2010Prop51ColorIndex
 90
      256
102
RTVSPost2010Prop51ColorRGB
 90
-16777216
102
RTVSPost2010PropOp51
 70
     0
102
RTVSPost2010Prop52
140
1.0
102
RTVSPost2010PropOp52
 70
     0
102
RTVSPost2010Prop53
 90
        2
102
RTVSPost2010PropOp53
 70
     1
102
RTVSPost2010Prop54
  1
strokes_ogs.tif
102
RTVSPost2010PropOp54
 70
     1
102
RTVSPost2010Prop55
280
     0
102
RTVSPost2010PropOp55
 70
     1
102
RTVSPost2010Prop56
140
1.0
102
RTVSPost2010PropOp56
 70
     1
102
RTVSPost2010Prop57
140
1.0
102
RTVSPost2010PropOp57
 70
     1
102
RTVSPropertyOp0
 70
     1
102
RTVSPropertyOp1
 70
     1
102
RTVSPropertyOp2
 70
     1
102
RTVSPropertyOp3
 70
     1
102
RTVSPropertyOp4
 70
     1
102
RTVSPropertyOp5
 70
     1
102
RTVSPropertyOp6
 70
     1
102
RTVSPropertyOp7
 70
     1
102
RTVSPropertyOp8
 70
     1
102
RTVSPropertyOp9
 70
     1
102
RTVSPropertyOp10
 70
     1
102
RTVSPropertyOp11
 70
     1
102
RTVSPropertyOp12
 70
     1
102
RTVSPropertyOp13
 70
     1
102
RTVSPropertyOp14
 70
     1
102
RTVSPropertyOp15
 70
     1
102
RTVSPropertyOp16
 70
     1
102
RTVSPropertyOp17
 70
     1
102
RTVSPropertyOp18
 70
     1
102
RTVSPropertyOp19
 70
     1
102
RTVSPropertyOp20
 70
     1
102
RTVSPropertyOp21
 70
     1
102
RTVSPropertyOp22
 70
     1
102
RTVSPropertyOp23
 70
     1
102
RTVSPropertyOp24
 70
     1
102
RTVSPropertyOp25
 70
     1
102
RTVSPropertyOp26
 70
     1
102
RTVSPropertyOp27
 70
     1
102
RTVSPropertyOp28
 70
     1
102
RTVSPropertyOp29
 70
     1
102
RTVSPropertyOp30
 70
     1
102
RTVSPropertyOp31
 70
     1
102
RTVSPropertyOp32
 70
     1
102
RTVSPropertyOp33
 70
     1
102
RTVSPropertyOp34
 70
     1
102
RTVSPropertyOp35
 70
     1
102
RTVSPropertyOp36
 70
     1
102
RTVSPropertyOp37
 70
     1
102
RTVSPropertyOp38
 70
     1
102
RTVSPropertyOp39
 70
     1
102
RTVSPropertyOp40
 70
     1
102
RTVSPropertyOp41
 70
     1
102
RTVSPropertyOp42
 70
     1
102
RTVSPropertyOp43
 70
     1
102
RTVSPropertyOp44
 70
     1
102
RTVSPropertyOp45
 70
     1
102
RTVSPropertyOp46
 70
     1
102
RTVSPropertyOp47
 70
     1
102
RTVSPropertyOp48
 70
     1
102
RTVSPropertyOp49
 70
     1
102
RTVSPropertyOp50
 70
     1
102
RTVSPropertyOp51
 70
     0
102
RTVSPropertyOp52
 70
     0
102
RTVSPropertyOp53
 70
     1
102
RTVSPropertyOp54
 70
     1
102
RTVSPropertyOp55
 70
     1
102
RTVSPropertyOp56
 70
     1
102
RTVSPropertyOp57
 70
     1
102
RTVSPropertyOp58
 70
     1
102
RTVSPropertyOp59
 70
     1
102
RTVSPropertyOp60
 70
     1
102
RTVSPropertyOp61
 70
     1
102
RTVSPropertyOp62
 70
     1
  0
XRECORD
  5
14BE3
102
{ACAD_REACTORS
330
14BE2
102
}
330
14BE2
100
AcDbXrecord
280
     1
102
RTVSPost2010Prop28
280
     0
102
RTVSPost2010PropOp28
 70
     0
102
RTVSPost2010Prop29
280
     1
102
RTVSPost2010PropOp29
 70
     0
102
RTVSPost2010Prop30
280
     1
102
RTVSPost2010PropOp30
 70
     0
102
RTVSPost2010Prop31
280
     0
102
RTVSPost2010PropOp31
 70
     0
102
RTVSPost2010Prop32
280
     0
102
RTVSPost2010PropOp32
 70
     0
102
RTVSPost2010Prop33
280
     0
102
RTVSPost2010PropOp33
 70
     0
102
RTVSPost2010Prop34
280
     0
102
RTVSPost2010PropOp34
 70
     0
102
RTVSPost2010Prop35
280
     0
102
RTVSPost2010PropOp35
 70
     0
102
RTVSPost2010Prop36
280
     0
102
RTVSPost2010PropOp36
 70
     0
102
RTVSPost2010Prop37
 90
       50
102
RTVSPost2010PropOp37
 70
     0
102
RTVSPost2010Prop38
140
0.0
102
RTVSPost2010PropOp38
 70
     0
102
RTVSPost2010Prop39
140
1.0
102
RTVSPost2010PropOp39
 70
     0
102
RTVSPost2010Prop40
 90
        0
102
RTVSPost2010PropOp40
 70
     0
102
RTVSPost2010Prop41ColorIndex
 90
       18
102
RTVSPost2010Prop41ColorRGB
 90
        0
102
RTVSPost2010PropOp41
 70
     0
102
RTVSPost2010Prop42
 90
       50
102
RTVSPost2010PropOp42
 70
     0
102
RTVSPost2010Prop43
 90
        3
102
RTVSPost2010PropOp43
 70
     0
102
RTVSPost2010Prop44ColorIndex
 90
        5
102
RTVSPost2010Prop44ColorRGB
 90
      255
102
RTVSPost2010PropOp44
 70
     0
102
RTVSPost2010Prop45
280
     0
102
RTVSPost2010PropOp45
 70
     0
102
RTVSPost2010Prop46
 90
       50
102
RTVSPost2010PropOp46
 70
     0
102
RTVSPost2010Prop47
 90
       50
102
RTVSPost2010PropOp47
 70
     0
102
RTVSPost2010Prop48
 90
       50
102
RTVSPost2010PropOp48
 70
     0
102
RTVSPost2010Prop49
280
     0
102
RTVSPost2010PropOp49
 70
     0
102
RTVSPost2010Prop50
 90
       50
102
RTVSPost2010PropOp50
 70
     0
102
RTVSPost2010Prop51ColorIndex
 90
      256
102
RTVSPost2010Prop51ColorRGB
 90
-16777216
102
RTVSPost2010PropOp51
 70
     0
102
RTVSPost2010Prop52
140
1.0
102
RTVSPost2010PropOp52
 70
     0
102
RTVSPost2010Prop53
 90
        2
102
RTVSPost2010PropOp53
 70
     0
102
RTVSPost2010Prop54
  1
strokes_ogs.tif
102
RTVSPost2010PropOp54
 70
     0
102
RTVSPost2010Prop55
280
     0
102
RTVSPost2010PropOp55
 70
     0
102
RTVSPost2010Prop56
140
1.0
102
RTVSPost2010PropOp56
 70
     0
102
RTVSPost2010Prop57
140
1.0
102
RTVSPost2010PropOp57
 70
     0
102
RTVSPropertyOp0
 70
     0
102
RTVSPropertyOp1
 70
     0
102
RTVSPropertyOp2
 70
     0
102
RTVSPropertyOp3
 70
     0
102
RTVSPropertyOp4
 70
     0
102
RTVSPropertyOp5
 70
     0
102
RTVSPropertyOp6
 70
     0
102
RTVSPropertyOp7
 70
     0
102
RTVSPropertyOp8
 70
     0
102
RTVSPropertyOp9
 70
     0
102
RTVSPropertyOp10
 70
     0
102
RTVSPropertyOp11
 70
     0
102
RTVSPropertyOp12
 70
     0
102
RTVSPropertyOp13
 70
     0
102
RTVSPropertyOp14
 70
     2
102
RTVSPropertyOp15
 70
     0
102
RTVSPropertyOp16
 70
     0
102
RTVSPropertyOp17
 70
     0
102
RTVSPropertyOp18
 70
     0
102
RTVSPropertyOp19
 70
     0
102
RTVSPropertyOp20
 70
     0
102
RTVSPropertyOp21
 70
     0
102
RTVSPropertyOp22
 70
     0
102
RTVSPropertyOp23
 70
     0
102
RTVSPropertyOp24
 70
     0
102
RTVSPropertyOp25
 70
     0
102
RTVSPropertyOp26
 70
     0
102
RTVSPropertyOp27
 70
     0
102
RTVSPropertyOp28
 70
     0
102
RTVSPropertyOp29
 70
     0
102
RTVSPropertyOp30
 70
     0
102
RTVSPropertyOp31
 70
     0
102
RTVSPropertyOp32
 70
     0
102
RTVSPropertyOp33
 70
     0
102
RTVSPropertyOp34
 70
     0
102
RTVSPropertyOp35
 70
     0
102
RTVSPropertyOp36
 70
     0
102
RTVSPropertyOp37
 70
     0
102
RTVSPropertyOp38
 70
     0
102
RTVSPropertyOp39
 70
     0
102
RTVSPropertyOp40
 70
     0
102
RTVSPropertyOp41
 70
     0
102
RTVSPropertyOp42
 70
     0
102
RTVSPropertyOp43
 70
     0
102
RTVSPropertyOp44
 70
     0
102
RTVSPropertyOp45
 70
     0
102
RTVSPropertyOp46
 70
     0
102
RTVSPropertyOp47
 70
     0
102
RTVSPropertyOp48
 70
     0
102
RTVSPropertyOp49
 70
     0
102
RTVSPropertyOp50
 70
     0
102
RTVSPropertyOp51
 70
     0
102
RTVSPropertyOp52
 70
     0
102
RTVSPropertyOp53
 70
     0
102
RTVSPropertyOp54
 70
     0
102
RTVSPropertyOp55
 70
     0
102
RTVSPropertyOp56
 70
     0
102
RTVSPropertyOp57
 70
     0
102
RTVSPropertyOp58
 70
     1
102
RTVSPropertyOp59
 70
     1
102
RTVSPropertyOp60
 70
     1
102
RTVSPropertyOp61
 70
     1
102
RTVSPropertyOp62
 70
     1
  0
XRECORD
  5
14BCC
102
{ACAD_REACTORS
330
14BCB
102
}
330
14BCB
100
AcDbXrecord
280
     1
102
RTVSPost2010Prop28
280
     0
102
RTVSPost2010PropOp28
 70
     1
102
RTVSPost2010Prop29
280
     1
102
RTVSPost2010PropOp29
 70
     1
102
RTVSPost2010Prop30
280
     1
102
RTVSPost2010PropOp30
 70
     1
102
RTVSPost2010Prop31
280
     0
102
RTVSPost2010PropOp31
 70
     1
102
RTVSPost2010Prop32
280
     0
102
RTVSPost2010PropOp32
 70
     1
102
RTVSPost2010Prop33
280
     0
102
RTVSPost2010PropOp33
 70
     1
102
RTVSPost2010Prop34
280
     0
102
RTVSPost2010PropOp34
 70
     1
102
RTVSPost2010Prop35
280
     0
102
RTVSPost2010PropOp35
 70
     1
102
RTVSPost2010Prop36
280
     0
102
RTVSPost2010PropOp36
 70
     1
102
RTVSPost2010Prop37
 90
       50
102
RTVSPost2010PropOp37
 70
     1
102
RTVSPost2010Prop38
140
0.0
102
RTVSPost2010PropOp38
 70
     1
102
RTVSPost2010Prop39
140
1.0
102
RTVSPost2010PropOp39
 70
     1
102
RTVSPost2010Prop40
 90
        0
102
RTVSPost2010PropOp40
 70
     1
102
RTVSPost2010Prop41ColorIndex
 90
       18
102
RTVSPost2010Prop41ColorRGB
 90
        0
102
RTVSPost2010PropOp41
 70
     1
102
RTVSPost2010Prop42
 90
       50
102
RTVSPost2010PropOp42
 70
     1
102
RTVSPost2010Prop43
 90
        3
102
RTVSPost2010PropOp43
 70
     1
102
RTVSPost2010Prop44ColorIndex
 90
        5
102
RTVSPost2010Prop44ColorRGB
 90
      255
102
RTVSPost2010PropOp44
 70
     1
102
RTVSPost2010Prop45
280
     0
102
RTVSPost2010PropOp45
 70
     1
102
RTVSPost2010Prop46
 90
       50
102
RTVSPost2010PropOp46
 70
     1
102
RTVSPost2010Prop47
 90
       50
102
RTVSPost2010PropOp47
 70
     1
102
RTVSPost2010Prop48
 90
       50
102
RTVSPost2010PropOp48
 70
     1
102
RTVSPost2010Prop49
280
     0
102
RTVSPost2010PropOp49
 70
     1
102
RTVSPost2010Prop50
 90
       50
102
RTVSPost2010PropOp50
 70
     1
102
RTVSPost2010Prop51ColorIndex
 90
      256
102
RTVSPost2010Prop51ColorRGB
 90
-16777216
102
RTVSPost2010PropOp51
 70
     0
102
RTVSPost2010Prop52
140
1.0
102
RTVSPost2010PropOp52
 70
     0
102
RTVSPost2010Prop53
 90
        2
102
RTVSPost2010PropOp53
 70
     1
102
RTVSPost2010Prop54
  1
strokes_ogs.tif
102
RTVSPost2010PropOp54
 70
     1
102
RTVSPost2010Prop55
280
     0
102
RTVSPost2010PropOp55
 70
     1
102
RTVSPost2010Prop56
140
1.0
102
RTVSPost2010PropOp56
 70
     1
102
RTVSPost2010Prop57
140
1.0
102
RTVSPost2010PropOp57
 70
     1
102
RTVSPropertyOp0
 70
     1
102
RTVSPropertyOp1
 70
     1
102
RTVSPropertyOp2
 70
     1
102
RTVSPropertyOp3
 70
     1
102
RTVSPropertyOp4
 70
     1
102
RTVSPropertyOp5
 70
     1
102
RTVSPropertyOp6
 70
     1
102
RTVSPropertyOp7
 70
     1
102
RTVSPropertyOp8
 70
     1
102
RTVSPropertyOp9
 70
     1
102
RTVSPropertyOp10
 70
     1
102
RTVSPropertyOp11
 70
     1
102
RTVSPropertyOp12
 70
     1
102
RTVSPropertyOp13
 70
     1
102
RTVSPropertyOp14
 70
     1
102
RTVSPropertyOp15
 70
     1
102
RTVSPropertyOp16
 70
     1
102
RTVSPropertyOp17
 70
     1
102
RTVSPropertyOp18
 70
     1
102
RTVSPropertyOp19
 70
     1
102
RTVSPropertyOp20
 70
     1
102
RTVSPropertyOp21
 70
     1
102
RTVSPropertyOp22
 70
     1
102
RTVSPropertyOp23
 70
     1
102
RTVSPropertyOp24
 70
     1
102
RTVSPropertyOp25
 70
     1
102
RTVSPropertyOp26
 70
     1
102
RTVSPropertyOp27
 70
     1
102
RTVSPropertyOp28
 70
     1
102
RTVSPropertyOp29
 70
     1
102
RTVSPropertyOp30
 70
     1
102
RTVSPropertyOp31
 70
     1
102
RTVSPropertyOp32
 70
     1
102
RTVSPropertyOp33
 70
     1
102
RTVSPropertyOp34
 70
     1
102
RTVSPropertyOp35
 70
     1
102
RTVSPropertyOp36
 70
     1
102
RTVSPropertyOp37
 70
     1
102
RTVSPropertyOp38
 70
     1
102
RTVSPropertyOp39
 70
     1
102
RTVSPropertyOp40
 70
     1
102
RTVSPropertyOp41
 70
     1
102
RTVSPropertyOp42
 70
     1
102
RTVSPropertyOp43
 70
     1
102
RTVSPropertyOp44
 70
     1
102
RTVSPropertyOp45
 70
     1
102
RTVSPropertyOp46
 70
     1
102
RTVSPropertyOp47
 70
     1
102
RTVSPropertyOp48
 70
     1
102
RTVSPropertyOp49
 70
     1
102
RTVSPropertyOp50
 70
     1
102
RTVSPropertyOp51
 70
     0
102
RTVSPropertyOp52
 70
     0
102
RTVSPropertyOp53
 70
     1
102
RTVSPropertyOp54
 70
     1
102
RTVSPropertyOp55
 70
     1
102
RTVSPropertyOp56
 70
     1
102
RTVSPropertyOp57
 70
     1
102
RTVSPropertyOp58
 70
     1
102
RTVSPropertyOp59
 70
     1
102
RTVSPropertyOp60
 70
     1
102
RTVSPropertyOp61
 70
     1
102
RTVSPropertyOp62
 70
     1
  0
XRECORD
  5
14BE5
102
{ACAD_REACTORS
330
14BE4
102
}
330
14BE4
100
AcDbXrecord
280
     1
102
RTVSPost2010Prop28
280
     0
102
RTVSPost2010PropOp28
 70
     0
102
RTVSPost2010Prop29
280
     1
102
RTVSPost2010PropOp29
 70
     0
102
RTVSPost2010Prop30
280
     1
102
RTVSPost2010PropOp30
 70
     0
102
RTVSPost2010Prop31
280
     0
102
RTVSPost2010PropOp31
 70
     0
102
RTVSPost2010Prop32
280
     0
102
RTVSPost2010PropOp32
 70
     0
102
RTVSPost2010Prop33
280
     0
102
RTVSPost2010PropOp33
 70
     0
102
RTVSPost2010Prop34
280
     0
102
RTVSPost2010PropOp34
 70
     0
102
RTVSPost2010Prop35
280
     0
102
RTVSPost2010PropOp35
 70
     0
102
RTVSPost2010Prop36
280
     0
102
RTVSPost2010PropOp36
 70
     0
102
RTVSPost2010Prop37
 90
       50
102
RTVSPost2010PropOp37
 70
     0
102
RTVSPost2010Prop38
140
0.0
102
RTVSPost2010PropOp38
 70
     0
102
RTVSPost2010Prop39
140
1.0
102
RTVSPost2010PropOp39
 70
     0
102
RTVSPost2010Prop40
 90
        0
102
RTVSPost2010PropOp40
 70
     0
102
RTVSPost2010Prop41ColorIndex
 90
       18
102
RTVSPost2010Prop41ColorRGB
 90
        0
102
RTVSPost2010PropOp41
 70
     0
102
RTVSPost2010Prop42
 90
       50
102
RTVSPost2010PropOp42
 70
     0
102
RTVSPost2010Prop43
 90
        3
102
RTVSPost2010PropOp43
 70
     0
102
RTVSPost2010Prop44ColorIndex
 90
        5
102
RTVSPost2010Prop44ColorRGB
 90
      255
102
RTVSPost2010PropOp44
 70
     0
102
RTVSPost2010Prop45
280
     0
102
RTVSPost2010PropOp45
 70
     0
102
RTVSPost2010Prop46
 90
       50
102
RTVSPost2010PropOp46
 70
     0
102
RTVSPost2010Prop47
 90
       50
102
RTVSPost2010PropOp47
 70
     0
102
RTVSPost2010Prop48
 90
       50
102
RTVSPost2010PropOp48
 70
     0
102
RTVSPost2010Prop49
280
     0
102
RTVSPost2010PropOp49
 70
     0
102
RTVSPost2010Prop50
 90
       50
102
RTVSPost2010PropOp50
 70
     0
102
RTVSPost2010Prop51ColorIndex
 90
      256
102
RTVSPost2010Prop51ColorRGB
 90
-16777216
102
RTVSPost2010PropOp51
 70
     0
102
RTVSPost2010Prop52
140
1.0
102
RTVSPost2010PropOp52
 70
     0
102
RTVSPost2010Prop53
 90
        2
102
RTVSPost2010PropOp53
 70
     0
102
RTVSPost2010Prop54
  1
strokes_ogs.tif
102
RTVSPost2010PropOp54
 70
     0
102
RTVSPost2010Prop55
280
     0
102
RTVSPost2010PropOp55
 70
     0
102
RTVSPost2010Prop56
140
1.0
102
RTVSPost2010PropOp56
 70
     0
102
RTVSPost2010Prop57
140
1.0
102
RTVSPost2010PropOp57
 70
     0
102
RTVSPropertyOp0
 70
     0
102
RTVSPropertyOp1
 70
     0
102
RTVSPropertyOp2
 70
     0
102
RTVSPropertyOp3
 70
     0
102
RTVSPropertyOp4
 70
     0
102
RTVSPropertyOp5
 70
     0
102
RTVSPropertyOp6
 70
     0
102
RTVSPropertyOp7
 70
     0
102
RTVSPropertyOp8
 70
     0
102
RTVSPropertyOp9
 70
     0
102
RTVSPropertyOp10
 70
     0
102
RTVSPropertyOp11
 70
     0
102
RTVSPropertyOp12
 70
     0
102
RTVSPropertyOp13
 70
     0
102
RTVSPropertyOp14
 70
     2
102
RTVSPropertyOp15
 70
     0
102
RTVSPropertyOp16
 70
     0
102
RTVSPropertyOp17
 70
     0
102
RTVSPropertyOp18
 70
     0
102
RTVSPropertyOp19
 70
     0
102
RTVSPropertyOp20
 70
     0
102
RTVSPropertyOp21
 70
     0
102
RTVSPropertyOp22
 70
     0
102
RTVSPropertyOp23
 70
     0
102
RTVSPropertyOp24
 70
     0
102
RTVSPropertyOp25
 70
     0
102
RTVSPropertyOp26
 70
     0
102
RTVSPropertyOp27
 70
     0
102
RTVSPropertyOp28
 70
     0
102
RTVSPropertyOp29
 70
     0
102
RTVSPropertyOp30
 70
     0
102
RTVSPropertyOp31
 70
     0
102
RTVSPropertyOp32
 70
     0
102
RTVSPropertyOp33
 70
     0
102
RTVSPropertyOp34
 70
     0
102
RTVSPropertyOp35
 70
     0
102
RTVSPropertyOp36
 70
     0
102
RTVSPropertyOp37
 70
     0
102
RTVSPropertyOp38
 70
     0
102
RTVSPropertyOp39
 70
     0
102
RTVSPropertyOp40
 70
     0
102
RTVSPropertyOp41
 70
     0
102
RTVSPropertyOp42
 70
     0
102
RTVSPropertyOp43
 70
     0
102
RTVSPropertyOp44
 70
     0
102
RTVSPropertyOp45
 70
     0
102
RTVSPropertyOp46
 70
     0
102
RTVSPropertyOp47
 70
     0
102
RTVSPropertyOp48
 70
     0
102
RTVSPropertyOp49
 70
     0
102
RTVSPropertyOp50
 70
     0
102
RTVSPropertyOp51
 70
     0
102
RTVSPropertyOp52
 70
     0
102
RTVSPropertyOp53
 70
     0
102
RTVSPropertyOp54
 70
     0
102
RTVSPropertyOp55
 70
     0
102
RTVSPropertyOp56
 70
     0
102
RTVSPropertyOp57
 70
     0
102
RTVSPropertyOp58
 70
     1
102
RTVSPropertyOp59
 70
     1
102
RTVSPropertyOp60
 70
     1
102
RTVSPropertyOp61
 70
     1
102
RTVSPropertyOp62
 70
     1
  0
XRECORD
  5
14BC4
102
{ACAD_REACTORS
330
14BC3
102
}
330
14BC3
100
AcDbXrecord
280
     1
102
RTVSPost2010Prop28
280
     0
102
RTVSPost2010PropOp28
 70
     1
102
RTVSPost2010Prop29
280
     1
102
RTVSPost2010PropOp29
 70
     1
102
RTVSPost2010Prop30
280
     1
102
RTVSPost2010PropOp30
 70
     1
102
RTVSPost2010Prop31
280
     0
102
RTVSPost2010PropOp31
 70
     1
102
RTVSPost2010Prop32
280
     0
102
RTVSPost2010PropOp32
 70
     1
102
RTVSPost2010Prop33
280
     0
102
RTVSPost2010PropOp33
 70
     1
102
RTVSPost2010Prop34
280
     0
102
RTVSPost2010PropOp34
 70
     1
102
RTVSPost2010Prop35
280
     0
102
RTVSPost2010PropOp35
 70
     1
102
RTVSPost2010Prop36
280
     0
102
RTVSPost2010PropOp36
 70
     1
102
RTVSPost2010Prop37
 90
       50
102
RTVSPost2010PropOp37
 70
     1
102
RTVSPost2010Prop38
140
0.0
102
RTVSPost2010PropOp38
 70
     1
102
RTVSPost2010Prop39
140
1.0
102
RTVSPost2010PropOp39
 70
     1
102
RTVSPost2010Prop40
 90
        0
102
RTVSPost2010PropOp40
 70
     1
102
RTVSPost2010Prop41ColorIndex
 90
       18
102
RTVSPost2010Prop41ColorRGB
 90
        0
102
RTVSPost2010PropOp41
 70
     1
102
RTVSPost2010Prop42
 90
       50
102
RTVSPost2010PropOp42
 70
     1
102
RTVSPost2010Prop43
 90
        3
102
RTVSPost2010PropOp43
 70
     1
102
RTVSPost2010Prop44ColorIndex
 90
        5
102
RTVSPost2010Prop44ColorRGB
 90
      255
102
RTVSPost2010PropOp44
 70
     1
102
RTVSPost2010Prop45
280
     0
102
RTVSPost2010PropOp45
 70
     1
102
RTVSPost2010Prop46
 90
       50
102
RTVSPost2010PropOp46
 70
     1
102
RTVSPost2010Prop47
 90
       50
102
RTVSPost2010PropOp47
 70
     1
102
RTVSPost2010Prop48
 90
       50
102
RTVSPost2010PropOp48
 70
     1
102
RTVSPost2010Prop49
280
     0
102
RTVSPost2010PropOp49
 70
     1
102
RTVSPost2010Prop50
 90
       50
102
RTVSPost2010PropOp50
 70
     1
102
RTVSPost2010Prop51ColorIndex
 90
      256
102
RTVSPost2010Prop51ColorRGB
 90
-16777216
102
RTVSPost2010PropOp51
 70
     0
102
RTVSPost2010Prop52
140
1.0
102
RTVSPost2010PropOp52
 70
     0
102
RTVSPost2010Prop53
 90
        2
102
RTVSPost2010PropOp53
 70
     1
102
RTVSPost2010Prop54
  1
strokes_ogs.tif
102
RTVSPost2010PropOp54
 70
     1
102
RTVSPost2010Prop55
280
     0
102
RTVSPost2010PropOp55
 70
     1
102
RTVSPost2010Prop56
140
1.0
102
RTVSPost2010PropOp56
 70
     1
102
RTVSPost2010Prop57
140
1.0
102
RTVSPost2010PropOp57
 70
     1
102
RTVSPropertyOp0
 70
     1
102
RTVSPropertyOp1
 70
     1
102
RTVSPropertyOp2
 70
     1
102
RTVSPropertyOp3
 70
     1
102
RTVSPropertyOp4
 70
     1
102
RTVSPropertyOp5
 70
     1
102
RTVSPropertyOp6
 70
     1
102
RTVSPropertyOp7
 70
     1
102
RTVSPropertyOp8
 70
     1
102
RTVSPropertyOp9
 70
     1
102
RTVSPropertyOp10
 70
     1
102
RTVSPropertyOp11
 70
     1
102
RTVSPropertyOp12
 70
     1
102
RTVSPropertyOp13
 70
     1
102
RTVSPropertyOp14
 70
     1
102
RTVSPropertyOp15
 70
     1
102
RTVSPropertyOp16
 70
     1
102
RTVSPropertyOp17
 70
     1
102
RTVSPropertyOp18
 70
     1
102
RTVSPropertyOp19
 70
     1
102
RTVSPropertyOp20
 70
     1
102
RTVSPropertyOp21
 70
     1
102
RTVSPropertyOp22
 70
     1
102
RTVSPropertyOp23
 70
     1
102
RTVSPropertyOp24
 70
     1
102
RTVSPropertyOp25
 70
     1
102
RTVSPropertyOp26
 70
     1
102
RTVSPropertyOp27
 70
     1
102
RTVSPropertyOp28
 70
     1
102
RTVSPropertyOp29
 70
     1
102
RTVSPropertyOp30
 70
     1
102
RTVSPropertyOp31
 70
     1
102
RTVSPropertyOp32
 70
     1
102
RTVSPropertyOp33
 70
     1
102
RTVSPropertyOp34
 70
     1
102
RTVSPropertyOp35
 70
     1
102
RTVSPropertyOp36
 70
     1
102
RTVSPropertyOp37
 70
     1
102
RTVSPropertyOp38
 70
     1
102
RTVSPropertyOp39
 70
     1
102
RTVSPropertyOp40
 70
     1
102
RTVSPropertyOp41
 70
     1
102
RTVSPropertyOp42
 70
     1
102
RTVSPropertyOp43
 70
     1
102
RTVSPropertyOp44
 70
     1
102
RTVSPropertyOp45
 70
     1
102
RTVSPropertyOp46
 70
     1
102
RTVSPropertyOp47
 70
     1
102
RTVSPropertyOp48
 70
     1
102
RTVSPropertyOp49
 70
     1
102
RTVSPropertyOp50
 70
     1
102
RTVSPropertyOp51
 70
     0
102
RTVSPropertyOp52
 70
     0
102
RTVSPropertyOp53
 70
     1
102
RTVSPropertyOp54
 70
     1
102
RTVSPropertyOp55
 70
     1
102
RTVSPropertyOp56
 70
     1
102
RTVSPropertyOp57
 70
     1
102
RTVSPropertyOp58
 70
     1
102
RTVSPropertyOp59
 70
     1
102
RTVSPropertyOp60
 70
     1
102
RTVSPropertyOp61
 70
     1
102
RTVSPropertyOp62
 70
     1
  0
XRECORD
  5
14BE1
102
{ACAD_REACTORS
330
14BE0
102
}
330
14BE0
100
AcDbXrecord
280
     1
102
RTVSPost2010Prop28
280
     0
102
RTVSPost2010PropOp28
 70
     1
102
RTVSPost2010Prop29
280
     1
102
RTVSPost2010PropOp29
 70
     1
102
RTVSPost2010Prop30
280
     1
102
RTVSPost2010PropOp30
 70
     1
102
RTVSPost2010Prop31
280
     0
102
RTVSPost2010PropOp31
 70
     1
102
RTVSPost2010Prop32
280
     0
102
RTVSPost2010PropOp32
 70
     1
102
RTVSPost2010Prop33
280
     0
102
RTVSPost2010PropOp33
 70
     1
102
RTVSPost2010Prop34
280
     0
102
RTVSPost2010PropOp34
 70
     1
102
RTVSPost2010Prop35
280
     0
102
RTVSPost2010PropOp35
 70
     1
102
RTVSPost2010Prop36
280
     0
102
RTVSPost2010PropOp36
 70
     1
102
RTVSPost2010Prop37
 90
       50
102
RTVSPost2010PropOp37
 70
     1
102
RTVSPost2010Prop38
140
0.0
102
RTVSPost2010PropOp38
 70
     1
102
RTVSPost2010Prop39
140
1.0
102
RTVSPost2010PropOp39
 70
     1
102
RTVSPost2010Prop40
 90
        0
102
RTVSPost2010PropOp40
 70
     1
102
RTVSPost2010Prop41ColorIndex
 90
       18
102
RTVSPost2010Prop41ColorRGB
 90
        0
102
RTVSPost2010PropOp41
 70
     1
102
RTVSPost2010Prop42
 90
       50
102
RTVSPost2010PropOp42
 70
     1
102
RTVSPost2010Prop43
 90
        3
102
RTVSPost2010PropOp43
 70
     1
102
RTVSPost2010Prop44ColorIndex
 90
        5
102
RTVSPost2010Prop44ColorRGB
 90
      255
102
RTVSPost2010PropOp44
 70
     1
102
RTVSPost2010Prop45
280
     0
102
RTVSPost2010PropOp45
 70
     1
102
RTVSPost2010Prop46
 90
       50
102
RTVSPost2010PropOp46
 70
     1
102
RTVSPost2010Prop47
 90
       50
102
RTVSPost2010PropOp47
 70
     1
102
RTVSPost2010Prop48
 90
       50
102
RTVSPost2010PropOp48
 70
     1
102
RTVSPost2010Prop49
280
     0
102
RTVSPost2010PropOp49
 70
     1
102
RTVSPost2010Prop50
 90
       50
102
RTVSPost2010PropOp50
 70
     1
102
RTVSPost2010Prop51ColorIndex
 90
      256
102
RTVSPost2010Prop51ColorRGB
 90
-16777216
102
RTVSPost2010PropOp51
 70
     0
102
RTVSPost2010Prop52
140
1.0
102
RTVSPost2010PropOp52
 70
     0
102
RTVSPost2010Prop53
 90
        2
102
RTVSPost2010PropOp53
 70
     1
102
RTVSPost2010Prop54
  1
strokes_ogs.tif
102
RTVSPost2010PropOp54
 70
     1
102
RTVSPost2010Prop55
280
     0
102
RTVSPost2010PropOp55
 70
     1
102
RTVSPost2010Prop56
140
1.0
102
RTVSPost2010PropOp56
 70
     1
102
RTVSPost2010Prop57
140
1.0
102
RTVSPost2010PropOp57
 70
     1
102
RTVSPropertyOp0
 70
     1
102
RTVSPropertyOp1
 70
     1
102
RTVSPropertyOp2
 70
     1
102
RTVSPropertyOp3
 70
     1
102
RTVSPropertyOp4
 70
     1
102
RTVSPropertyOp5
 70
     1
102
RTVSPropertyOp6
 70
     1
102
RTVSPropertyOp7
 70
     1
102
RTVSPropertyOp8
 70
     1
102
RTVSPropertyOp9
 70
     1
102
RTVSPropertyOp10
 70
     1
102
RTVSPropertyOp11
 70
     1
102
RTVSPropertyOp12
 70
     1
102
RTVSPropertyOp13
 70
     1
102
RTVSPropertyOp14
 70
     1
102
RTVSPropertyOp15
 70
     1
102
RTVSPropertyOp16
 70
     1
102
RTVSPropertyOp17
 70
     1
102
RTVSPropertyOp18
 70
     1
102
RTVSPropertyOp19
 70
     1
102
RTVSPropertyOp20
 70
     1
102
RTVSPropertyOp21
 70
     1
102
RTVSPropertyOp22
 70
     1
102
RTVSPropertyOp23
 70
     1
102
RTVSPropertyOp24
 70
     1
102
RTVSPropertyOp25
 70
     1
102
RTVSPropertyOp26
 70
     1
102
RTVSPropertyOp27
 70
     1
102
RTVSPropertyOp28
 70
     1
102
RTVSPropertyOp29
 70
     1
102
RTVSPropertyOp30
 70
     1
102
RTVSPropertyOp31
 70
     1
102
RTVSPropertyOp32
 70
     1
102
RTVSPropertyOp33
 70
     1
102
RTVSPropertyOp34
 70
     1
102
RTVSPropertyOp35
 70
     1
102
RTVSPropertyOp36
 70
     1
102
RTVSPropertyOp37
 70
     1
102
RTVSPropertyOp38
 70
     1
102
RTVSPropertyOp39
 70
     1
102
RTVSPropertyOp40
 70
     1
102
RTVSPropertyOp41
 70
     1
102
RTVSPropertyOp42
 70
     1
102
RTVSPropertyOp43
 70
     1
102
RTVSPropertyOp44
 70
     1
102
RTVSPropertyOp45
 70
     1
102
RTVSPropertyOp46
 70
     1
102
RTVSPropertyOp47
 70
     1
102
RTVSPropertyOp48
 70
     1
102
RTVSPropertyOp49
 70
     1
102
RTVSPropertyOp50
 70
     1
102
RTVSPropertyOp51
 70
     0
102
RTVSPropertyOp52
 70
     0
102
RTVSPropertyOp53
 70
     1
102
RTVSPropertyOp54
 70
     1
102
RTVSPropertyOp55
 70
     1
102
RTVSPropertyOp56
 70
     1
102
RTVSPropertyOp57
 70
     1
102
RTVSPropertyOp58
 70
     1
102
RTVSPropertyOp59
 70
     1
102
RTVSPropertyOp60
 70
     1
102
RTVSPropertyOp61
 70
     1
102
RTVSPropertyOp62
 70
     1
  0
XRECORD
  5
14BDF
102
{ACAD_REACTORS
330
14BDE
102
}
330
14BDE
100
AcDbXrecord
280
     1
102
RTVSPost2010Prop28
280
     0
102
RTVSPost2010PropOp28
 70
     1
102
RTVSPost2010Prop29
280
     1
102
RTVSPost2010PropOp29
 70
     1
102
RTVSPost2010Prop30
280
     1
102
RTVSPost2010PropOp30
 70
     1
102
RTVSPost2010Prop31
280
     0
102
RTVSPost2010PropOp31
 70
     1
102
RTVSPost2010Prop32
280
     0
102
RTVSPost2010PropOp32
 70
     1
102
RTVSPost2010Prop33
280
     0
102
RTVSPost2010PropOp33
 70
     1
102
RTVSPost2010Prop34
280
     0
102
RTVSPost2010PropOp34
 70
     1
102
RTVSPost2010Prop35
280
     0
102
RTVSPost2010PropOp35
 70
     1
102
RTVSPost2010Prop36
280
     0
102
RTVSPost2010PropOp36
 70
     1
102
RTVSPost2010Prop37
 90
       50
102
RTVSPost2010PropOp37
 70
     1
102
RTVSPost2010Prop38
140
0.0
102
RTVSPost2010PropOp38
 70
     1
102
RTVSPost2010Prop39
140
1.0
102
RTVSPost2010PropOp39
 70
     1
102
RTVSPost2010Prop40
 90
        0
102
RTVSPost2010PropOp40
 70
     1
102
RTVSPost2010Prop41ColorIndex
 90
       18
102
RTVSPost2010Prop41ColorRGB
 90
        0
102
RTVSPost2010PropOp41
 70
     1
102
RTVSPost2010Prop42
 90
       50
102
RTVSPost2010PropOp42
 70
     1
102
RTVSPost2010Prop43
 90
        3
102
RTVSPost2010PropOp43
 70
     1
102
RTVSPost2010Prop44ColorIndex
 90
        5
102
RTVSPost2010Prop44ColorRGB
 90
      255
102
RTVSPost2010PropOp44
 70
     1
102
RTVSPost2010Prop45
280
     0
102
RTVSPost2010PropOp45
 70
     1
102
RTVSPost2010Prop46
 90
       50
102
RTVSPost2010PropOp46
 70
     1
102
RTVSPost2010Prop47
 90
       50
102
RTVSPost2010PropOp47
 70
     1
102
RTVSPost2010Prop48
 90
       50
102
RTVSPost2010PropOp48
 70
     1
102
RTVSPost2010Prop49
280
     0
102
RTVSPost2010PropOp49
 70
     1
102
RTVSPost2010Prop50
 90
       50
102
RTVSPost2010PropOp50
 70
     1
102
RTVSPost2010Prop51ColorIndex
 90
      256
102
RTVSPost2010Prop51ColorRGB
 90
-16777216
102
RTVSPost2010PropOp51
 70
     0
102
RTVSPost2010Prop52
140
1.0
102
RTVSPost2010PropOp52
 70
     0
102
RTVSPost2010Prop53
 90
        2
102
RTVSPost2010PropOp53
 70
     1
102
RTVSPost2010Prop54
  1
strokes_ogs.tif
102
RTVSPost2010PropOp54
 70
     1
102
RTVSPost2010Prop55
280
     0
102
RTVSPost2010PropOp55
 70
     1
102
RTVSPost2010Prop56
140
1.0
102
RTVSPost2010PropOp56
 70
     1
102
RTVSPost2010Prop57
140
1.0
102
RTVSPost2010PropOp57
 70
     1
102
RTVSPropertyOp0
 70
     1
102
RTVSPropertyOp1
 70
     1
102
RTVSPropertyOp2
 70
     1
102
RTVSPropertyOp3
 70
     1
102
RTVSPropertyOp4
 70
     1
102
RTVSPropertyOp5
 70
     1
102
RTVSPropertyOp6
 70
     1
102
RTVSPropertyOp7
 70
     1
102
RTVSPropertyOp8
 70
     1
102
RTVSPropertyOp9
 70
     1
102
RTVSPropertyOp10
 70
     1
102
RTVSPropertyOp11
 70
     1
102
RTVSPropertyOp12
 70
     1
102
RTVSPropertyOp13
 70
     1
102
RTVSPropertyOp14
 70
     1
102
RTVSPropertyOp15
 70
     1
102
RTVSPropertyOp16
 70
     1
102
RTVSPropertyOp17
 70
     1
102
RTVSPropertyOp18
 70
     1
102
RTVSPropertyOp19
 70
     1
102
RTVSPropertyOp20
 70
     1
102
RTVSPropertyOp21
 70
     1
102
RTVSPropertyOp22
 70
     1
102
RTVSPropertyOp23
 70
     1
102
RTVSPropertyOp24
 70
     1
102
RTVSPropertyOp25
 70
     1
102
RTVSPropertyOp26
 70
     1
102
RTVSPropertyOp27
 70
     1
102
RTVSPropertyOp28
 70
     1
102
RTVSPropertyOp29
 70
     1
102
RTVSPropertyOp30
 70
     1
102
RTVSPropertyOp31
 70
     1
102
RTVSPropertyOp32
 70
     1
102
RTVSPropertyOp33
 70
     1
102
RTVSPropertyOp34
 70
     1
102
RTVSPropertyOp35
 70
     1
102
RTVSPropertyOp36
 70
     1
102
RTVSPropertyOp37
 70
     1
102
RTVSPropertyOp38
 70
     1
102
RTVSPropertyOp39
 70
     1
102
RTVSPropertyOp40
 70
     1
102
RTVSPropertyOp41
 70
     1
102
RTVSPropertyOp42
 70
     1
102
RTVSPropertyOp43
 70
     1
102
RTVSPropertyOp44
 70
     1
102
RTVSPropertyOp45
 70
     1
102
RTVSPropertyOp46
 70
     1
102
RTVSPropertyOp47
 70
     1
102
RTVSPropertyOp48
 70
     1
102
RTVSPropertyOp49
 70
     1
102
RTVSPropertyOp50
 70
     1
102
RTVSPropertyOp51
 70
     0
102
RTVSPropertyOp52
 70
     0
102
RTVSPropertyOp53
 70
     1
102
RTVSPropertyOp54
 70
     1
102
RTVSPropertyOp55
 70
     1
102
RTVSPropertyOp56
 70
     1
102
RTVSPropertyOp57
 70
     1
102
RTVSPropertyOp58
 70
     1
102
RTVSPropertyOp59
 70
     1
102
RTVSPropertyOp60
 70
     1
102
RTVSPropertyOp61
 70
     1
102
RTVSPropertyOp62
 70
     1
  0
XRECORD
  5
14BD9
102
{ACAD_REACTORS
330
14BD8
102
}
330
14BD8
100
AcDbXrecord
280
     1
102
RTVSPost2010Prop28
280
     0
102
RTVSPost2010PropOp28
 70
     1
102
RTVSPost2010Prop29
280
     1
102
RTVSPost2010PropOp29
 70
     1
102
RTVSPost2010Prop30
280
     1
102
RTVSPost2010PropOp30
 70
     1
102
RTVSPost2010Prop31
280
     0
102
RTVSPost2010PropOp31
 70
     1
102
RTVSPost2010Prop32
280
     0
102
RTVSPost2010PropOp32
 70
     1
102
RTVSPost2010Prop33
280
     0
102
RTVSPost2010PropOp33
 70
     1
102
RTVSPost2010Prop34
280
     0
102
RTVSPost2010PropOp34
 70
     1
102
RTVSPost2010Prop35
280
     0
102
RTVSPost2010PropOp35
 70
     1
102
RTVSPost2010Prop36
280
     0
102
RTVSPost2010PropOp36
 70
     1
102
RTVSPost2010Prop37
 90
       50
102
RTVSPost2010PropOp37
 70
     1
102
RTVSPost2010Prop38
140
0.0
102
RTVSPost2010PropOp38
 70
     1
102
RTVSPost2010Prop39
140
1.0
102
RTVSPost2010PropOp39
 70
     1
102
RTVSPost2010Prop40
 90
        0
102
RTVSPost2010PropOp40
 70
     1
102
RTVSPost2010Prop41ColorIndex
 90
       18
102
RTVSPost2010Prop41ColorRGB
 90
        0
102
RTVSPost2010PropOp41
 70
     1
102
RTVSPost2010Prop42
 90
       50
102
RTVSPost2010PropOp42
 70
     1
102
RTVSPost2010Prop43
 90
        3
102
RTVSPost2010PropOp43
 70
     1
102
RTVSPost2010Prop44ColorIndex
 90
        5
102
RTVSPost2010Prop44ColorRGB
 90
      255
102
RTVSPost2010PropOp44
 70
     1
102
RTVSPost2010Prop45
280
     0
102
RTVSPost2010PropOp45
 70
     1
102
RTVSPost2010Prop46
 90
       50
102
RTVSPost2010PropOp46
 70
     1
102
RTVSPost2010Prop47
 90
       50
102
RTVSPost2010PropOp47
 70
     1
102
RTVSPost2010Prop48
 90
       50
102
RTVSPost2010PropOp48
 70
     1
102
RTVSPost2010Prop49
280
     0
102
RTVSPost2010PropOp49
 70
     1
102
RTVSPost2010Prop50
 90
       50
102
RTVSPost2010PropOp50
 70
     1
102
RTVSPost2010Prop51ColorIndex
 90
      256
102
RTVSPost2010Prop51ColorRGB
 90
-16777216
102
RTVSPost2010PropOp51
 70
     0
102
RTVSPost2010Prop52
140
1.0
102
RTVSPost2010PropOp52
 70
     0
102
RTVSPost2010Prop53
 90
        2
102
RTVSPost2010PropOp53
 70
     1
102
RTVSPost2010Prop54
  1
strokes_ogs.tif
102
RTVSPost2010PropOp54
 70
     1
102
RTVSPost2010Prop55
280
     0
102
RTVSPost2010PropOp55
 70
     1
102
RTVSPost2010Prop56
140
1.0
102
RTVSPost2010PropOp56
 70
     1
102
RTVSPost2010Prop57
140
1.0
102
RTVSPost2010PropOp57
 70
     1
102
RTVSPropertyOp0
 70
     1
102
RTVSPropertyOp1
 70
     1
102
RTVSPropertyOp2
 70
     1
102
RTVSPropertyOp3
 70
     1
102
RTVSPropertyOp4
 70
     1
102
RTVSPropertyOp5
 70
     1
102
RTVSPropertyOp6
 70
     1
102
RTVSPropertyOp7
 70
     1
102
RTVSPropertyOp8
 70
     1
102
RTVSPropertyOp9
 70
     1
102
RTVSPropertyOp10
 70
     1
102
RTVSPropertyOp11
 70
     1
102
RTVSPropertyOp12
 70
     1
102
RTVSPropertyOp13
 70
     1
102
RTVSPropertyOp14
 70
     1
102
RTVSPropertyOp15
 70
     1
102
RTVSPropertyOp16
 70
     1
102
RTVSPropertyOp17
 70
     1
102
RTVSPropertyOp18
 70
     1
102
RTVSPropertyOp19
 70
     1
102
RTVSPropertyOp20
 70
     1
102
RTVSPropertyOp21
 70
     1
102
RTVSPropertyOp22
 70
     1
102
RTVSPropertyOp23
 70
     1
102
RTVSPropertyOp24
 70
     1
102
RTVSPropertyOp25
 70
     1
102
RTVSPropertyOp26
 70
     1
102
RTVSPropertyOp27
 70
     1
102
RTVSPropertyOp28
 70
     1
102
RTVSPropertyOp29
 70
     1
102
RTVSPropertyOp30
 70
     1
102
RTVSPropertyOp31
 70
     1
102
RTVSPropertyOp32
 70
     1
102
RTVSPropertyOp33
 70
     1
102
RTVSPropertyOp34
 70
     1
102
RTVSPropertyOp35
 70
     1
102
RTVSPropertyOp36
 70
     1
102
RTVSPropertyOp37
 70
     1
102
RTVSPropertyOp38
 70
     1
102
RTVSPropertyOp39
 70
     1
102
RTVSPropertyOp40
 70
     1
102
RTVSPropertyOp41
 70
     1
102
RTVSPropertyOp42
 70
     1
102
RTVSPropertyOp43
 70
     1
102
RTVSPropertyOp44
 70
     1
102
RTVSPropertyOp45
 70
     1
102
RTVSPropertyOp46
 70
     1
102
RTVSPropertyOp47
 70
     1
102
RTVSPropertyOp48
 70
     1
102
RTVSPropertyOp49
 70
     1
102
RTVSPropertyOp50
 70
     1
102
RTVSPropertyOp51
 70
     0
102
RTVSPropertyOp52
 70
     0
102
RTVSPropertyOp53
 70
     1
102
RTVSPropertyOp54
 70
     1
102
RTVSPropertyOp55
 70
     1
102
RTVSPropertyOp56
 70
     1
102
RTVSPropertyOp57
 70
     1
102
RTVSPropertyOp58
 70
     1
102
RTVSPropertyOp59
 70
     1
102
RTVSPropertyOp60
 70
     1
102
RTVSPropertyOp61
 70
     1
102
RTVSPropertyOp62
 70
     1
  0
XRECORD
  5
14BDB
102
{ACAD_REACTORS
330
14BDA
102
}
330
14BDA
100
AcDbXrecord
280
     1
102
RTVSPost2010Prop28
280
     0
102
RTVSPost2010PropOp28
 70
     1
102
RTVSPost2010Prop29
280
     1
102
RTVSPost2010PropOp29
 70
     1
102
RTVSPost2010Prop30
280
     1
102
RTVSPost2010PropOp30
 70
     1
102
RTVSPost2010Prop31
280
     0
102
RTVSPost2010PropOp31
 70
     1
102
RTVSPost2010Prop32
280
     0
102
RTVSPost2010PropOp32
 70
     1
102
RTVSPost2010Prop33
280
     0
102
RTVSPost2010PropOp33
 70
     1
102
RTVSPost2010Prop34
280
     0
102
RTVSPost2010PropOp34
 70
     1
102
RTVSPost2010Prop35
280
     0
102
RTVSPost2010PropOp35
 70
     1
102
RTVSPost2010Prop36
280
     0
102
RTVSPost2010PropOp36
 70
     1
102
RTVSPost2010Prop37
 90
       50
102
RTVSPost2010PropOp37
 70
     1
102
RTVSPost2010Prop38
140
0.0
102
RTVSPost2010PropOp38
 70
     1
102
RTVSPost2010Prop39
140
1.0
102
RTVSPost2010PropOp39
 70
     1
102
RTVSPost2010Prop40
 90
        0
102
RTVSPost2010PropOp40
 70
     1
102
RTVSPost2010Prop41ColorIndex
 90
       18
102
RTVSPost2010Prop41ColorRGB
 90
        0
102
RTVSPost2010PropOp41
 70
     1
102
RTVSPost2010Prop42
 90
       50
102
RTVSPost2010PropOp42
 70
     1
102
RTVSPost2010Prop43
 90
        3
102
RTVSPost2010PropOp43
 70
     1
102
RTVSPost2010Prop44ColorIndex
 90
        5
102
RTVSPost2010Prop44ColorRGB
 90
      255
102
RTVSPost2010PropOp44
 70
     1
102
RTVSPost2010Prop45
280
     0
102
RTVSPost2010PropOp45
 70
     1
102
RTVSPost2010Prop46
 90
       50
102
RTVSPost2010PropOp46
 70
     1
102
RTVSPost2010Prop47
 90
       50
102
RTVSPost2010PropOp47
 70
     1
102
RTVSPost2010Prop48
 90
       50
102
RTVSPost2010PropOp48
 70
     1
102
RTVSPost2010Prop49
280
     0
102
RTVSPost2010PropOp49
 70
     1
102
RTVSPost2010Prop50
 90
       50
102
RTVSPost2010PropOp50
 70
     1
102
RTVSPost2010Prop51ColorIndex
 90
      256
102
RTVSPost2010Prop51ColorRGB
 90
-16777216
102
RTVSPost2010PropOp51
 70
     0
102
RTVSPost2010Prop52
140
1.0
102
RTVSPost2010PropOp52
 70
     0
102
RTVSPost2010Prop53
 90
        2
102
RTVSPost2010PropOp53
 70
     1
102
RTVSPost2010Prop54
  1
strokes_ogs.tif
102
RTVSPost2010PropOp54
 70
     1
102
RTVSPost2010Prop55
280
     0
102
RTVSPost2010PropOp55
 70
     1
102
RTVSPost2010Prop56
140
1.0
102
RTVSPost2010PropOp56
 70
     1
102
RTVSPost2010Prop57
140
1.0
102
RTVSPost2010PropOp57
 70
     1
102
RTVSPropertyOp0
 70
     1
102
RTVSPropertyOp1
 70
     1
102
RTVSPropertyOp2
 70
     1
102
RTVSPropertyOp3
 70
     1
102
RTVSPropertyOp4
 70
     1
102
RTVSPropertyOp5
 70
     1
102
RTVSPropertyOp6
 70
     1
102
RTVSPropertyOp7
 70
     1
102
RTVSPropertyOp8
 70
     1
102
RTVSPropertyOp9
 70
     1
102
RTVSPropertyOp10
 70
     1
102
RTVSPropertyOp11
 70
     1
102
RTVSPropertyOp12
 70
     1
102
RTVSPropertyOp13
 70
     1
102
RTVSPropertyOp14
 70
     1
102
RTVSPropertyOp15
 70
     1
102
RTVSPropertyOp16
 70
     1
102
RTVSPropertyOp17
 70
     1
102
RTVSPropertyOp18
 70
     1
102
RTVSPropertyOp19
 70
     1
102
RTVSPropertyOp20
 70
     1
102
RTVSPropertyOp21
 70
     1
102
RTVSPropertyOp22
 70
     1
102
RTVSPropertyOp23
 70
     1
102
RTVSPropertyOp24
 70
     1
102
RTVSPropertyOp25
 70
     1
102
RTVSPropertyOp26
 70
     1
102
RTVSPropertyOp27
 70
     1
102
RTVSPropertyOp28
 70
     1
102
RTVSPropertyOp29
 70
     1
102
RTVSPropertyOp30
 70
     1
102
RTVSPropertyOp31
 70
     1
102
RTVSPropertyOp32
 70
     1
102
RTVSPropertyOp33
 70
     1
102
RTVSPropertyOp34
 70
     1
102
RTVSPropertyOp35
 70
     1
102
RTVSPropertyOp36
 70
     1
102
RTVSPropertyOp37
 70
     1
102
RTVSPropertyOp38
 70
     1
102
RTVSPropertyOp39
 70
     1
102
RTVSPropertyOp40
 70
     1
102
RTVSPropertyOp41
 70
     1
102
RTVSPropertyOp42
 70
     1
102
RTVSPropertyOp43
 70
     1
102
RTVSPropertyOp44
 70
     1
102
RTVSPropertyOp45
 70
     1
102
RTVSPropertyOp46
 70
     1
102
RTVSPropertyOp47
 70
     1
102
RTVSPropertyOp48
 70
     1
102
RTVSPropertyOp49
 70
     1
102
RTVSPropertyOp50
 70
     1
102
RTVSPropertyOp51
 70
     0
102
RTVSPropertyOp52
 70
     0
102
RTVSPropertyOp53
 70
     1
102
RTVSPropertyOp54
 70
     1
102
RTVSPropertyOp55
 70
     1
102
RTVSPropertyOp56
 70
     1
102
RTVSPropertyOp57
 70
     1
102
RTVSPropertyOp58
 70
     1
102
RTVSPropertyOp59
 70
     1
102
RTVSPropertyOp60
 70
     1
102
RTVSPropertyOp61
 70
     1
102
RTVSPropertyOp62
 70
     1
  0
XRECORD
  5
14BCA
102
{ACAD_REACTORS
330
14BC9
102
}
330
14BC9
100
AcDbXrecord
280
     1
102
RTVSPost2010Prop28
280
     0
102
RTVSPost2010PropOp28
 70
     1
102
RTVSPost2010Prop29
280
     1
102
RTVSPost2010PropOp29
 70
     1
102
RTVSPost2010Prop30
280
     1
102
RTVSPost2010PropOp30
 70
     1
102
RTVSPost2010Prop31
280
     0
102
RTVSPost2010PropOp31
 70
     1
102
RTVSPost2010Prop32
280
     0
102
RTVSPost2010PropOp32
 70
     1
102
RTVSPost2010Prop33
280
     0
102
RTVSPost2010PropOp33
 70
     1
102
RTVSPost2010Prop34
280
     0
102
RTVSPost2010PropOp34
 70
     1
102
RTVSPost2010Prop35
280
     0
102
RTVSPost2010PropOp35
 70
     1
102
RTVSPost2010Prop36
280
     0
102
RTVSPost2010PropOp36
 70
     1
102
RTVSPost2010Prop37
 90
       50
102
RTVSPost2010PropOp37
 70
     1
102
RTVSPost2010Prop38
140
0.0
102
RTVSPost2010PropOp38
 70
     1
102
RTVSPost2010Prop39
140
1.0
102
RTVSPost2010PropOp39
 70
     1
102
RTVSPost2010Prop40
 90
        0
102
RTVSPost2010PropOp40
 70
     1
102
RTVSPost2010Prop41ColorIndex
 90
       18
102
RTVSPost2010Prop41ColorRGB
 90
        0
102
RTVSPost2010PropOp41
 70
     1
102
RTVSPost2010Prop42
 90
       50
102
RTVSPost2010PropOp42
 70
     1
102
RTVSPost2010Prop43
 90
        3
102
RTVSPost2010PropOp43
 70
     1
102
RTVSPost2010Prop44ColorIndex
 90
        5
102
RTVSPost2010Prop44ColorRGB
 90
      255
102
RTVSPost2010PropOp44
 70
     1
102
RTVSPost2010Prop45
280
     0
102
RTVSPost2010PropOp45
 70
     1
102
RTVSPost2010Prop46
 90
       50
102
RTVSPost2010PropOp46
 70
     1
102
RTVSPost2010Prop47
 90
       50
102
RTVSPost2010PropOp47
 70
     1
102
RTVSPost2010Prop48
 90
       50
102
RTVSPost2010PropOp48
 70
     1
102
RTVSPost2010Prop49
280
     0
102
RTVSPost2010PropOp49
 70
     1
102
RTVSPost2010Prop50
 90
       50
102
RTVSPost2010PropOp50
 70
     1
102
RTVSPost2010Prop51ColorIndex
 90
      256
102
RTVSPost2010Prop51ColorRGB
 90
-16777216
102
RTVSPost2010PropOp51
 70
     0
102
RTVSPost2010Prop52
140
1.0
102
RTVSPost2010PropOp52
 70
     0
102
RTVSPost2010Prop53
 90
        2
102
RTVSPost2010PropOp53
 70
     1
102
RTVSPost2010Prop54
  1
strokes_ogs.tif
102
RTVSPost2010PropOp54
 70
     1
102
RTVSPost2010Prop55
280
     0
102
RTVSPost2010PropOp55
 70
     1
102
RTVSPost2010Prop56
140
1.0
102
RTVSPost2010PropOp56
 70
     1
102
RTVSPost2010Prop57
140
1.0
102
RTVSPost2010PropOp57
 70
     1
102
RTVSPropertyOp0
 70
     1
102
RTVSPropertyOp1
 70
     1
102
RTVSPropertyOp2
 70
     1
102
RTVSPropertyOp3
 70
     1
102
RTVSPropertyOp4
 70
     1
102
RTVSPropertyOp5
 70
     1
102
RTVSPropertyOp6
 70
     1
102
RTVSPropertyOp7
 70
     1
102
RTVSPropertyOp8
 70
     1
102
RTVSPropertyOp9
 70
     1
102
RTVSPropertyOp10
 70
     1
102
RTVSPropertyOp11
 70
     1
102
RTVSPropertyOp12
 70
     1
102
RTVSPropertyOp13
 70
     1
102
RTVSPropertyOp14
 70
     1
102
RTVSPropertyOp15
 70
     1
102
RTVSPropertyOp16
 70
     1
102
RTVSPropertyOp17
 70
     1
102
RTVSPropertyOp18
 70
     1
102
RTVSPropertyOp19
 70
     1
102
RTVSPropertyOp20
 70
     1
102
RTVSPropertyOp21
 70
     1
102
RTVSPropertyOp22
 70
     1
102
RTVSPropertyOp23
 70
     1
102
RTVSPropertyOp24
 70
     1
102
RTVSPropertyOp25
 70
     1
102
RTVSPropertyOp26
 70
     1
102
RTVSPropertyOp27
 70
     1
102
RTVSPropertyOp28
 70
     1
102
RTVSPropertyOp29
 70
     1
102
RTVSPropertyOp30
 70
     1
102
RTVSPropertyOp31
 70
     1
102
RTVSPropertyOp32
 70
     1
102
RTVSPropertyOp33
 70
     1
102
RTVSPropertyOp34
 70
     1
102
RTVSPropertyOp35
 70
     1
102
RTVSPropertyOp36
 70
     1
102
RTVSPropertyOp37
 70
     1
102
RTVSPropertyOp38
 70
     1
102
RTVSPropertyOp39
 70
     1
102
RTVSPropertyOp40
 70
     1
102
RTVSPropertyOp41
 70
     1
102
RTVSPropertyOp42
 70
     1
102
RTVSPropertyOp43
 70
     1
102
RTVSPropertyOp44
 70
     1
102
RTVSPropertyOp45
 70
     1
102
RTVSPropertyOp46
 70
     1
102
RTVSPropertyOp47
 70
     1
102
RTVSPropertyOp48
 70
     1
102
RTVSPropertyOp49
 70
     1
102
RTVSPropertyOp50
 70
     1
102
RTVSPropertyOp51
 70
     0
102
RTVSPropertyOp52
 70
     0
102
RTVSPropertyOp53
 70
     1
102
RTVSPropertyOp54
 70
     1
102
RTVSPropertyOp55
 70
     1
102
RTVSPropertyOp56
 70
     1
102
RTVSPropertyOp57
 70
     1
102
RTVSPropertyOp58
 70
     1
102
RTVSPropertyOp59
 70
     1
102
RTVSPropertyOp60
 70
     1
102
RTVSPropertyOp61
 70
     1
102
RTVSPropertyOp62
 70
     1
  0
XRECORD
  5
14BD5
102
{ACAD_REACTORS
330
14BD4
102
}
330
14BD4
100
AcDbXrecord
280
     1
102
RTVSPost2010Prop28
280
     0
102
RTVSPost2010PropOp28
 70
     1
102
RTVSPost2010Prop29
280
     1
102
RTVSPost2010PropOp29
 70
     1
102
RTVSPost2010Prop30
280
     1
102
RTVSPost2010PropOp30
 70
     1
102
RTVSPost2010Prop31
280
     0
102
RTVSPost2010PropOp31
 70
     1
102
RTVSPost2010Prop32
280
     0
102
RTVSPost2010PropOp32
 70
     1
102
RTVSPost2010Prop33
280
     0
102
RTVSPost2010PropOp33
 70
     1
102
RTVSPost2010Prop34
280
     0
102
RTVSPost2010PropOp34
 70
     1
102
RTVSPost2010Prop35
280
     0
102
RTVSPost2010PropOp35
 70
     1
102
RTVSPost2010Prop36
280
     0
102
RTVSPost2010PropOp36
 70
     1
102
RTVSPost2010Prop37
 90
       50
102
RTVSPost2010PropOp37
 70
     1
102
RTVSPost2010Prop38
140
0.0
102
RTVSPost2010PropOp38
 70
     1
102
RTVSPost2010Prop39
140
1.0
102
RTVSPost2010PropOp39
 70
     1
102
RTVSPost2010Prop40
 90
        0
102
RTVSPost2010PropOp40
 70
     1
102
RTVSPost2010Prop41ColorIndex
 90
       18
102
RTVSPost2010Prop41ColorRGB
 90
        0
102
RTVSPost2010PropOp41
 70
     1
102
RTVSPost2010Prop42
 90
       50
102
RTVSPost2010PropOp42
 70
     1
102
RTVSPost2010Prop43
 90
        3
102
RTVSPost2010PropOp43
 70
     1
102
RTVSPost2010Prop44ColorIndex
 90
        5
102
RTVSPost2010Prop44ColorRGB
 90
      255
102
RTVSPost2010PropOp44
 70
     1
102
RTVSPost2010Prop45
280
     0
102
RTVSPost2010PropOp45
 70
     1
102
RTVSPost2010Prop46
 90
       50
102
RTVSPost2010PropOp46
 70
     1
102
RTVSPost2010Prop47
 90
       50
102
RTVSPost2010PropOp47
 70
     1
102
RTVSPost2010Prop48
 90
       50
102
RTVSPost2010PropOp48
 70
     1
102
RTVSPost2010Prop49
280
     0
102
RTVSPost2010PropOp49
 70
     1
102
RTVSPost2010Prop50
 90
       50
102
RTVSPost2010PropOp50
 70
     1
102
RTVSPost2010Prop51ColorIndex
 90
      256
102
RTVSPost2010Prop51ColorRGB
 90
-16777216
102
RTVSPost2010PropOp51
 70
     0
102
RTVSPost2010Prop52
140
1.0
102
RTVSPost2010PropOp52
 70
     0
102
RTVSPost2010Prop53
 90
        2
102
RTVSPost2010PropOp53
 70
     1
102
RTVSPost2010Prop54
  1
strokes_ogs.tif
102
RTVSPost2010PropOp54
 70
     1
102
RTVSPost2010Prop55
280
     0
102
RTVSPost2010PropOp55
 70
     1
102
RTVSPost2010Prop56
140
1.0
102
RTVSPost2010PropOp56
 70
     1
102
RTVSPost2010Prop57
140
1.0
102
RTVSPost2010PropOp57
 70
     1
102
RTVSPropertyOp0
 70
     1
102
RTVSPropertyOp1
 70
     1
102
RTVSPropertyOp2
 70
     1
102
RTVSPropertyOp3
 70
     1
102
RTVSPropertyOp4
 70
     1
102
RTVSPropertyOp5
 70
     1
102
RTVSPropertyOp6
 70
     1
102
RTVSPropertyOp7
 70
     1
102
RTVSPropertyOp8
 70
     1
102
RTVSPropertyOp9
 70
     1
102
RTVSPropertyOp10
 70
     1
102
RTVSPropertyOp11
 70
     1
102
RTVSPropertyOp12
 70
     1
102
RTVSPropertyOp13
 70
     1
102
RTVSPropertyOp14
 70
     1
102
RTVSPropertyOp15
 70
     1
102
RTVSPropertyOp16
 70
     1
102
RTVSPropertyOp17
 70
     1
102
RTVSPropertyOp18
 70
     1
102
RTVSPropertyOp19
 70
     1
102
RTVSPropertyOp20
 70
     1
102
RTVSPropertyOp21
 70
     1
102
RTVSPropertyOp22
 70
     1
102
RTVSPropertyOp23
 70
     1
102
RTVSPropertyOp24
 70
     1
102
RTVSPropertyOp25
 70
     1
102
RTVSPropertyOp26
 70
     1
102
RTVSPropertyOp27
 70
     1
102
RTVSPropertyOp28
 70
     1
102
RTVSPropertyOp29
 70
     1
102
RTVSPropertyOp30
 70
     1
102
RTVSPropertyOp31
 70
     1
102
RTVSPropertyOp32
 70
     1
102
RTVSPropertyOp33
 70
     1
102
RTVSPropertyOp34
 70
     1
102
RTVSPropertyOp35
 70
     1
102
RTVSPropertyOp36
 70
     1
102
RTVSPropertyOp37
 70
     1
102
RTVSPropertyOp38
 70
     1
102
RTVSPropertyOp39
 70
     1
102
RTVSPropertyOp40
 70
     1
102
RTVSPropertyOp41
 70
     1
102
RTVSPropertyOp42
 70
     1
102
RTVSPropertyOp43
 70
     1
102
RTVSPropertyOp44
 70
     1
102
RTVSPropertyOp45
 70
     1
102
RTVSPropertyOp46
 70
     1
102
RTVSPropertyOp47
 70
     1
102
RTVSPropertyOp48
 70
     1
102
RTVSPropertyOp49
 70
     1
102
RTVSPropertyOp50
 70
     1
102
RTVSPropertyOp51
 70
     0
102
RTVSPropertyOp52
 70
     0
102
RTVSPropertyOp53
 70
     1
102
RTVSPropertyOp54
 70
     1
102
RTVSPropertyOp55
 70
     1
102
RTVSPropertyOp56
 70
     1
102
RTVSPropertyOp57
 70
     1
102
RTVSPropertyOp58
 70
     1
102
RTVSPropertyOp59
 70
     1
102
RTVSPropertyOp60
 70
     1
102
RTVSPropertyOp61
 70
     1
102
RTVSPropertyOp62
 70
     1
  0
XRECORD
  5
14BDD
102
{ACAD_REACTORS
330
14BDC
102
}
330
14BDC
100
AcDbXrecord
280
     1
102
RTVSPost2010Prop28
280
     0
102
RTVSPost2010PropOp28
 70
     1
102
RTVSPost2010Prop29
280
     1
102
RTVSPost2010PropOp29
 70
     1
102
RTVSPost2010Prop30
280
     1
102
RTVSPost2010PropOp30
 70
     1
102
RTVSPost2010Prop31
280
     0
102
RTVSPost2010PropOp31
 70
     1
102
RTVSPost2010Prop32
280
     0
102
RTVSPost2010PropOp32
 70
     1
102
RTVSPost2010Prop33
280
     0
102
RTVSPost2010PropOp33
 70
     1
102
RTVSPost2010Prop34
280
     0
102
RTVSPost2010PropOp34
 70
     1
102
RTVSPost2010Prop35
280
     0
102
RTVSPost2010PropOp35
 70
     1
102
RTVSPost2010Prop36
280
     0
102
RTVSPost2010PropOp36
 70
     1
102
RTVSPost2010Prop37
 90
       50
102
RTVSPost2010PropOp37
 70
     1
102
RTVSPost2010Prop38
140
0.0
102
RTVSPost2010PropOp38
 70
     1
102
RTVSPost2010Prop39
140
1.0
102
RTVSPost2010PropOp39
 70
     1
102
RTVSPost2010Prop40
 90
        0
102
RTVSPost2010PropOp40
 70
     1
102
RTVSPost2010Prop41ColorIndex
 90
       18
102
RTVSPost2010Prop41ColorRGB
 90
        0
102
RTVSPost2010PropOp41
 70
     1
102
RTVSPost2010Prop42
 90
       50
102
RTVSPost2010PropOp42
 70
     1
102
RTVSPost2010Prop43
 90
        3
102
RTVSPost2010PropOp43
 70
     1
102
RTVSPost2010Prop44ColorIndex
 90
        5
102
RTVSPost2010Prop44ColorRGB
 90
      255
102
RTVSPost2010PropOp44
 70
     1
102
RTVSPost2010Prop45
280
     0
102
RTVSPost2010PropOp45
 70
     1
102
RTVSPost2010Prop46
 90
       50
102
RTVSPost2010PropOp46
 70
     1
102
RTVSPost2010Prop47
 90
       50
102
RTVSPost2010PropOp47
 70
     1
102
RTVSPost2010Prop48
 90
       50
102
RTVSPost2010PropOp48
 70
     1
102
RTVSPost2010Prop49
280
     0
102
RTVSPost2010PropOp49
 70
     1
102
RTVSPost2010Prop50
 90
       50
102
RTVSPost2010PropOp50
 70
     1
102
RTVSPost2010Prop51ColorIndex
 90
      256
102
RTVSPost2010Prop51ColorRGB
 90
-16777216
102
RTVSPost2010PropOp51
 70
     0
102
RTVSPost2010Prop52
140
1.0
102
RTVSPost2010PropOp52
 70
     0
102
RTVSPost2010Prop53
 90
        2
102
RTVSPost2010PropOp53
 70
     1
102
RTVSPost2010Prop54
  1
strokes_ogs.tif
102
RTVSPost2010PropOp54
 70
     1
102
RTVSPost2010Prop55
280
     0
102
RTVSPost2010PropOp55
 70
     1
102
RTVSPost2010Prop56
140
1.0
102
RTVSPost2010PropOp56
 70
     1
102
RTVSPost2010Prop57
140
1.0
102
RTVSPost2010PropOp57
 70
     1
102
RTVSPropertyOp0
 70
     1
102
RTVSPropertyOp1
 70
     1
102
RTVSPropertyOp2
 70
     1
102
RTVSPropertyOp3
 70
     1
102
RTVSPropertyOp4
 70
     1
102
RTVSPropertyOp5
 70
     1
102
RTVSPropertyOp6
 70
     1
102
RTVSPropertyOp7
 70
     1
102
RTVSPropertyOp8
 70
     1
102
RTVSPropertyOp9
 70
     1
102
RTVSPropertyOp10
 70
     1
102
RTVSPropertyOp11
 70
     1
102
RTVSPropertyOp12
 70
     1
102
RTVSPropertyOp13
 70
     1
102
RTVSPropertyOp14
 70
     1
102
RTVSPropertyOp15
 70
     1
102
RTVSPropertyOp16
 70
     1
102
RTVSPropertyOp17
 70
     1
102
RTVSPropertyOp18
 70
     1
102
RTVSPropertyOp19
 70
     1
102
RTVSPropertyOp20
 70
     1
102
RTVSPropertyOp21
 70
     1
102
RTVSPropertyOp22
 70
     1
102
RTVSPropertyOp23
 70
     1
102
RTVSPropertyOp24
 70
     1
102
RTVSPropertyOp25
 70
     1
102
RTVSPropertyOp26
 70
     1
102
RTVSPropertyOp27
 70
     1
102
RTVSPropertyOp28
 70
     1
102
RTVSPropertyOp29
 70
     1
102
RTVSPropertyOp30
 70
     1
102
RTVSPropertyOp31
 70
     1
102
RTVSPropertyOp32
 70
     1
102
RTVSPropertyOp33
 70
     1
102
RTVSPropertyOp34
 70
     1
102
RTVSPropertyOp35
 70
     1
102
RTVSPropertyOp36
 70
     1
102
RTVSPropertyOp37
 70
     1
102
RTVSPropertyOp38
 70
     1
102
RTVSPropertyOp39
 70
     1
102
RTVSPropertyOp40
 70
     1
102
RTVSPropertyOp41
 70
     1
102
RTVSPropertyOp42
 70
     1
102
RTVSPropertyOp43
 70
     1
102
RTVSPropertyOp44
 70
     1
102
RTVSPropertyOp45
 70
     1
102
RTVSPropertyOp46
 70
     1
102
RTVSPropertyOp47
 70
     1
102
RTVSPropertyOp48
 70
     1
102
RTVSPropertyOp49
 70
     1
102
RTVSPropertyOp50
 70
     1
102
RTVSPropertyOp51
 70
     0
102
RTVSPropertyOp52
 70
     0
102
RTVSPropertyOp53
 70
     1
102
RTVSPropertyOp54
 70
     1
102
RTVSPropertyOp55
 70
     1
102
RTVSPropertyOp56
 70
     1
102
RTVSPropertyOp57
 70
     1
102
RTVSPropertyOp58
 70
     1
102
RTVSPropertyOp59
 70
     1
102
RTVSPropertyOp60
 70
     1
102
RTVSPropertyOp61
 70
     1
102
RTVSPropertyOp62
 70
     1
  0
XRECORD
  5
6F90
102
{ACAD_REACTORS
330
6F8F
102
}
330
6F8F
100
AcDbXrecord
280
     1
330
1C3C
  0
ENDSEC
  0
EOF
