  0
SECTION
  2
HEADER
  9
$ACADVER
  1
AC1015
  9
$ACADMAINTVER
 70
    20
  9
$DWGCODEPAGE
  3
ANSI_932
  9
$INSBASE
 10
0.0
 20
0.0
 30
0.0
  9
$EXTMIN
 10
92.64684717383261
 20
43.1571914548499
 30
-0.0000000349181948
  9
$EXTMAX
 10
885.8551142626202
 20
1183.625330604711
 30
0.0000000814935747
  9
$LIMMIN
 10
0.0
 20
0.0
  9
$LIMMAX
 10
420.0
 20
297.0
  9
$ORTHOMODE
 70
     0
  9
$REGENMODE
 70
     1
  9
$FILLMODE
 70
     1
  9
$QTEXTMODE
 70
     0
  9
$MIRRTEXT
 70
     0
  9
$LTSCALE
 40
1.0
  9
$ATTMODE
 70
     1
  9
$TEXTSIZE
 40
2.5
  9
$TRACEWID
 40
1.0
  9
$TEXTSTYLE
  7
STANDARD
  9
$CLAYER
  8
0
  9
$CELTYPE
  6
ByLayer
  9
$CECOLOR
 62
   256
  9
$CELTSCALE
 40
1.0
  9
$DISPSILH
 70
     0
  9
$DIMSCALE
 40
1.0
  9
$DIMASZ
 40
1.5
  9
$DIMEXO
 40
1.5
  9
$DIMDLI
 40
7.0
  9
$DIMRND
 40
0.0
  9
$DIMDLE
 40
0.0
  9
$DIMEXE
 40
1.0
  9
$DIMTP
 40
0.0
  9
$DIMTM
 40
0.0
  9
$DIMTXT
 40
3.5
  9
$DIMCEN
 40
2.5
  9
$DIMTSZ
 40
0.0
  9
$DIMTOL
 70
     0
  9
$DIMLIM
 70
     0
  9
$DIMTIH
 70
     0
  9
$DIMTOH
 70
     0
  9
$DIMSE1
 70
     0
  9
$DIMSE2
 70
     0
  9
$DIMTAD
 70
     1
  9
$DIMZIN
 70
     8
  9
$DIMBLK
  1
Open
  9
$DIMASO
 70
     1
  9
$DIMSHO
 70
     1
  9
$DIMPOST
  1

  9
$DIMAPOST
  1

  9
$DIMALT
 70
     0
  9
$DIMALTD
 70
     3
  9
$DIMALTF
 40
0.03937007874016
  9
$DIMLFAC
 40
1.0
  9
$DIMTOFL
 70
     1
  9
$DIMTVP
 40
0.0
  9
$DIMTIX
 70
     0
  9
$DIMSOXD
 70
     0
  9
$DIMSAH
 70
     0
  9
$DIMBLK1
  1

  9
$DIMBLK2
  1

  9
$DIMSTYLE
  2
承認
  9
$DIMCLRD
 70
     4
  9
$DIMCLRE
 70
     4
  9
$DIMCLRT
 70
   256
  9
$DIMTFAC
 40
1.0
  9
$DIMGAP
 40
1.0
  9
$DIMJUST
 70
     0
  9
$DIMSD1
 70
     0
  9
$DIMSD2
 70
     0
  9
$DIMTOLJ
 70
     0
  9
$DIMTZIN
 70
     8
  9
$DIMALTZ
 70
     0
  9
$DIMALTTZ
 70
     0
  9
$DIMUPT
 70
     0
  9
$DIMDEC
 70
     1
  9
$DIMTDEC
 70
     0
  9
$DIMALTU
 70
     2
  9
$DIMALTTD
 70
     3
  9
$DIMTXSTY
  7
STANDARD
  9
$DIMAUNIT
 70
     0
  9
$DIMADEC
 70
     0
  9
$DIMALTRND
 40
0.0
  9
$DIMAZIN
 70
     0
  9
$DIMDSEP
 70
    46
  9
$DIMATFIT
 70
     3
  9
$DIMFRAC
 70
     0
  9
$DIMLDRBLK
  1
Open
  9
$DIMLUNIT
 70
     2
  9
$DIMLWD
 70
     9
  9
$DIMLWE
 70
     9
  9
$DIMTMOVE
 70
     0
  9
$LUNITS
 70
     2
  9
$LUPREC
 70
     2
  9
$SKETCHINC
 40
1.0
  9
$FILLETRAD
 40
0.0
  9
$AUNITS
 70
     0
  9
$AUPREC
 70
     0
  9
$MENU
  1
.
  9
$ELEVATION
 40
0.0
  9
$PELEVATION
 40
0.0
  9
$THICKNESS
 40
0.0
  9
$LIMCHECK
 70
     0
  9
$CHAMFERA
 40
0.5
  9
$CHAMFERB
 40
0.5
  9
$CHAMFERC
 40
0.0
  9
$CHAMFERD
 40
0.0
  9
$SKPOLY
 70
     0
  9
$TDCREATE
 40
2454698.769533414
  9
$TDUCREATE
 40
2454698.394533414
  9
$TDUPDATE
 40
2456669.448177118
  9
$TDUUPDATE
 40
2456669.073177118
  9
$TDINDWG
 40
1.1260956829
  9
$TDUSRTIMER
 40
1.1260950463
  9
$USRTIMER
 70
     1
  9
$ANGBASE
 50
0.0
  9
$ANGDIR
 70
     0
  9
$PDMODE
 70
    35
  9
$PDSIZE
 40
3.0
  9
$PLINEWID
 40
0.0
  9
$SPLFRAME
 70
     0
  9
$SPLINETYPE
 70
     6
  9
$SPLINESEGS
 70
     8
  9
$HANDSEED
  5
14D5B
  9
$SURFTAB1
 70
     6
  9
$SURFTAB2
 70
     6
  9
$SURFTYPE
 70
     6
  9
$SURFU
 70
     6
  9
$SURFV
 70
     6
  9
$UCSBASE
  2

  9
$UCSNAME
  2

  9
$UCSORG
 10
0.0
 20
0.0
 30
0.0
  9
$UCSXDIR
 10
1.0
 20
0.0
 30
0.0
  9
$UCSYDIR
 10
0.0
 20
1.0
 30
0.0
  9
$UCSORTHOREF
  2

  9
$UCSORTHOVIEW
 70
     0
  9
$UCSORGTOP
 10
0.0
 20
0.0
 30
0.0
  9
$UCSORGBOTTOM
 10
0.0
 20
0.0
 30
0.0
  9
$UCSORGLEFT
 10
0.0
 20
0.0
 30
0.0
  9
$UCSORGRIGHT
 10
0.0
 20
0.0
 30
0.0
  9
$UCSORGFRONT
 10
0.0
 20
0.0
 30
0.0
  9
$UCSORGBACK
 10
0.0
 20
0.0
 30
0.0
  9
$PUCSBASE
  2

  9
$PUCSNAME
  2

  9
$PUCSORG
 10
0.0
 20
0.0
 30
0.0
  9
$PUCSXDIR
 10
1.0
 20
0.0
 30
0.0
  9
$PUCSYDIR
 10
0.0
 20
1.0
 30
0.0
  9
$PUCSORTHOREF
  2

  9
$PUCSORTHOVIEW
 70
     0
  9
$PUCSORGTOP
 10
0.0
 20
0.0
 30
0.0
  9
$PUCSORGBOTTOM
 10
0.0
 20
0.0
 30
0.0
  9
$PUCSORGLEFT
 10
0.0
 20
0.0
 30
0.0
  9
$PUCSORGRIGHT
 10
0.0
 20
0.0
 30
0.0
  9
$PUCSORGFRONT
 10
0.0
 20
0.0
 30
0.0
  9
$PUCSORGBACK
 10
0.0
 20
0.0
 30
0.0
  9
$USERI1
 70
     0
  9
$USERI2
 70
     0
  9
$USERI3
 70
     0
  9
$USERI4
 70
     0
  9
$USERI5
 70
     0
  9
$USERR1
 40
0.0
  9
$USERR2
 40
0.0
  9
$USERR3
 40
0.0
  9
$USERR4
 40
0.0
  9
$USERR5
 40
0.0
  9
$WORLDVIEW
 70
     1
  9
$SHADEDGE
 70
     3
  9
$SHADEDIF
 70
    70
  9
$TILEMODE
 70
     1
  9
$MAXACTVP
 70
    64
  9
$PINSBASE
 10
0.0
 20
0.0
 30
0.0
  9
$PLIMCHECK
 70
     0
  9
$PEXTMIN
 10
0.0
 20
0.0
 30
0.0
  9
$PEXTMAX
 10
0.0
 20
0.0
 30
0.0
  9
$PLIMMIN
 10
0.0
 20
0.0
  9
$PLIMMAX
 10
12.0
 20
9.0
  9
$UNITMODE
 70
     0
  9
$VISRETAIN
 70
     1
  9
$PLINEGEN
 70
     0
  9
$PSLTSCALE
 70
     1
  9
$TREEDEPTH
 70
  3020
  9
$CMLSTYLE
  2
Standard
  9
$CMLJUST
 70
     0
  9
$CMLSCALE
 40
20.0
  9
$PROXYGRAPHICS
 70
     1
  9
$MEASUREMENT
 70
     1
  9
$CELWEIGHT
370
    -1
  9
$ENDCAPS
280
     0
  9
$JOINSTYLE
280
     0
  9
$LWDISPLAY
290
     0
  9
$INSUNITS
 70
     4
  9
$HYPERLINKBASE
  1

  9
$STYLESHEET
  1

  9
$XEDIT
290
     1
  9
$CEPSNTYPE
380
     0
  9
$PSTYLEMODE
290
     1
  9
$FINGERPRINTGUID
  2
{7F723084-CA2C-4EA9-B541-4E9FC180566A}
  9
$VERSIONGUID
  2
{47983DF3-FFE8-465A-8DB8-9E05FEAE8A4A}
  9
$EXTNAMES
290
     1
  9
$PSVPSCALE
 40
0.0
  9
$OLESTARTUP
290
     0
  0
ENDSEC
  0
SECTION
  2
CLASSES
  0
CLASS
  1
ACDBDICTIONARYWDFLT
  2
AcDbDictionaryWithDefault
  3
ObjectDBX Classes
 90
        0
280
     0
281
     0
  0
CLASS
  1
MATERIAL
  2
AcDbMaterial
  3
ObjectDBX Classes
 90
     1153
280
     0
281
     0
  0
CLASS
  1
VISUALSTYLE
  2
AcDbVisualStyle
  3
ObjectDBX Classes
 90
     4095
280
     0
281
     0
  0
CLASS
  1
TABLESTYLE
  2
AcDbTableStyle
  3
ObjectDBX Classes
 90
     4095
280
     0
281
     0
  0
CLASS
  1
AMGSETTINGSOBJ
  2
AmgSettingsObj
  3
"AcadM|Product Description: AutoCAD Mechanical|Company: Autodesk, Inc."
 90
     1024
280
     0
281
     0
  0
CLASS
  1
ACME_DOCUMENT
  2
AcMeDbDoc
  3
AcMeServices
 90
     1024
280
     0
281
     0
  0
CLASS
  1
ACMESCOPE
  2
AcMeScope
  3
AcMeServices
 90
     1024
280
     0
281
     0
  0
CLASS
  1
ACMECOMMANDHISTORY
  2
AcMeCommandHistory
  3
AcMeServices
 90
     1024
280
     0
281
     0
  0
CLASS
  1
ACIMSYSVARMAN
  2
AcImSysVarManager
  3
AcMeServices
 90
     1024
280
     0
281
     0
  0
CLASS
  1
ACIMINTSYSVAR
  2
AcImIntSysVar
  3
AcMeServices
 90
     1024
280
     0
281
     0
  0
CLASS
  1
ACMEDRAWINGMAN
  2
AcMeDrawingMan
  3
AcMeServices
 90
    33792
280
     0
281
     0
  0
CLASS
  1
ACMEVIEW
  2
AcMeView
  3
AcMeServices
 90
    33792
280
     0
281
     0
  0
CLASS
  1
ACDBENTITYCACHE
  2
AcMeEntityCache
  3
AcMeServices
 90
     1024
280
     0
281
     0
  0
CLASS
  1
GSMANAGER
  2
AcMeGSManager
  3
AcMeServices
 90
    33792
280
     0
281
     0
  0
CLASS
  1
AMDTINTERNALREACTOR
  2
AmdtInternalReactor
  3
AcMeServices
 90
    33792
280
     0
281
     0
  0
CLASS
  1
ACMESTATEMGR
  2
AcMeStateMgr
  3
AcMeServices
 90
     1024
280
     0
281
     0
  0
CLASS
  1
ACGREFMASTER
  2
AcGrefMaster
  3
AcAttribServices
 90
     1024
280
     0
281
     0
  0
CLASS
  1
AM_DRAWING_MGR
  2
AcDmDwgMgr
  3
AcMechDwgViewMgmt
 90
    33792
280
     0
281
     0
  0
CLASS
  1
AM_DWG_DOCUMENT
  2
AcDmDwgDocument
  3
AcMechDwgViewMgmt
 90
    33792
280
     0
281
     0
  0
CLASS
  1
AM_DWG_SHEET
  2
AcDmSheet
  3
AcMechDwgViewMgmt
 90
    33792
280
     0
281
     0
  0
CLASS
  1
AM_VIEWDIMPARMAP
  2
AcDmViewDimParMap
  3
AcMechDwgViewMgmt
 90
    33792
280
     0
281
     0
  0
CLASS
  1
ACIMREALSYSVAR
  2
AcImRealSysVar
  3
AcMeServices
 90
    33792
280
     0
281
     0
  0
CLASS
  1
AM_DWGMGR_NAME
  2
AcDmDwgMgrName
  3
AcMechDwgViewMgmt
 90
    33792
280
     0
281
     0
  0
CLASS
  1
ACME_DATABASE
  2
AcMeDbDatabase
  3
AcMeServices
 90
     1024
280
     0
281
     0
  0
CLASS
  1
ACRFINSADJUSTERMGR
  2
AcRfInsAdjusterMgr
  3
AcMeServices
 90
     1024
280
     0
281
     0
  0
CLASS
  1
ACGREFACADMASTER
  2
AcGrefacadMaster
  3
AcGrefServices
 90
     1024
280
     0
281
     0
  0
CLASS
  1
AMDTMENUSTATEMGR
  2
AmdtMenuStateMgr
  3
McadcomServices
 90
     1024
280
     0
281
     0
  0
CLASS
  1
AMDTMCOMMENUSTATE
  2
AmdtMcomMenuState
  3
McadcomServices
 90
     1024
280
     0
281
     0
  0
CLASS
  1
AMIMASTER
  2
AmiMaster
  3
AmiServices
 90
     1024
280
     0
281
     0
  0
CLASS
  1
MAPIAMMOUDLE
  2
MApiAmModule
  3
MApiAmServices
 90
     1024
280
     0
281
     0
  0
CLASS
  1
ACIMSTRSYSVAR
  2
AcImStrSysVar
  3
AcMeServices
 90
     1024
280
     0
281
     0
  0
CLASS
  1
AMDTADMENUSTATE
  2
AmdtAdMenuState
  3
DesignerServices
 90
    33792
280
     0
281
     0
  0
CLASS
  1
ADAPPL
  2
AcAdAppl
  3
DesignerAssemblies
 90
    33792
280
     0
281
     0
  0
CLASS
  1
DEPMGR
  2
AcAdDepMgr
  3
DesignerAssemblies
 90
    33792
280
     0
281
     0
  0
CLASS
  1
PARAMMGR
  2
AcAdParamMgr
  3
DesignerAssemblies
 90
    33792
280
     0
281
     0
  0
CLASS
  1
PARAMSCOPE
  2
AcAdParamScope
  3
DesignerAssemblies
 90
    33792
280
     0
281
     0
  0
CLASS
  1
NAMEDAPPL
  2
AcAdNamedAppl
  3
DesignerAssemblies
 90
    33792
280
     0
281
     0
  0
CLASS
  1
AMDTDMMENUSTATE
  2
AmdtDmMenuState
  3
AcMechDwgViewMgmt
 90
    33792
280
     0
281
     0
  0
CLASS
  1
AMDTAMMENUSTATE
  2
AmdtAmMenuState
  3
DesignerAssemblies
 90
     1024
280
     0
281
     0
  0
CLASS
  1
ACAMPROJECT
  2
AcAmProject
  3
DesignerAssemblies
 90
     1024
280
     0
281
     0
  0
CLASS
  1
ACAMGRCOMPDEF
  2
AcAmGrCompDef
  3
DesignerAssemblies
 90
     1024
280
     0
281
     0
  0
CLASS
  1
ACCMCONTEXT
  2
AcCmContext
  3
DesignerAssemblies
 90
    33792
280
     0
281
     0
  0
CLASS
  1
ACAMCOMPDEF
  2
AcAmCompDef
  3
DesignerAssemblies
 90
     1024
280
     0
281
     0
  0
CLASS
  1
ACAMCOMPDEFMGR
  2
AcAmCompDefMgr
  3
DesignerAssemblies
 90
     1024
280
     0
281
     0
  0
CLASS
  1
AMCONTEXTMGR
  2
AcAmContextMgr
  3
DesignerAssemblies
 90
     1024
280
     0
281
     0
  0
CLASS
  1
ACAMCONTEXTMODELER
  2
AcAmContextModeler
  3
DesignerAssemblies
 90
     1024
280
     0
281
     0
  0
CLASS
  1
ACMDATADICTIONARY
  2
AcmDataDictionary
  3
"AcmSymBB|Product Description: AutoCAD Mechanical|Company: Autodesk, Inc."
 90
     1024
280
     0
281
     0
  0
CLASS
  1
ACMSTANDARDISO
  2
AcmStandardISO
  3
"Amdt_StdImp|Product Description: AutoCAD Mechanical|Company: Autodesk, Inc."
 90
     1024
280
     0
281
     0
  0
CLASS
  1
AMGOBJPROPCFG
  2
AmgObjPropCfg
  3
"AmgLay|Product Description: AutoCAD Mechanical|Company: Autodesk, Inc."
 90
     1024
280
     0
281
     0
  0
CLASS
  1
AMDTEDGESTANDARDISO13715
  2
AmdtEdgeStdISO13715
  3
"Amdt_StdImp|Product Description: AutoCAD Mechanical|Company: Autodesk, Inc."
 90
     1024
280
     0
281
     0
  0
CLASS
  1
ACMSURFSTANDARDISO
  2
AcmSurfTextStdISO
  3
"Amdt_StdImp|Product Description: AutoCAD Mechanical|Company: Autodesk, Inc."
 90
    33792
280
     0
281
     0
  0
CLASS
  1
ACMFCFSTANDARDISO
  2
AcmFCFStdISO
  3
"Amdt_StdImp|Product Description: AutoCAD Mechanical|Company: Autodesk, Inc."
 90
    33792
280
     0
281
     0
  0
CLASS
  1
ACMWELDSTANDARDISO
  2
AcmWeldingStdISO
  3
"Amdt_StdImp|Product Description: AutoCAD Mechanical|Company: Autodesk, Inc."
 90
     1024
280
     0
281
     0
  0
CLASS
  1
ACMIDSTANDARDISO
  2
AcmIdStdISO
  3
"Amdt_StdImp|Product Description: AutoCAD Mechanical|Company: Autodesk, Inc."
 90
    33792
280
     0
281
     0
  0
CLASS
  1
ACMDATUMSTANDARDISO
  2
AcmDatumStdISO
  3
"Amdt_StdImp|Product Description: AutoCAD Mechanical|Company: Autodesk, Inc."
 90
     1024
280
     0
281
     0
  0
CLASS
  1
ACMBOMSTANDARDISO
  2
AcmBOMStdISO
  3
"Amdt_StdImp|Product Description: AutoCAD Mechanical|Company: Autodesk, Inc."
 90
     1024
280
     0
281
     0
  0
CLASS
  1
ACMDETAILSTANDARDISO
  2
AmdtDetailSymStdISO
  3
"Amdt_StdImp|Product Description: AutoCAD Mechanical|Company: Autodesk, Inc."
 90
     1024
280
     0
281
     0
  0
CLASS
  1
ACMSECTIONSTANDARDISO
  2
AmdtSectionSymStdISO
  3
"Amdt_StdImp|Product Description: AutoCAD Mechanical|Company: Autodesk, Inc."
 90
    33792
280
     0
281
     0
  0
CLASS
  1
ACMCENTERLINESTANDARDISO
  2
AmdtCenterLineStdISO
  3
"Amdt_StdImp|Product Description: AutoCAD Mechanical|Company: Autodesk, Inc."
 90
     1024
280
     0
281
     0
  0
CLASS
  1
ACMTHREADLINESTANDARDISO
  2
AmdtThreadLineStdISO
  3
"Amdt_StdImp|Product Description: AutoCAD Mechanical|Company: Autodesk, Inc."
 90
     1024
280
     0
281
     0
  0
CLASS
  1
ACMNOTESTANDARDISO
  2
AmdtNoteStdISO
  3
"Amdt_StdImp|Product Description: AutoCAD Mechanical|Company: Autodesk, Inc."
 90
     1024
280
     0
281
     0
  0
CLASS
  1
ACMTAPERSTANDARDISO
  2
AcmTaperStdISO
  3
"Amdt_StdImp|Product Description: AutoCAD Mechanical|Company: Autodesk, Inc."
 90
     1024
280
     0
281
     0
  0
CLASS
  1
AMDTNOTETEMPLATEDB
  2
AmdtNoteTemplateDB
  3
AcmSymBB|Product Description: AutoCAD Mechanical|Company: Autodesk, Inc.
 90
     1024
280
     0
281
     0
  0
CLASS
  1
ACAMGLAYSTD
  2
AcAmgLayStd
  3
"AmgLay|Product Description: AutoCAD Mechanical|Company: Autodesk, Inc."
 90
     1024
280
     0
281
     0
  0
CLASS
  1
ACAMGDIMSTD
  2
AcAmgDimStd
  3
"AmgDim|Product Description: AutoCAD Mechanical|Company: Autodesk, Inc."
 90
     1024
280
     0
281
     0
  0
CLASS
  1
ACAMGHOLECHARTSTDISO
  2
AcAmgHoleChartStdISO
  3
AmgDim|Product Description: AutoCAD Mechanical|Company: Autodesk, Inc.
 90
     1024
280
     0
281
     0
  0
CLASS
  1
ACAMGTITLESTD
  2
AcAmgTitleStd
  3
"AmgTitle|Product Description: AutoCAD Mechanical|Company: Autodesk, Inc."
 90
     1024
280
     0
281
     0
  0
CLASS
  1
CATALOGSTATE
  2
AcAmCatalogState
  3
DesignerAssemblies
 90
    33792
280
     0
281
     0
  0
CLASS
  1
ACAMGRCOMPDEFSET
  2
AcAmGrCompDefSet
  3
DesignerAssemblies
 90
     1024
280
     0
281
     0
  0
CLASS
  1
AMDTBROWSERDBTAB
  2
AmdtBrowserDbTab
  3
McadcomServices
 90
     1024
280
     0
281
     0
  0
CLASS
  1
CBROWSERAPPOBJECT
  2
CBrowserAppObject
  3
McadcomServices
 90
     1024
280
     0
281
     0
  0
CLASS
  1
DM_PLACEHOLDER
  2
AcDmSelsetPlaceholder
  3
McadcomServices
 90
     1024
280
     0
281
     0
  0
CLASS
  1
ACAMGFILTERDAT
  2
AcAmgFilterDat
  3
"AcadM|Product Description: AutoCAD Mechanical|Company: Autodesk, Inc."
 90
    33792
280
     0
281
     0
  0
CLASS
  1
CAMSSTRUCTBTNSTATE
  2
StructBtnState
  3
DesignerAssemblies
 90
    33792
280
     0
281
     0
  0
CLASS
  1
DICTIONARYVAR
  2
AcDbDictionaryVar
  3
ObjectDBX Classes
 90
        0
280
     0
281
     0
  0
CLASS
  1
SORTENTSTABLE
  2
AcDbSortentsTable
  3
ObjectDBX Classes
 90
        0
280
     0
281
     0
  0
CLASS
  1
DIMASSOC
  2
AcDbDimAssoc
  3
"AcDbDimAssoc|Product Desc:     AcDim ARX App For Dimension|Company:          Autodesk, Inc.|WEB Address:      www.autodesk.com"
 90
    32768
280
     0
281
     0
  0
CLASS
  1
SCALE
  2
AcDbScale
  3
ObjectDBX Classes
 90
     1153
280
     0
281
     0
  0
CLASS
  1
MLEADERSTYLE
  2
AcDbMLeaderStyle
  3
ACDB_MLEADERSTYLE_CLASS
 90
     4095
280
     0
281
     0
  0
CLASS
  1
ACMANOOTATIONVIEWSTANDARDISO
  2
AmdtAnViewStdISO
  3
"Amdt_StdImp|Product Description: AutoCAD Mechanical|Company: Autodesk, Inc."
 90
     1024
280
     0
281
     0
  0
CLASS
  1
CELLSTYLEMAP
  2
AcDbCellStyleMap
  3
ObjectDBX Classes
 90
     1152
280
     0
281
     0
  0
CLASS
  1
STDPART2D
  2
AmgStdPart
  3
AmgStdPart|Product Description: AutoCAD Mechanical|Company: Autodesk, Inc.
 90
    33792
280
     0
281
     1
  0
CLASS
  1
SUN
  2
AcDbSun
  3
SCENEOE
 90
    33921
280
     0
281
     0
  0
CLASS
  1
MULTILEADER
  2
AcDbMLeader
  3
ACDB_MLEADER_CLASS
 90
    33793
280
     0
281
     1
  0
CLASS
  1
BREAKDATA
  2
AcDbBreakData
  3
ObjectDBX Classes
 90
    33792
280
     0
281
     0
  0
CLASS
  1
AEC_REFEDIT_STATUS_TRACKER
  2
AecDbRefEditStatusTracker
  3
AecArchBase70|Product Desc: Autodesk Architectural Desktop 2007 |Company: Autodesk,Inc. |WEB Address: www.autodesk.com
 90
    32897
280
     0
281
     0
  0
CLASS
  1
NPOCOLLECTION
  2
AcDbImpNonPersistentObjectsCollection
  3
ObjectDBX Classes
 90
     1153
280
     0
281
     0
  0
CLASS
  1
PLOTSETTINGS
  2
AcDbPlotSettings
  3
ObjectDBX Classes
 90
        0
280
     0
281
     0
  0
CLASS
  1
ACDBSECTIONVIEWSTYLE
  2
AcDbSectionViewStyle
  3
ObjectDBX Classes
 90
     1025
280
     0
281
     0
  0
CLASS
  1
ACDBDETAILVIEWSTYLE
  2
AcDbDetailViewStyle
  3
ObjectDBX Classes
 90
     1025
280
     0
281
     0
  0
CLASS
  1
EXACXREFPANELOBJECT
  2
ExAcXREFPanelObject
  3
EXAC_ESW
 90
     1025
280
     0
281
     0
  0
CLASS
  1
ACMSTANDARDBSI
  2
AcmStandardBSI
  3
"Amdt_StdImp|Product Description: AutoCAD Mechanical|Company: Autodesk, Inc."
 90
    33792
280
     0
281
     0
  0
CLASS
  1
ACMSURFSTANDARDBSI
  2
AcmSurfTextStdBSI
  3
"Amdt_StdImp|Product Description: AutoCAD Mechanical|Company: Autodesk, Inc."
 90
    33792
280
     0
281
     0
  0
CLASS
  1
ACMFCFSTANDARDBSI
  2
AcmFCFStdBSI
  3
"Amdt_StdImp|Product Description: AutoCAD Mechanical|Company: Autodesk, Inc."
 90
    33792
280
     0
281
     0
  0
CLASS
  1
ACMWELDSTANDARDBSI
  2
AcmWeldingStdBSI
  3
"Amdt_StdImp|Product Description: AutoCAD Mechanical|Company: Autodesk, Inc."
 90
    33792
280
     0
281
     0
  0
CLASS
  1
ACMIDSTANDARDBSI
  2
AcmIdStdBSI
  3
"Amdt_StdImp|Product Description: AutoCAD Mechanical|Company: Autodesk, Inc."
 90
    33792
280
     0
281
     0
  0
CLASS
  1
ACMDATUMSTANDARDBSI
  2
AcmDatumStdBSI
  3
"Amdt_StdImp|Product Description: AutoCAD Mechanical|Company: Autodesk, Inc."
 90
    33792
280
     0
281
     0
  0
CLASS
  1
ACMBOMSTANDARDBSI
  2
AcmBOMStdBSI
  3
"Amdt_StdImp|Product Description: AutoCAD Mechanical|Company: Autodesk, Inc."
 90
    33792
280
     0
281
     0
  0
CLASS
  1
ACMDETAILSTANDARDBSI
  2
AmdtDetailSymStdBSI
  3
"Amdt_StdImp|Product Description: AutoCAD Mechanical|Company: Autodesk, Inc."
 90
    33792
280
     0
281
     0
  0
CLASS
  1
ACMSECTIONSTANDARDBSI
  2
AmdtSectionSymStdBSI
  3
"Amdt_StdImp|Product Description: AutoCAD Mechanical|Company: Autodesk, Inc."
 90
    33792
280
     0
281
     0
  0
CLASS
  1
ACMCENTERLINESTANDARDBSI
  2
AmdtCenterLineStdBSI
  3
"Amdt_StdImp|Product Description: AutoCAD Mechanical|Company: Autodesk, Inc."
 90
    33792
280
     0
281
     0
  0
CLASS
  1
ACMTHREADLINESTANDARDBSI
  2
AmdtThreadLineStdBSI
  3
"Amdt_StdImp|Product Description: AutoCAD Mechanical|Company: Autodesk, Inc."
 90
    33792
280
     0
281
     0
  0
CLASS
  1
ACMNOTESTANDARDBSI
  2
AmdtNoteStdBSI
  3
"Amdt_StdImp|Product Description: AutoCAD Mechanical|Company: Autodesk, Inc."
 90
    33792
280
     0
281
     0
  0
CLASS
  1
ACAMGHOLECHARTSTDBSI
  2
AcAmgHoleChartStdBSI
  3
AmgDim|Product Description: AutoCAD Mechanical|Company: Autodesk, Inc.
 90
    33792
280
     0
281
     0
  0
CLASS
  1
ACMTAPERSTANDARDBSI
  2
AcmTaperStdBSI
  3
"Amdt_StdImp|Product Description: AutoCAD Mechanical|Company: Autodesk, Inc."
 90
    33792
280
     0
281
     0
  0
CLASS
  1
ACMANOOTATIONVIEWSTANDARDBSI
  2
AmdtAnViewStdBSI
  3
"Amdt_StdImp|Product Description: AutoCAD Mechanical|Company: Autodesk, Inc."
 90
    33792
280
     0
281
     0
  0
CLASS
  1
ACMDATAENTRYBLOCK
  2
AcmDataEntryBlock
  3
AcmSymBB|Product Description: AutoCAD Mechanical|Company: Autodesk, Inc.
 90
    33792
280
     0
281
     0
  0
CLASS
  1
ACMSECTIONSTANDARDCUSTOM
  2
AmdtSectionSymStdCustom
  3
"Amdt_StdImp|Product Description: AutoCAD Mechanical|Company: Autodesk, Inc."
 90
     1024
280
     0
281
     0
  0
CLASS
  1
ACMDETAILTANDARDCUSTOM
  2
AmdtDetailSymStdCustom
  3
"Amdt_StdImp|Product Description: AutoCAD Mechanical|Company: Autodesk, Inc."
 90
     1024
280
     0
281
     0
  0
CLASS
  1
FIELD
  2
AcDbField
  3
ObjectDBX Classes
 90
     1152
280
     0
281
     0
  0
CLASS
  1
FIELDLIST
  2
AcDbFieldList
  3
ObjectDBX Classes
 90
     1152
280
     0
281
     0
  0
CLASS
  1
ACDBPLACEHOLDER
  2
AcDbPlaceHolder
  3
ObjectDBX Classes
 90
        0
280
     0
281
     0
  0
CLASS
  1
LAYOUT
  2
AcDbLayout
  3
ObjectDBX Classes
 90
        0
280
     0
281
     0
  0
CLASS
  1
ACMSURFSTANDARDISO2002
  2
AcmSurfTextStdISO2002
  3
"Amdt_StdImp|Product Description: AutoCAD Mechanical|Company: Autodesk, Inc."
 90
     1024
280
     0
281
     0
  0
CLASS
  1
ACMFCFSTANDARDISO2004
  2
AcmFCFStdISO2004
  3
"Amdt_StdImp|Product Description: AutoCAD Mechanical|Company: Autodesk, Inc."
 90
     1024
280
     0
281
     0
  0
CLASS
  1
ACMIDSTANDARDISO2004
  2
AcmIdStdISO2004
  3
"Amdt_StdImp|Product Description: AutoCAD Mechanical|Company: Autodesk, Inc."
 90
     1024
280
     0
281
     0
  0
CLASS
  1
ACMSECTIONSTANDARDISO2001
  2
AmdtSectionSymStdISO2001
  3
"Amdt_StdImp|Product Description: AutoCAD Mechanical|Company: Autodesk, Inc."
 90
     1024
280
     0
281
     0
  0
ENDSEC
  0
SECTION
  2
TABLES
  0
TABLE
  2
VPORT
  5
8
330
0
100
AcDbSymbolTable
 70
     1
  0
VPORT
  5
28
330
8
100
AcDbSymbolTableRecord
100
AcDbViewportTableRecord
  2
*Active
 70
     0
 10
0.0
 20
0.0
 11
1.0
 21
1.0
 12
489.2509807182263
 22
613.3912610297807
 13
0.0
 23
0.0
 14
2.5
 24
2.5
 15
10.0
 25
10.0
 16
0.0
 26
0.0
 36
1.0
 17
0.0
 27
0.0
 37
0.0
 40
1149.075445860426
 41
2.026448362720402
 42
50.0
 43
0.0
 44
0.0
 50
0.0
 51
0.0
 71
     0
 72
  1000
 73
     1
 74
     3
 75
     0
 76
     0
 77
     0
 78
     0
281
     0
 65
     0
110
0.0
120
0.0
130
0.0
111
1.0
121
0.0
131
0.0
112
0.0
122
1.0
132
0.0
 79
     0
146
0.0
1001
ACAD_NAV_VCDISPLAY
1070
     3
  0
ENDTAB
  0
TABLE
  2
LTYPE
  5
5
330
0
100
AcDbSymbolTable
 70
    14
  0
LTYPE
  5
29
330
5
100
AcDbSymbolTableRecord
100
AcDbLinetypeTableRecord
  2
ByBlock
 70
     0
  3

 72
    65
 73
     0
 40
0.0
  0
LTYPE
  5
2A
330
5
100
AcDbSymbolTableRecord
100
AcDbLinetypeTableRecord
  2
ByLayer
 70
     0
  3

 72
    65
 73
     0
 40
0.0
  0
LTYPE
  5
2B
330
5
100
AcDbSymbolTableRecord
100
AcDbLinetypeTableRecord
  2
Continuous
 70
     0
  3
Solid line
 72
    65
 73
     0
 40
0.0
  0
LTYPE
  5
76
330
5
100
AcDbSymbolTableRecord
100
AcDbLinetypeTableRecord
  2
HIDDEN
 70
     0
  3
Hidden __ __ __ __ __ __ __ __ __ __ __ __ __ _
 72
    65
 73
     2
 40
9.524999999999996
 49
6.349999999999997
 74
     0
 49
-3.174999999999998
 74
     0
  0
LTYPE
  5
78
330
5
100
AcDbSymbolTableRecord
100
AcDbLinetypeTableRecord
  2
CENTER
 70
     0
  3
Center ____ _ ____ _ ____ _ ____ _ ____ _ ____
 72
    65
 73
     4
 40
50.8
 49
31.75
 74
     0
 49
-6.349999999999997
 74
     0
 49
6.349999999999997
 74
     0
 49
-6.349999999999997
 74
     0
  0
LTYPE
  5
A4
330
5
100
AcDbSymbolTableRecord
100
AcDbLinetypeTableRecord
  2
AM_ISO02W050
 70
     0
  3
__ __ __ __ __ __ __ __ __ __ __ __ __ __ __
 72
    65
 73
     2
 40
7.5
 49
6.0
 74
     0
 49
-1.5
 74
     0
  0
LTYPE
  5
A5
330
5
100
AcDbSymbolTableRecord
100
AcDbLinetypeTableRecord
  2
AM_ISO08W050
 70
     0
  3
____ . ____ . ____ . ____ . ____ . ____ . ____
 72
    65
 73
     4
 40
18.0
 49
12.0
 74
     0
 49
-1.5
 74
     0
 49
3.0
 74
     0
 49
-1.5
 74
     0
  0
LTYPE
  5
A6
330
5
100
AcDbSymbolTableRecord
100
AcDbLinetypeTableRecord
  2
AM_ISO09W050
 70
     0
  3
_____ . . _____ . . _____ . . ____ .. ____
 72
    65
 73
     6
 40
22.5
 49
12.0
 74
     0
 49
-1.5
 74
     0
 49
3.0
 74
     0
 49
-1.5
 74
     0
 49
3.0
 74
     0
 49
-1.5
 74
     0
  0
LTYPE
  5
A7
330
5
100
AcDbSymbolTableRecord
100
AcDbLinetypeTableRecord
  2
Amconstr
 70
     0
  3
_______________________
 72
    65
 73
     2
 40
9999.0
 49
9999.0
 74
     0
 49
0.0
 74
     0
  0
LTYPE
  5
A8
330
5
100
AcDbSymbolTableRecord
100
AcDbLinetypeTableRecord
  2
AM_ISO08W050x2
 70
     0
  3
__ . __ . __ . __ . __ . __
 72
    65
 73
     4
 40
9.0
 49
6.0
 74
     0
 49
-0.75
 74
     0
 49
1.5
 74
     0
 49
-0.75
 74
     0
  0
LTYPE
  5
A9
330
5
100
AcDbSymbolTableRecord
100
AcDbLinetypeTableRecord
  2
AM_ISO02W050x2
 70
     0
  3
 _ _ _ _ _ _ _ _ _ _ _ _
 72
    65
 73
     2
 40
3.75
 49
3.0
 74
     0
 49
-0.75
 74
     0
  0
LTYPE
  5
AC
330
5
100
AcDbSymbolTableRecord
100
AcDbLinetypeTableRecord
  2
Amzigzag
 70
     0
  3
/\/-/\/-/\/-/\/-/\/-/\/
 72
    65
 73
     2
 40
11.0001
 49
0.0001
 74
     4
 75
   136
340
AB
 46
0.04
 50
0.0
 44
0.0
 45
0.0
 49
-11.0
 74
     0
  0
LTYPE
  5
BC
330
5
100
AcDbSymbolTableRecord
100
AcDbLinetypeTableRecord
  2
ACISOWELD
 70
     0
  3
_ _ _ _ _
 72
    65
 73
     2
 40
2.0
 49
2.0
 74
     0
 49
-1.0
 74
     0
  0
LTYPE
  5
BD
330
5
100
AcDbSymbolTableRecord
100
AcDbLinetypeTableRecord
  2
ACISOTGB
 70
     0
  3
__ . . __ . .
 72
    65
 73
     6
 40
9.0
 49
4.0
 74
     0
 49
-1.0
 74
     0
 49
1.0
 74
     0
 49
-1.0
 74
     0
 49
1.0
 74
     0
 49
-1.0
 74
     0
  0
LTYPE
  5
BE
330
5
100
AcDbSymbolTableRecord
100
AcDbLinetypeTableRecord
  2
ACISOTGL
 70
     0
  3
_ _ _ _ _
 72
    65
 73
     2
 40
3.0
 49
2.0
 74
     0
 49
-1.0
 74
     0
  0
ENDTAB
  0
TABLE
  2
LAYER
  5
2
102
{ACAD_XDICTIONARY
360
104
102
}
330
0
100
AcDbSymbolTable
 70
     9
  0
LAYER
  5
25
102
{ACAD_XDICTIONARY
360
2025
102
}
330
2
100
AcDbSymbolTableRecord
100
AcDbLayerTableRecord
  2
0
 70
     0
 62
     7
  6
Continuous
370
    18
390
F
  0
LAYER
  5
ED
330
2
100
AcDbSymbolTableRecord
100
AcDbLayerTableRecord
  2
Defpoints
 70
     0
 62
     7
  6
Continuous
290
     0
370
    15
390
F
  0
LAYER
  5
52A2
102
{ACAD_XDICTIONARY
360
52A3
102
}
330
2
100
AcDbSymbolTableRecord
100
AcDbLayerTableRecord
  2
AM_5
 70
     0
 62
    51
  6
Continuous
370
    18
390
F
  0
LAYER
  5
52A8
102
{ACAD_XDICTIONARY
360
52A9
102
}
330
2
100
AcDbSymbolTableRecord
100
AcDbLayerTableRecord
  2
図面枠
 70
     0
 62
   111
  6
Continuous
370
    15
390
F
  0
LAYER
  5
52AC
102
{ACAD_XDICTIONARY
360
52AD
102
}
330
2
100
AcDbSymbolTableRecord
100
AcDbLayerTableRecord
  2
弱線
 70
     0
 62
   133
  6
Continuous
370
    13
390
F
  0
LAYER
  5
5B8A
102
{ACAD_XDICTIONARY
360
60EB
102
}
330
2
100
AcDbSymbolTableRecord
100
AcDbLayerTableRecord
  2
仮想線
 70
     0
 62
    44
  6
AM_ISO09W050
370
    13
390
F
  0
LAYER
  5
9836
330
2
100
AcDbSymbolTableRecord
100
AcDbLayerTableRecord
  2
AM_3
 70
     0
 62
   221
  6
AM_ISO02W050
370
     5
390
F
1001
AcAecLayerStandard
1000

1000

  0
LAYER
  5
98D7
102
{ACAD_XDICTIONARY
360
98D8
102
}
330
2
100
AcDbSymbolTableRecord
100
AcDbLayerTableRecord
  2
文字
 70
     0
 62
    31
  6
Continuous
370
    18
390
F
1001
AcAecLayerStandard
1000

1000

  0
LAYER
  5
1019E
102
{ACAD_XDICTIONARY
360
1019F
102
}
330
2
100
AcDbSymbolTableRecord
100
AcDbLayerTableRecord
  2
中心線
 70
     0
 62
   150
  6
CENTER
370
    13
390
F
  0
ENDTAB
  0
TABLE
  2
STYLE
  5
3
330
0
100
AcDbSymbolTable
 70
     7
  0
STYLE
  5
26
330
3
100
AcDbSymbolTableRecord
100
AcDbTextStyleTableRecord
  2
STANDARD
 70
     0
 40
0.0
 41
1.0
 50
0.0
 71
     0
 42
2.5
  3
simplex.shx
  4
bigfont.shx
  0
STYLE
  5
AB
330
3
100
AcDbSymbolTableRecord
100
AcDbTextStyleTableRecord
  2

 70
     1
 40
0.0
 41
1.0
 50
0.0
 71
     0
 42
2.5
  3
genltshp.shx
  4

  0
STYLE
  5
BB
330
3
100
AcDbSymbolTableRecord
100
AcDbTextStyleTableRecord
  2
ACISOGDT
 70
     0
 40
0.0
 41
1.0
 50
0.0
 71
     0
 42
2.5
  3
amgdt.shx
  4

  0
STYLE
  5
158
330
3
100
AcDbSymbolTableRecord
100
AcDbTextStyleTableRecord
  2
0.9横
 70
     0
 40
0.0
 41
0.9
 50
0.0
 71
     0
 42
2.5
  3
simplex.shx
  4
bigfont.shx
  0
STYLE
  5
5F52
330
3
100
AcDbSymbolTableRecord
100
AcDbTextStyleTableRecord
  2
0.8横
 70
     0
 40
0.0
 41
0.8
 50
0.0
 71
     0
 42
2.5
  3
simplex.shx
  4
bigfont.shx
  0
STYLE
  5
B27E
330
3
100
AcDbSymbolTableRecord
100
AcDbTextStyleTableRecord
  2
承認
 70
     0
 40
0.0
 41
0.9
 50
0.0
 71
     0
 42
2.5
  3
simplex.shx
  4
bigfont.shx
  0
ENDTAB
  0
TABLE
  2
VIEW
  5
6
330
0
100
AcDbSymbolTable
 70
     1
  0
VIEW
  5
4873
102
{ACAD_XDICTIONARY
360
4874
102
}
330
6
100
AcDbSymbolTableRecord
100
AcDbViewTableRecord
  2
セッティングイメージ
 70
     0
 40
558.0899368771736
 10
256.1153347947321
 20
8.07330766061932
 41
910.4716963666867
 11
0.4698463103929544
 21
-0.8137976813493736
 31
0.3420201433256687
 12
0.0
 22
0.0
 32
0.0
 42
50.0
 43
0.0
 44
0.0
 50
0.0
 71
     0
281
     0
 72
     1
110
0.0
120
0.0
130
0.0
111
1.0
121
0.0
131
0.0
112
0.0
122
1.0
132
0.0
 79
     0
146
0.0
  0
ENDTAB
  0
TABLE
  2
UCS
  5
7
330
0
100
AcDbSymbolTable
 70
     0
  0
ENDTAB
  0
TABLE
  2
APPID
  5
9
330
0
100
AcDbSymbolTable
 70
   103
  0
APPID
  5
27
330
9
100
AcDbSymbolTableRecord
100
AcDbRegAppTableRecord
  2
ACAD
 70
     0
  0
APPID
  5
47
330
9
100
AcDbSymbolTableRecord
100
AcDbRegAppTableRecord
  2
MCAD_NO_VIS
 70
     0
  0
APPID
  5
48
330
9
100
AcDbSymbolTableRecord
100
AcDbRegAppTableRecord
  2
ACAD_TEMP_GRAPHIC
 70
     0
  0
APPID
  5
7A
330
9
100
AcDbSymbolTableRecord
100
AcDbRegAppTableRecord
  2
AD_DRAW
 70
     0
  0
APPID
  5
7D
330
9
100
AcDbSymbolTableRecord
100
AcDbRegAppTableRecord
  2
ACATTRIBSERVICES
 70
     0
  0
APPID
  5
9E
330
9
100
AcDbSymbolTableRecord
100
AcDbRegAppTableRecord
  2
DESIGNERASSEMBLIES
 70
     0
  0
APPID
  5
DA
330
9
100
AcDbSymbolTableRecord
100
AcDbRegAppTableRecord
  2
ACADM_DIM_EDIT
 70
     0
  0
APPID
  5
DB
330
9
100
AcDbSymbolTableRecord
100
AcDbRegAppTableRecord
  2
AMDT_DM_ADJ
 70
     0
  0
APPID
  5
148
330
9
100
AcDbSymbolTableRecord
100
AcDbRegAppTableRecord
  2
ACAD_PSEXT
 70
     0
  0
APPID
  5
152
330
9
100
AcDbSymbolTableRecord
100
AcDbRegAppTableRecord
  2
GENIUS_GENREC_14
 70
     0
  0
APPID
  5
153
330
9
100
AcDbSymbolTableRecord
100
AcDbRegAppTableRecord
  2
GENIUS_GENODEF_13
 70
     0
  0
APPID
  5
154
330
9
100
AcDbSymbolTableRecord
100
AcDbRegAppTableRecord
  2
GENIUS_GENOBJ-N-REC_13
 70
     0
  0
APPID
  5
637
330
9
100
AcDbSymbolTableRecord
100
AcDbRegAppTableRecord
  2
DCO15
 70
     0
  0
APPID
  5
69B
330
9
100
AcDbSymbolTableRecord
100
AcDbRegAppTableRecord
  2
AcAecLayerStandard
 70
     0
  0
APPID
  5
6FD
330
9
100
AcDbSymbolTableRecord
100
AcDbRegAppTableRecord
  2
GENIUS_GENOBJ-N-CEN_13
 70
     0
  0
APPID
  5
6FE
330
9
100
AcDbSymbolTableRecord
100
AcDbRegAppTableRecord
  2
GENIUS_GENCEN_19
 70
     0
  0
APPID
  5
7B4
330
9
100
AcDbSymbolTableRecord
100
AcDbRegAppTableRecord
  2
GENIUS_GENTRA_14
 70
     0
  0
APPID
  5
7B5
330
9
100
AcDbSymbolTableRecord
100
AcDbRegAppTableRecord
  2
GENIUS_GENSCREG_15
 70
     0
  0
APPID
  5
7B6
330
9
100
AcDbSymbolTableRecord
100
AcDbRegAppTableRecord
  2
GENIUS_GENOBJ-N-SDF_13
 70
     0
  0
APPID
  5
7B7
330
9
100
AcDbSymbolTableRecord
100
AcDbRegAppTableRecord
  2
GENIUS_GENOENT_13
 70
     0
  0
APPID
  5
7B8
330
9
100
AcDbSymbolTableRecord
100
AcDbRegAppTableRecord
  2
GENIUS_GENOREF_13
 70
     0
  0
APPID
  5
7B9
330
9
100
AcDbSymbolTableRecord
100
AcDbRegAppTableRecord
  2
GENIUS_GENOLIS_13
 70
     0
  0
APPID
  5
7BA
330
9
100
AcDbSymbolTableRecord
100
AcDbRegAppTableRecord
  2
GENIUS_GENDTOL_13
 70
     0
  0
APPID
  5
7BB
330
9
100
AcDbSymbolTableRecord
100
AcDbRegAppTableRecord
  2
GENIUS_GENDIMSH_14
 70
     0
  0
APPID
  5
7BC
330
9
100
AcDbSymbolTableRecord
100
AcDbRegAppTableRecord
  2
GENIUS_GENOBJ-N-FIL_13
 70
     0
  0
APPID
  5
7BD
330
9
100
AcDbSymbolTableRecord
100
AcDbRegAppTableRecord
  2
GENIUS_GENHINW_13
 70
     0
  0
APPID
  5
7BE
330
9
100
AcDbSymbolTableRecord
100
AcDbRegAppTableRecord
  2
GENIUS_GENFIL_13
 70
     0
  0
APPID
  5
7BF
330
9
100
AcDbSymbolTableRecord
100
AcDbRegAppTableRecord
  2
GENIUS_GENBH_13
 70
     0
  0
APPID
  5
7C0
330
9
100
AcDbSymbolTableRecord
100
AcDbRegAppTableRecord
  2
GENIUS_GENOBJ-NBEHI-BHF_13
 70
     0
  0
APPID
  5
7C1
330
9
100
AcDbSymbolTableRecord
100
AcDbRegAppTableRecord
  2
GENIUS_GENOBJ-NBEHI-BHB_13
 70
     0
  0
APPID
  5
7C2
330
9
100
AcDbSymbolTableRecord
100
AcDbRegAppTableRecord
  2
GENIUS_GENREC_13
 70
     0
  0
APPID
  5
7C3
330
9
100
AcDbSymbolTableRecord
100
AcDbRegAppTableRecord
  2
GENIUS_GENOBJ-N-CHA_13
 70
     0
  0
APPID
  5
7C4
330
9
100
AcDbSymbolTableRecord
100
AcDbRegAppTableRecord
  2
GENIUS_GENIUS_GENBHEDTMP_13
 70
     0
  0
APPID
  5
7C5
330
9
100
AcDbSymbolTableRecord
100
AcDbRegAppTableRecord
  2
GENIUS_GENOBJ-N-HTC_13
 70
     0
  0
APPID
  5
7C6
330
9
100
AcDbSymbolTableRecord
100
AcDbRegAppTableRecord
  2
GENIUS_GENHATCH_13
 70
     0
  0
APPID
  5
7C7
330
9
100
AcDbSymbolTableRecord
100
AcDbRegAppTableRecord
  2
GENIUS_GENOBJ-N-CRS_13
 70
     0
  0
APPID
  5
7C8
330
9
100
AcDbSymbolTableRecord
100
AcDbRegAppTableRecord
  2
GENIUS_GENOBJ-N-RSBK_13
 70
     0
  0
APPID
  5
7C9
330
9
100
AcDbSymbolTableRecord
100
AcDbRegAppTableRecord
  2
GENIUS_GENOBJ-N-LIB_13
 70
     0
  0
APPID
  5
7CA
330
9
100
AcDbSymbolTableRecord
100
AcDbRegAppTableRecord
  2
GENIUS_GENSCALE_13
 70
     0
  0
APPID
  5
DCB
330
9
100
AcDbSymbolTableRecord
100
AcDbRegAppTableRecord
  2
ACAD_EXEMPT_FROM_CAD_STANDARDS
 70
     0
  0
APPID
  5
1759
330
9
100
AcDbSymbolTableRecord
100
AcDbRegAppTableRecord
  2
ACAD_MLEADERVER
 70
     0
  0
APPID
  5
17C0
330
9
100
AcDbSymbolTableRecord
100
AcDbRegAppTableRecord
  2
ACAD_DSTYLE_DIMJAG
 70
     0
  0
APPID
  5
17C1
330
9
100
AcDbSymbolTableRecord
100
AcDbRegAppTableRecord
  2
ACAD_DSTYLE_DIMTALN
 70
     0
  0
APPID
  5
1803
330
9
100
AcDbSymbolTableRecord
100
AcDbRegAppTableRecord
  2
ACAD_DSTYLE_DIMBREAK
 70
     0
  0
APPID
  5
1957
330
9
100
AcDbSymbolTableRecord
100
AcDbRegAppTableRecord
  2
GEVID1181262513
 70
     0
  0
APPID
  5
1958
330
9
100
AcDbSymbolTableRecord
100
AcDbRegAppTableRecord
  2
GEVDC
 70
     0
  0
APPID
  5
2011
330
9
100
AcDbSymbolTableRecord
100
AcDbRegAppTableRecord
  2
GEVID1194413920
 70
     0
  0
APPID
  5
2016
330
9
100
AcDbSymbolTableRecord
100
AcDbRegAppTableRecord
  2
GEVID1194413921
 70
     0
  0
APPID
  5
206C
330
9
100
AcDbSymbolTableRecord
100
AcDbRegAppTableRecord
  2
GEVID1194480096
 70
     0
  0
APPID
  5
2081
330
9
100
AcDbSymbolTableRecord
100
AcDbRegAppTableRecord
  2
GEVID1194480097
 70
     0
  0
APPID
  5
2085
330
9
100
AcDbSymbolTableRecord
100
AcDbRegAppTableRecord
  2
GEVID1194480098
 70
     0
  0
APPID
  5
2104
330
9
100
AcDbSymbolTableRecord
100
AcDbRegAppTableRecord
  2
ACAD_DIMASSOC_CALC_DIMLFAC
 70
     0
  0
APPID
  5
2105
330
9
100
AcDbSymbolTableRecord
100
AcDbRegAppTableRecord
  2
ACAD_DIMASSOC_DIMLFAC
 70
     0
  0
APPID
  5
2106
330
9
100
AcDbSymbolTableRecord
100
AcDbRegAppTableRecord
  2
ACAD_DIMASSOC_OVERRIDDEN_DIMLFAC
 70
     0
  0
APPID
  5
211B
330
9
100
AcDbSymbolTableRecord
100
AcDbRegAppTableRecord
  2
ACAD_DSTYLE_DIMINSPECT
 70
     0
  0
APPID
  5
2AD4
330
9
100
AcDbSymbolTableRecord
100
AcDbRegAppTableRecord
  2
ACAD_DSTYLE_DIMRADIAL_EXTENSION
 70
     0
  0
APPID
  5
2CFE
330
9
100
AcDbSymbolTableRecord
100
AcDbRegAppTableRecord
  2
AcadAnnotative
 70
     0
  0
APPID
  5
2CFF
330
9
100
AcDbSymbolTableRecord
100
AcDbRegAppTableRecord
  2
GEVID1183531517
 70
     0
  0
APPID
  5
2D00
330
9
100
AcDbSymbolTableRecord
100
AcDbRegAppTableRecord
  2
GEVID1183531518
 70
     0
  0
APPID
  5
2D1F
330
9
100
AcDbSymbolTableRecord
100
AcDbRegAppTableRecord
  2
GEVID1194480099
 70
     0
  0
APPID
  5
2D23
330
9
100
AcDbSymbolTableRecord
100
AcDbRegAppTableRecord
  2
GEVID1194480100
 70
     0
  0
APPID
  5
3DC6
330
9
100
AcDbSymbolTableRecord
100
AcDbRegAppTableRecord
  2
GEVID1194480101
 70
     0
  0
APPID
  5
4E55
330
9
100
AcDbSymbolTableRecord
100
AcDbRegAppTableRecord
  2
AcadAnnoPO
 70
     0
  0
APPID
  5
502A
330
9
100
AcDbSymbolTableRecord
100
AcDbRegAppTableRecord
  2
GEVID1195605042
 70
     0
  0
APPID
  5
502B
330
9
100
AcDbSymbolTableRecord
100
AcDbRegAppTableRecord
  2
GEVID1195605043
 70
     0
  0
APPID
  5
502C
330
9
100
AcDbSymbolTableRecord
100
AcDbRegAppTableRecord
  2
GEVID1195605044
 70
     0
  0
APPID
  5
732A
330
9
100
AcDbSymbolTableRecord
100
AcDbRegAppTableRecord
  2
GEVID1223428646
 70
     0
  0
APPID
  5
732B
330
9
100
AcDbSymbolTableRecord
100
AcDbRegAppTableRecord
  2
GEVID1223428647
 70
     0
  0
APPID
  5
9ADC
330
9
100
AcDbSymbolTableRecord
100
AcDbRegAppTableRecord
  2
GEVID1228357859
 70
     0
  0
APPID
  5
12046
330
9
100
AcDbSymbolTableRecord
100
AcDbRegAppTableRecord
  2
ACAD_NAV_VCDISPLAY
 70
     0
  0
APPID
  5
120B3
330
9
100
AcDbSymbolTableRecord
100
AcDbRegAppTableRecord
  2
GEVID1350627677
 70
     0
  0
APPID
  5
123E9
330
9
100
AcDbSymbolTableRecord
100
AcDbRegAppTableRecord
  2
AcDbDynamicBlockGUID
 70
     0
  0
APPID
  5
123EA
330
9
100
AcDbSymbolTableRecord
100
AcDbRegAppTableRecord
  2
ACAUTHENVIRON
 70
     0
  0
APPID
  5
123EB
330
9
100
AcDbSymbolTableRecord
100
AcDbRegAppTableRecord
  2
AcDbDynamicBlockTrueName
 70
     0
  0
APPID
  5
13386
330
9
100
AcDbSymbolTableRecord
100
AcDbRegAppTableRecord
  2
GENIUS_GEFSHP_13
 70
     0
  0
APPID
  5
13387
330
9
100
AcDbSymbolTableRecord
100
AcDbRegAppTableRecord
  2
GENIUS_GEFSH_13
 70
     0
  0
APPID
  5
13388
330
9
100
AcDbSymbolTableRecord
100
AcDbRegAppTableRecord
  2
GENIUS_AMGTXT_16
 70
     0
  0
APPID
  5
13389
330
9
100
AcDbSymbolTableRecord
100
AcDbRegAppTableRecord
  2
ACAD_DSTYLE_DIMJOGGED_JOGANGLE_SYMBOL
 70
     0
  0
APPID
  5
1338A
330
9
100
AcDbSymbolTableRecord
100
AcDbRegAppTableRecord
  2
GEVID1206088229
 70
     0
  0
APPID
  5
1338B
330
9
100
AcDbSymbolTableRecord
100
AcDbRegAppTableRecord
  2
GEVID1206088231
 70
     0
  0
APPID
  5
1338C
330
9
100
AcDbSymbolTableRecord
100
AcDbRegAppTableRecord
  2
GEVID1206088232
 70
     0
  0
APPID
  5
1338D
330
9
100
AcDbSymbolTableRecord
100
AcDbRegAppTableRecord
  2
GEVID1206088233
 70
     0
  0
APPID
  5
1338E
330
9
100
AcDbSymbolTableRecord
100
AcDbRegAppTableRecord
  2
GEVID1206088234
 70
     0
  0
APPID
  5
1338F
330
9
100
AcDbSymbolTableRecord
100
AcDbRegAppTableRecord
  2
MACHINERY
 70
     0
  0
APPID
  5
13390
330
9
100
AcDbSymbolTableRecord
100
AcDbRegAppTableRecord
  2
USERREMARKS
 70
     0
  0
APPID
  5
13391
330
9
100
AcDbSymbolTableRecord
100
AcDbRegAppTableRecord
  2
SYURUI
 70
     0
  0
APPID
  5
13392
330
9
100
AcDbSymbolTableRecord
100
AcDbRegAppTableRecord
  2
FORMERDRAWING
 70
     0
  0
APPID
  5
13393
330
9
100
AcDbSymbolTableRecord
100
AcDbRegAppTableRecord
  2
NUMBERING
 70
     0
  0
APPID
  5
13394
330
9
100
AcDbSymbolTableRecord
100
AcDbRegAppTableRecord
  2
GEVID1324008112
 70
     0
  0
APPID
  5
13395
330
9
100
AcDbSymbolTableRecord
100
AcDbRegAppTableRecord
  2
GEVCON
 70
     0
  0
APPID
  5
13396
330
9
100
AcDbSymbolTableRecord
100
AcDbRegAppTableRecord
  2
GENIUS_GENOBJ-F-SCPASSM_13
 70
     0
  0
APPID
  5
13397
330
9
100
AcDbSymbolTableRecord
100
AcDbRegAppTableRecord
  2
GEVID1324008113
 70
     0
  0
APPID
  5
13398
330
9
100
AcDbSymbolTableRecord
100
AcDbRegAppTableRecord
  2
GEVID1324008114
 70
     0
  0
APPID
  5
13399
330
9
100
AcDbSymbolTableRecord
100
AcDbRegAppTableRecord
  2
GEVID1324008115
 70
     0
  0
APPID
  5
1339A
330
9
100
AcDbSymbolTableRecord
100
AcDbRegAppTableRecord
  2
GEVID1324008116
 70
     0
  0
APPID
  5
1339B
330
9
100
AcDbSymbolTableRecord
100
AcDbRegAppTableRecord
  2
GEVID1324008117
 70
     0
  0
APPID
  5
1339C
330
9
100
AcDbSymbolTableRecord
100
AcDbRegAppTableRecord
  2
GEVID1324008118
 70
     0
  0
APPID
  5
1339D
330
9
100
AcDbSymbolTableRecord
100
AcDbRegAppTableRecord
  2
GEVMK
 70
     0
  0
APPID
  5
1339E
330
9
100
AcDbSymbolTableRecord
100
AcDbRegAppTableRecord
  2
GEVID1324008119
 70
     0
  0
APPID
  5
1339F
330
9
100
AcDbSymbolTableRecord
100
AcDbRegAppTableRecord
  2
ACDBBLOCKREPETAG
 70
     0
  0
APPID
  5
133A0
330
9
100
AcDbSymbolTableRecord
100
AcDbRegAppTableRecord
  2
GEVID1341370643
 70
     0
  0
APPID
  5
133A1
330
9
100
AcDbSymbolTableRecord
100
AcDbRegAppTableRecord
  2
GEVID1341370644
 70
     0
  0
APPID
  5
1447E
330
9
100
AcDbSymbolTableRecord
100
AcDbRegAppTableRecord
  2
ACAD_DSTYLE_DIMARC_LENGTH_SYMBOL
 70
     0
  0
ENDTAB
  0
TABLE
  2
DIMSTYLE
  5
A
330
0
100
AcDbSymbolTable
 70
     9
100
AcDbDimStyleTable
 71
     2
340
5DB4
340
639
  0
DIMSTYLE
105
639
330
A
100
AcDbSymbolTableRecord
100
AcDbDimStyleTableRecord
  2
Standard
 70
     0
340
26
  0
DIMSTYLE
105
CA
102
{ACAD_REACTORS
330
14CEA
102
}
330
A
100
AcDbSymbolTableRecord
100
AcDbDimStyleTableRecord
  2
AM_ISO
 70
     0
  4
"
 41
2.5
 42
1.0
 43
10.0
 44
1.0
 47
0.1
 48
0.1
 73
     0
 74
     0
 77
     1
 78
     8
 79
     2
140
3.5
141
0.0
143
0.0393701
146
0.71
147
1.5
172
     1
176
   256
177
   256
178
     2
271
     2
272
     3
274
     4
283
     0
284
     8
340
26
371
    -1
372
    -1
1001
ACAD_DSTYLE_DIMARC_LENGTH_SYMBOL
1070
   379
1070
     1
  0
DIMSTYLE
105
CC
330
A
100
AcDbSymbolTableRecord
100
AcDbDimStyleTableRecord
  2
AM_ISO$4
 70
     0
  4
"
 41
2.5
 42
1.0
 43
10.0
 44
1.0
 47
0.1
 48
0.1
 73
     0
 77
     1
 78
     8
 79
     2
140
3.5
141
0.0
143
0.0393701
146
0.71
147
1.5
176
   256
177
   256
178
     2
271
     2
272
     3
274
     4
283
     0
284
     8
288
     1
289
     0
340
26
371
    -1
372
    -1
1001
ACAD_DSTYLE_DIMARC_LENGTH_SYMBOL
1070
   379
1070
     1
  0
DIMSTYLE
105
CD
330
A
100
AcDbSymbolTableRecord
100
AcDbDimStyleTableRecord
  2
AM_ISO$6
 70
     0
  4
"
 41
2.5
 42
1.0
 43
10.0
 44
1.0
 47
0.1
 48
0.1
 73
     0
 74
     0
 78
     8
 79
     2
140
3.5
141
0.0
143
0.0393701
146
0.71
147
1.5
172
     1
176
   256
177
   256
178
     2
271
     2
272
     3
274
     4
283
     0
284
     8
340
26
371
    -1
372
    -1
1001
ACAD_DSTYLE_DIMARC_LENGTH_SYMBOL
1070
   379
1070
     1
  0
DIMSTYLE
105
CE
330
A
100
AcDbSymbolTableRecord
100
AcDbDimStyleTableRecord
  2
AM_ISO$7
 70
     0
  4
"
 41
2.5
 42
1.0
 43
10.0
 44
1.0
 47
0.1
 48
0.1
 73
     0
 74
     0
 77
     1
 78
     8
 79
     2
140
5.0
141
0.0
143
0.0393701
146
0.71
147
1.5
172
     1
176
   256
177
   256
178
     2
271
     2
272
     3
274
     4
283
     0
284
     8
340
26
371
    -1
372
    -1
1001
ACAD_DSTYLE_DIMARC_LENGTH_SYMBOL
1070
   379
1070
     1
  0
DIMSTYLE
105
CF
330
A
100
AcDbSymbolTableRecord
100
AcDbDimStyleTableRecord
  2
AM_ISO$SF
 70
     0
  4
"
 41
2.5
 42
1.0
 43
10.0
 44
1.0
 47
0.1
 48
0.1
 73
     0
 74
     0
 75
     1
 76
     1
 77
     1
 78
     8
 79
     2
140
3.5
141
0.0
143
0.0393701
146
0.71
147
1.5
172
     1
176
   256
177
   256
178
     2
271
     2
272
     3
274
     4
283
     0
284
     8
340
26
371
    -1
372
    -1
1001
ACAD_DSTYLE_DIMARC_LENGTH_SYMBOL
1070
   379
1070
     1
  0
DIMSTYLE
105
D4
330
A
100
AcDbSymbolTableRecord
100
AcDbDimStyleTableRecord
  2
AM_ISO$SH
 70
     0
  4
"
 41
2.5
 42
1.0
 43
10.0
 44
1.0
 47
0.1
 48
0.1
 73
     0
 74
     0
 75
     1
 76
     1
 77
     1
 78
     8
 79
     2
140
3.5
141
0.0
143
0.0393701
144
2.0
146
0.71
147
1.5
172
     1
173
     1
176
   256
177
   256
178
     2
271
     2
272
     3
274
     4
283
     0
284
     8
340
26
343
D0
371
    -1
372
    -1
1001
ACAD_DSTYLE_DIMARC_LENGTH_SYMBOL
1070
   379
1070
     1
  0
DIMSTYLE
105
5DB4
330
A
100
AcDbSymbolTableRecord
100
AcDbDimStyleTableRecord
  2
承認
 70
     0
 41
1.5
 42
1.5
 43
7.0
 44
1.0
 73
     0
 74
     0
 77
     1
 78
     8
140
3.5
141
2.5
143
0.03937007874016
147
1.0
171
     3
172
     1
176
     4
177
     4
178
   256
271
     0
272
     0
274
     3
283
     0
284
     8
340
26
341
E4
342
E4
371
     9
372
     9
1001
ACAD_DSTYLE_DIMBREAK
1070
   391
1040
3.75
1001
ACAD_DSTYLE_DIMJAG
1070
   388
1040
1.5
1001
ACAD_DSTYLE_DIMTALN
1070
   392
1070
     0
  0
DIMSTYLE
105
144F1
330
A
100
AcDbSymbolTableRecord
100
AcDbDimStyleTableRecord
  2
AM_ISO$3
 70
     0
  4
"
 41
2.5
 42
1.0
 43
10.0
 44
1.0
 47
0.1
 48
0.1
 73
     0
 77
     1
 78
     8
 79
     2
140
3.5
141
0.0
143
0.0393701
146
0.71
147
1.5
176
   256
177
   256
178
     2
271
     2
272
     3
274
     4
283
     0
284
     8
288
     1
289
     0
340
26
371
    -1
372
    -1
1001
ACAD_DSTYLE_DIMBREAK
1070
   391
1040
3.75
1001
ACAD_DSTYLE_DIMJAG
1070
   388
1040
1.5
1001
ACAD_DSTYLE_DIMARC_LENGTH_SYMBOL
1070
   379
1070
     1
  0
ENDTAB
  0
TABLE
  2
BLOCK_RECORD
  5
1
330
0
100
AcDbSymbolTable
 70
     7
  0
BLOCK_RECORD
  5
37
102
{ACAD_XDICTIONARY
360
946
102
}
330
1
100
AcDbSymbolTableRecord
100
AcDbBlockTableRecord
  2
*Model_Space
340
3A
  0
BLOCK_RECORD
  5
1443C
330
1
100
AcDbSymbolTableRecord
100
AcDbBlockTableRecord
  2
*Paper_Space
340
1443D
  0
BLOCK_RECORD
  5
D0
330
1
100
AcDbSymbolTableRecord
100
AcDbBlockTableRecord
  2
GENAXEH
340
0
  0
BLOCK_RECORD
  5
E4
330
1
100
AcDbSymbolTableRecord
100
AcDbBlockTableRecord
  2
_Open
340
0
  0
BLOCK_RECORD
  5
13EA1
102
{ACAD_XDICTIONARY
360
13F19
102
}
330
1
100
AcDbSymbolTableRecord
100
AcDbBlockTableRecord
  2
A$C081E3E1A
340
0
102
{BLKREFS
331
13F1D
102
}
1001
ACAD
1000
DesignCenter Data
1002
{
1070
     1
1070
     4
1002
}
  0
ENDTAB
  0
ENDSEC
  0
SECTION
  2
BLOCKS
  0
BLOCK
  5
38
330
37
100
AcDbEntity
  8
0
100
AcDbBlockBegin
  2
*Model_Space
 70
     0
 10
0.0
 20
0.0
 30
0.0
  3
*Model_Space
  1

  0
ENDBLK
  5
39
330
37
100
AcDbEntity
  8
0
100
AcDbBlockEnd
  0
BLOCK
  5
1443E
330
1443C
100
AcDbEntity
 67
     1
  8
0
100
AcDbBlockBegin
  2
*Paper_Space
 70
     0
 10
0.0
 20
0.0
 30
0.0
  3
*Paper_Space
  1

  0
ENDBLK
  5
1443F
330
1443C
100
AcDbEntity
 67
     1
  8
0
100
AcDbBlockEnd
  0
BLOCK
  5
D2
330
D0
100
AcDbEntity
  8
0
100
AcDbBlockBegin
  2
GENAXEH
 70
     0
 10
0.0
 20
0.0
 30
0.0
  3
GENAXEH
  1

  0
LINE
  5
D1
330
D0
100
AcDbEntity
  8
0
100
AcDbLine
 10
-1.0
 20
0.0
 30
0.0
 11
1.0
 21
0.0
 31
0.0
  0
ENDBLK
  5
D3
330
D0
100
AcDbEntity
  8
0
100
AcDbBlockEnd
  0
BLOCK
  5
E5
330
E4
100
AcDbEntity
  8
0
100
AcDbBlockBegin
  2
_Open
 70
     0
 10
0.0
 20
0.0
 30
0.0
  3
_Open
  1

  0
LINE
  5
E6
330
E4
100
AcDbEntity
  8
0
  6
ByBlock
 62
     0
370
    -2
100
AcDbLine
 10
-1.0
 20
0.1666666666666666
 30
0.0
 11
0.0
 21
0.0
 31
0.0
  0
LINE
  5
E7
330
E4
100
AcDbEntity
  8
0
  6
ByBlock
 62
     0
370
    -2
100
AcDbLine
 10
-1.0
 20
-0.1666666666666666
 30
0.0
 11
0.0
 21
0.0
 31
0.0
  0
LINE
  5
E8
330
E4
100
AcDbEntity
  8
0
  6
ByBlock
 62
     0
370
    -2
100
AcDbLine
 10
0.0
 20
0.0
 30
0.0
 11
-1.0
 21
0.0
 31
0.0
  0
ENDBLK
  5
E9
330
E4
100
AcDbEntity
  8
0
100
AcDbBlockEnd
  0
BLOCK
  5
13F1B
330
13EA1
100
AcDbEntity
  8
0
100
AcDbBlockBegin
  2
A$C081E3E1A
 70
     0
 10
0.0
 20
0.0
 30
0.0
  3
A$C081E3E1A
  1

  0
LINE
  5
13EA2
330
13EA1
100
AcDbEntity
  8
図面枠
100
AcDbLine
 10
-41.43582781554549
 20
207.7846450534652
 30
0.0
 11
156.7641721844545
 21
207.7846450534652
 31
0.0
1001
GENIUS_GENREC_14
1002
{
1000
PYDIR
1011
-41.43582781554551
1021
-77.30087352537025
1031
0.0
1002
}
1002
{
1000
PXDIR
1011
156.7641721844545
1021
207.7846450534652
1031
0.0
1002
}
1002
{
1000
PORI
1011
-41.43582781554549
1021
207.7846450534652
1031
0.0
1002
}
1002
{
1000
PINS
1011
-41.43582781554549
1021
207.7846450534652
1031
0.0
1002
}
1002
{
1000
PINS2
1011
156.7641721844545
1021
-77.30087352537028
1031
0.0
1002
}
1002
{
1000
C
1070
     1
1002
}
1001
GENIUS_GENOBJ-N-REC_13
1002
{
1000
OWNER
1000
GEN
1002
}
1001
GENIUS_GENODEF_13
1002
{
1000
HIER
1070
     0
1002
}
1002
{
1000
MANEDIT
1070
     0
1002
}
1002
{
1000
NOSEL
1070
     0
1002
}
1002
{
1000
BEHIND
1070
     0
1002
}
1002
{
1000
OTHER
1070
     0
1002
}
1002
{
1000
REACTOR
1002
}
  0
LINE
  5
13EA3
330
13EA1
100
AcDbEntity
  8
図面枠
100
AcDbLine
 10
156.7641721844545
 20
207.7846450534652
 30
0.0
 11
156.7641721844545
 21
-77.30087352537025
 31
0.0
1001
GENIUS_GENREC_14
1002
{
1000
PYDIR
1011
-41.43582781554551
1021
-77.30087352537025
1031
0.0
1002
}
1002
{
1000
PXDIR
1011
156.7641721844545
1021
207.7846450534652
1031
0.0
1002
}
1002
{
1000
PORI
1011
-41.43582781554549
1021
207.7846450534652
1031
0.0
1002
}
1002
{
1000
PINS
1011
-41.43582781554549
1021
207.7846450534652
1031
0.0
1002
}
1002
{
1000
PINS2
1011
156.7641721844545
1021
-77.30087352537028
1031
0.0
1002
}
1002
{
1000
C
1070
     1
1002
}
1001
GENIUS_GENOBJ-N-REC_13
1002
{
1000
OWNER
1000
GEN
1002
}
1001
GENIUS_GENODEF_13
1002
{
1000
HIER
1070
     0
1002
}
1002
{
1000
MANEDIT
1070
     0
1002
}
1002
{
1000
NOSEL
1070
     0
1002
}
1002
{
1000
BEHIND
1070
     0
1002
}
1002
{
1000
OTHER
1070
     0
1002
}
1002
{
1000
REACTOR
1002
}
  0
LINE
  5
13EA4
330
13EA1
100
AcDbEntity
  8
図面枠
100
AcDbLine
 10
156.7641721844545
 20
-77.30087352537025
 30
0.0
 11
-41.43582781554552
 21
-77.30087352537022
 31
0.0
1001
GENIUS_GENREC_14
1002
{
1000
PYDIR
1011
-41.43582781554551
1021
-77.30087352537025
1031
0.0
1002
}
1002
{
1000
PXDIR
1011
156.7641721844545
1021
207.7846450534652
1031
0.0
1002
}
1002
{
1000
PORI
1011
-41.43582781554549
1021
207.7846450534652
1031
0.0
1002
}
1002
{
1000
PINS
1011
-41.43582781554549
1021
207.7846450534652
1031
0.0
1002
}
1002
{
1000
PINS2
1011
156.7641721844545
1021
-77.30087352537028
1031
0.0
1002
}
1002
{
1000
C
1070
     1
1002
}
1001
GENIUS_GENOBJ-N-REC_13
1002
{
1000
OWNER
1000
GEN
1002
}
1001
GENIUS_GENODEF_13
1002
{
1000
HIER
1070
     0
1002
}
1002
{
1000
MANEDIT
1070
     0
1002
}
1002
{
1000
NOSEL
1070
     0
1002
}
1002
{
1000
BEHIND
1070
     0
1002
}
1002
{
1000
OTHER
1070
     0
1002
}
1002
{
1000
REACTOR
1002
}
  0
LINE
  5
13EA5
330
13EA1
100
AcDbEntity
  8
図面枠
100
AcDbLine
 10
-41.43582781554552
 20
-77.30087352537022
 30
0.0
 11
-41.43582781554549
 21
207.7846450534652
 31
0.0
1001
GENIUS_GENREC_14
1002
{
1000
PYDIR
1011
-41.43582781554551
1021
-77.30087352537025
1031
0.0
1002
}
1002
{
1000
PXDIR
1011
156.7641721844545
1021
207.7846450534652
1031
0.0
1002
}
1002
{
1000
PORI
1011
-41.43582781554549
1021
207.7846450534652
1031
0.0
1002
}
1002
{
1000
PINS
1011
-41.43582781554549
1021
207.7846450534652
1031
0.0
1002
}
1002
{
1000
PINS2
1011
156.7641721844545
1021
-77.30087352537028
1031
0.0
1002
}
1002
{
1000
C
1070
     1
1002
}
1001
GENIUS_GENOBJ-N-REC_13
1002
{
1000
OWNER
1000
GEN
1002
}
1001
GENIUS_GENODEF_13
1002
{
1000
HIER
1070
     0
1002
}
1002
{
1000
MANEDIT
1070
     0
1002
}
1002
{
1000
NOSEL
1070
     0
1002
}
1002
{
1000
BEHIND
1070
     0
1002
}
1002
{
1000
OTHER
1070
     0
1002
}
1002
{
1000
REACTOR
1002
}
  0
TEXT
  5
13EA6
330
13EA1
100
AcDbEntity
  8
図面枠
100
AcDbText
 10
90.44131504159741
 20
-41.30087352537047
 30
0.0
 40
3.0
  1
幅69mm\U+00D7奥行180mm\U+00D7高さ378mm
 41
0.8
  7
0.8横
100
AcDbText
  0
TEXT
  5
13EA7
330
13EA1
100
AcDbEntity
  8
図面枠
100
AcDbText
 10
109.5841721844545
 20
-46.30087352537046
 30
0.0
 40
3.0
  1
（ノズル含む）
 41
0.8
  7
0.8横
100
AcDbText
  0
LINE
  5
13EA8
330
13EA1
100
AcDbEntity
  8
AM_5
 62
     4
370
     9
100
AcDbLine
 10
0.000000114123921
 20
-1.500000215615044
 30
0.0
 11
0.000000114123921
 21
-8.885261781226986
 31
0.0
  0
LINE
  5
13EA9
330
13EA1
100
AcDbEntity
  8
AM_5
 62
     4
370
     9
100
AcDbLine
 10
17.25000006592962
 20
-1.500000215615044
 30
0.0
 11
17.25000006592962
 21
-8.885261781226986
 31
0.0
  0
LINE
  5
13EAA
330
13EA1
100
AcDbEntity
  8
AM_5
 62
     4
370
     9
100
AcDbLine
 10
1.500000114123919
 20
-7.885261781226986
 30
0.0
 11
15.75000006592962
 21
-7.885261781226986
 31
0.0
  0
LINE
  5
13EAB
330
13EA1
100
AcDbEntity
  8
0
  6
ByBlock
 62
     0
370
    -2
100
AcDbLine
 10
1.500000114123919
 20
-8.135261781226986
 30
0.0
 11
0.000000114123921
 21
-7.885261781226986
 31
0.0
  0
LINE
  5
13EAC
330
13EA1
100
AcDbEntity
  8
0
  6
ByBlock
 62
     0
370
    -2
100
AcDbLine
 10
1.500000114123919
 20
-7.635261781226986
 30
0.0
 11
0.000000114123921
 21
-7.885261781226986
 31
0.0
  0
LINE
  5
13EAD
330
13EA1
100
AcDbEntity
  8
0
  6
ByBlock
 62
     0
370
    -2
100
AcDbLine
 10
0.000000114123921
 20
-7.885261781226986
 30
0.0
 11
1.500000114123919
 21
-7.885261781226986
 31
0.0
  0
LINE
  5
13EAE
330
13EA1
100
AcDbEntity
  8
0
  6
ByBlock
 62
     0
370
    -2
100
AcDbLine
 10
15.75000006592962
 20
-7.635261781226986
 30
0.0
 11
17.25000006592962
 21
-7.885261781226986
 31
0.0
  0
LINE
  5
13EAF
330
13EA1
100
AcDbEntity
  8
0
  6
ByBlock
 62
     0
370
    -2
100
AcDbLine
 10
15.75000006592962
 20
-8.135261781226986
 30
0.0
 11
17.25000006592962
 21
-7.885261781226986
 31
0.0
  0
LINE
  5
13EB0
330
13EA1
100
AcDbEntity
  8
0
  6
ByBlock
 62
     0
370
    -2
100
AcDbLine
 10
17.25000006592962
 20
-7.885261781226986
 30
0.0
 11
15.75000006592962
 21
-7.885261781226986
 31
0.0
  0
TEXT
  5
13EB1
330
13EA1
100
AcDbEntity
  8
AM_5
100
AcDbText
 10
4.291666851089258
 20
-6.885261781226986
 30
0.0
 40
3.5
  1
\U+220569
100
AcDbText
  0
LINE
  5
13EB2
330
13EA1
100
AcDbEntity
  8
AM_5
 62
     4
370
     9
100
AcDbLine
 10
18.75000012803822
 20
-0.0000000149809978
 30
0.0
 11
30.25000012803822
 21
-0.0000000149809978
 31
0.0
  0
LINE
  5
13EB3
330
13EA1
100
AcDbEntity
  8
AM_5
 62
     4
370
     9
100
AcDbLine
 10
11.16398824938979
 20
94.37499936805947
 30
0.0
 11
30.25000012803825
 21
94.37499936805945
 31
0.0
  0
LINE
  5
13EB4
330
13EA1
100
AcDbEntity
  8
AM_5
 62
     4
370
     9
100
AcDbLine
 10
29.25000012803823
 20
1.499999985019002
 30
0.0
 11
29.25000012803825
 21
92.87499936805945
 31
0.0
  0
LINE
  5
13EB5
330
13EA1
100
AcDbEntity
  8
0
  6
ByBlock
 62
     0
370
    -2
100
AcDbLine
 10
29.50000012803823
 20
1.499999985019002
 30
0.0
 11
29.25000012803823
 21
-0.0000000149809978
 31
0.0
  0
LINE
  5
13EB6
330
13EA1
100
AcDbEntity
  8
0
  6
ByBlock
 62
     0
370
    -2
100
AcDbLine
 10
29.00000012803822
 20
1.499999985019002
 30
0.0
 11
29.25000012803823
 21
-0.0000000149809978
 31
0.0
  0
LINE
  5
13EB7
330
13EA1
100
AcDbEntity
  8
0
  6
ByBlock
 62
     0
370
    -2
100
AcDbLine
 10
29.25000012803823
 20
-0.0000000149809978
 30
0.0
 11
29.25000012803823
 21
1.499999985019002
 31
0.0
  0
LINE
  5
13EB8
330
13EA1
100
AcDbEntity
  8
0
  6
ByBlock
 62
     0
370
    -2
100
AcDbLine
 10
29.00000012803825
 20
92.87499936805945
 30
0.0
 11
29.25000012803825
 21
94.37499936805945
 31
0.0
  0
LINE
  5
13EB9
330
13EA1
100
AcDbEntity
  8
0
  6
ByBlock
 62
     0
370
    -2
100
AcDbLine
 10
29.50000012803825
 20
92.87499936805945
 30
0.0
 11
29.25000012803825
 21
94.37499936805945
 31
0.0
  0
LINE
  5
13EBA
330
13EA1
100
AcDbEntity
  8
0
  6
ByBlock
 62
     0
370
    -2
100
AcDbLine
 10
29.25000012803825
 20
94.37499936805945
 30
0.0
 11
29.25000012803825
 21
92.87499936805945
 31
0.0
  0
TEXT
  5
13EBB
330
13EA1
100
AcDbEntity
  8
AM_5
100
AcDbText
 10
27.08333346137155
 20
23.63749967653923
 30
0.0
 40
3.5
  1
378(標準ノズル使用時)
 50
90.0
100
AcDbText
  0
LINE
  5
13EBC
330
13EA1
100
AcDbEntity
  8
AM_5
 62
     4
370
     9
100
AcDbLine
 10
87.0714364487557
 20
-0.0000002156051835
 30
0.0
 11
59.68562239667805
 21
-0.0000002156051835
 31
0.0
  0
LINE
  5
13EBD
330
13EA1
100
AcDbEntity
  8
AM_5
 62
     4
370
     9
100
AcDbLine
 10
72.53631203868555
 20
55.95013097595044
 30
0.0
 11
59.68562239667805
 21
55.95013097595044
 31
0.0
  0
LINE
  5
13EBE
330
13EA1
100
AcDbEntity
  8
AM_5
 62
     4
370
     9
100
AcDbLine
 10
60.68562239667805
 20
1.499999784394814
 30
0.0
 11
60.68562239667809
 21
54.45013097595044
 31
0.0
  0
LINE
  5
13EBF
330
13EA1
100
AcDbEntity
  8
0
  6
ByBlock
 62
     0
370
    -2
100
AcDbLine
 10
60.93562239667805
 20
1.499999784394814
 30
0.0
 11
60.68562239667805
 21
-0.0000002156051835
 31
0.0
  0
LINE
  5
13EC0
330
13EA1
100
AcDbEntity
  8
0
  6
ByBlock
 62
     0
370
    -2
100
AcDbLine
 10
60.43562239667807
 20
1.499999784394814
 30
0.0
 11
60.68562239667805
 21
-0.0000002156051835
 31
0.0
  0
LINE
  5
13EC1
330
13EA1
100
AcDbEntity
  8
0
  6
ByBlock
 62
     0
370
    -2
100
AcDbLine
 10
60.68562239667805
 20
-0.0000002156051835
 30
0.0
 11
60.68562239667805
 21
1.499999784394814
 31
0.0
  0
LINE
  5
13EC2
330
13EA1
100
AcDbEntity
  8
0
  6
ByBlock
 62
     0
370
    -2
100
AcDbLine
 10
60.43562239667807
 20
54.45013097595044
 30
0.0
 11
60.68562239667809
 21
55.95013097595044
 31
0.0
  0
LINE
  5
13EC3
330
13EA1
100
AcDbEntity
  8
0
  6
ByBlock
 62
     0
370
    -2
100
AcDbLine
 10
60.93562239667805
 20
54.45013097595044
 30
0.0
 11
60.68562239667809
 21
55.95013097595044
 31
0.0
  0
LINE
  5
13EC4
330
13EA1
100
AcDbEntity
  8
0
  6
ByBlock
 62
     0
370
    -2
100
AcDbLine
 10
60.68562239667809
 20
55.95013097595044
 30
0.0
 11
60.68562239667809
 21
54.45013097595044
 31
0.0
  0
TEXT
  5
13EC5
330
13EA1
100
AcDbEntity
  8
AM_5
100
AcDbText
 10
59.68562239667805
 20
23.47506538017267
 30
0.0
 40
3.5
  1
224
 50
90.0
100
AcDbText
  0
LINE
  5
13EC6
330
13EA1
100
AcDbEntity
  8
AM_5
 62
     4
370
     9
100
AcDbLine
 10
80.9257155196275
 20
54.78679295268811
 30
0.0
 11
80.9257155196275
 21
40.60734075142129
 31
0.0
  0
LINE
  5
13EC7
330
13EA1
100
AcDbEntity
  8
AM_5
 62
     4
370
     9
100
AcDbLine
 10
109.8214364238225
 20
37.17985579504743
 30
0.0
 11
109.8214364238225
 21
42.60734075142129
 31
0.0
  0
LINE
  5
13EC8
330
13EA1
100
AcDbEntity
  8
AM_5
 62
     4
370
     9
100
AcDbLine
 10
82.4257155196275
 20
41.60734075142129
 30
0.0
 11
108.3214364238225
 21
41.60734075142129
 31
0.0
  0
LINE
  5
13EC9
330
13EA1
100
AcDbEntity
  8
0
  6
ByBlock
 62
     0
370
    -2
100
AcDbLine
 10
82.4257155196275
 20
41.35734075142129
 30
0.0
 11
80.9257155196275
 21
41.60734075142129
 31
0.0
  0
LINE
  5
13ECA
330
13EA1
100
AcDbEntity
  8
0
  6
ByBlock
 62
     0
370
    -2
100
AcDbLine
 10
82.4257155196275
 20
41.85734075142129
 30
0.0
 11
80.9257155196275
 21
41.60734075142129
 31
0.0
  0
LINE
  5
13ECB
330
13EA1
100
AcDbEntity
  8
0
  6
ByBlock
 62
     0
370
    -2
100
AcDbLine
 10
80.9257155196275
 20
41.60734075142129
 30
0.0
 11
82.4257155196275
 21
41.60734075142129
 31
0.0
  0
LINE
  5
13ECC
330
13EA1
100
AcDbEntity
  8
0
  6
ByBlock
 62
     0
370
    -2
100
AcDbLine
 10
108.3214364238225
 20
41.85734075142129
 30
0.0
 11
109.8214364238225
 21
41.60734075142129
 31
0.0
  0
LINE
  5
13ECD
330
13EA1
100
AcDbEntity
  8
0
  6
ByBlock
 62
     0
370
    -2
100
AcDbLine
 10
108.3214364238225
 20
41.35734075142129
 30
0.0
 11
109.8214364238225
 21
41.60734075142129
 31
0.0
  0
LINE
  5
13ECE
330
13EA1
100
AcDbEntity
  8
0
  6
ByBlock
 62
     0
370
    -2
100
AcDbLine
 10
109.8214364238225
 20
41.60734075142129
 30
0.0
 11
108.3214364238225
 21
41.60734075142129
 31
0.0
  0
TEXT
  5
13ECF
330
13EA1
100
AcDbEntity
  8
AM_5
100
AcDbText
 10
91.25352941265218
 20
42.60734075142129
 30
0.0
 40
3.5
  1
116
100
AcDbText
  0
LINE
  5
13ED0
330
13EA1
100
AcDbEntity
  8
AM_5
 62
     4
370
     9
100
AcDbLine
 10
111.3214361517513
 20
78.74999947020511
 30
0.0
 11
131.4464360953669
 21
78.74999947020511
 31
0.0
  0
LINE
  5
13ED1
330
13EA1
100
AcDbEntity
  8
AM_5
 62
     4
370
     9
100
AcDbLine
 10
128.9464360953669
 20
-0.0000000149905475
 30
0.0
 11
129.4464360953669
 21
-0.0000000149905475
 31
0.0
  0
LINE
  5
13ED2
330
13EA1
100
AcDbEntity
  8
AM_5
 62
     4
370
     9
100
AcDbLine
 10
130.4464360953669
 20
77.24999947020511
 30
0.0
 11
130.4464360953669
 21
1.49999998500945
 31
0.0
  0
LINE
  5
13ED3
330
13EA1
100
AcDbEntity
  8
0
  6
ByBlock
 62
     0
370
    -2
100
AcDbLine
 10
130.1964360953669
 20
77.24999947020511
 30
0.0
 11
130.4464360953669
 21
78.74999947020511
 31
0.0
  0
LINE
  5
13ED4
330
13EA1
100
AcDbEntity
  8
0
  6
ByBlock
 62
     0
370
    -2
100
AcDbLine
 10
130.6964360953669
 20
77.24999947020511
 30
0.0
 11
130.4464360953669
 21
78.74999947020511
 31
0.0
  0
LINE
  5
13ED5
330
13EA1
100
AcDbEntity
  8
0
  6
ByBlock
 62
     0
370
    -2
100
AcDbLine
 10
130.4464360953669
 20
78.74999947020511
 30
0.0
 11
130.4464360953669
 21
77.24999947020511
 31
0.0
  0
LINE
  5
13ED6
330
13EA1
100
AcDbEntity
  8
0
  6
ByBlock
 62
     0
370
    -2
100
AcDbLine
 10
130.6964360953669
 20
1.49999998500945
 30
0.0
 11
130.4464360953669
 21
-0.0000000149905475
 31
0.0
  0
LINE
  5
13ED7
330
13EA1
100
AcDbEntity
  8
0
  6
ByBlock
 62
     0
370
    -2
100
AcDbLine
 10
130.1964360953669
 20
1.49999998500945
 30
0.0
 11
130.4464360953669
 21
-0.0000000149905475
 31
0.0
  0
LINE
  5
13ED8
330
13EA1
100
AcDbEntity
  8
0
  6
ByBlock
 62
     0
370
    -2
100
AcDbLine
 10
130.4464360953669
 20
-0.0000000149905475
 30
0.0
 11
130.4464360953669
 21
1.49999998500945
 31
0.0
  0
TEXT
  5
13ED9
330
13EA1
100
AcDbEntity
  8
AM_5
100
AcDbText
 10
129.4464360953669
 20
35.20833306094062
 30
0.0
 40
3.5
  1
315
 50
90.0
100
AcDbText
  0
TEXT
  5
13EDA
330
13EA1
100
AcDbEntity
  8
文字
100
AcDbText
 10
123.8197515571723
 20
-19.54566128135398
 30
0.0
 40
3.5
  1
A
 50
359.9999657426223
100
AcDbText
  0
LINE
  5
13EDB
330
13EA1
100
AcDbEntity
  8
仮想線
  6
HIDDEN
100
AcDbLine
 10
122.4459791556509
 20
-15.08855529737324
 30
0.0
 11
115.3539623240141
 21
-9.298272045075904
 31
0.0
  0
LINE
  5
13EDC
330
13EA1
100
AcDbEntity
  8
仮想線
  6
HIDDEN
100
AcDbLine
 10
123.1530859368373
 20
-20.79566207855958
 30
0.0
 11
127.1530859368374
 21
-20.79566207855946
 31
0.0
1001
GENIUS_GENREC_14
1002
{
1000
PYDIR
1011
122.1530859368374
1021
-14.7956620785597
1031
0.0
1002
}
1002
{
1000
PXDIR
1011
128.1530859368372
1021
-20.79566207855958
1031
0.0
1002
}
1002
{
1000
PORI
1011
122.1530859368374
1021
-20.79566207855958
1031
0.0
1002
}
1002
{
1000
PINS
1011
122.1530859368374
1021
-20.79566207855958
1031
0.0
1002
}
1002
{
1000
HVAL
1000
30
1002
}
1002
{
1000
H
1070
     2
1002
}
1002
{
1000
WVAL
1000
30
1002
}
1002
{
1000
W
1070
     2
1002
}
1002
{
1000
C
1070
     1
1002
}
1001
GENIUS_GENOBJ-N-REC_13
1002
{
1000
OWNER
1000
GEN
1002
}
1001
GENIUS_GENODEF_13
1002
{
1000
HIER
1070
     0
1002
}
1002
{
1000
MANEDIT
1070
     0
1002
}
1002
{
1000
NOSEL
1070
     0
1002
}
1002
{
1000
BEHIND
1070
     0
1002
}
1002
{
1000
OTHER
1070
     0
1002
}
1002
{
1000
REACTOR
1002
}
  0
ARC
  5
13EDD
330
13EA1
100
AcDbEntity
  8
仮想線
  6
HIDDEN
100
AcDbCircle
 10
127.1530859368374
 20
-19.79566207855951
 30
0.0
 40
0.9999999999999571
100
AcDbArc
 50
270.0
 51
0.0
1001
GENIUS_GENREC_14
1002
{
1000
PYDIR
1011
122.1530859368374
1021
-14.7956620785597
1031
0.0
1002
}
1002
{
1000
PXDIR
1011
128.1530859368372
1021
-20.79566207855958
1031
0.0
1002
}
1002
{
1000
PORI
1011
122.1530859368374
1021
-20.79566207855958
1031
0.0
1002
}
1002
{
1000
PINS
1011
122.1530859368374
1021
-20.79566207855958
1031
0.0
1002
}
1002
{
1000
HVAL
1000
30
1002
}
1002
{
1000
H
1070
     2
1002
}
1002
{
1000
WVAL
1000
30
1002
}
1002
{
1000
W
1070
     2
1002
}
1002
{
1000
C
1070
     1
1002
}
1001
GENIUS_GENOBJ-N-REC_13
1002
{
1000
OWNER
1000
GEN
1002
}
1001
GENIUS_GENODEF_13
1002
{
1000
HIER
1070
     0
1002
}
1002
{
1000
MANEDIT
1070
     0
1002
}
1002
{
1000
NOSEL
1070
     0
1002
}
1002
{
1000
BEHIND
1070
     0
1002
}
1002
{
1000
OTHER
1070
     0
1002
}
1002
{
1000
REACTOR
1002
}
  0
LINE
  5
13EDE
330
13EA1
100
AcDbEntity
  8
仮想線
  6
HIDDEN
100
AcDbLine
 10
128.1530859368374
 20
-19.7956620785595
 30
0.0
 11
128.1530859368372
 21
-15.79566207855959
 31
0.0
1001
GENIUS_GENREC_14
1002
{
1000
PYDIR
1011
122.1530859368374
1021
-14.7956620785597
1031
0.0
1002
}
1002
{
1000
PXDIR
1011
128.1530859368372
1021
-20.79566207855958
1031
0.0
1002
}
1002
{
1000
PORI
1011
122.1530859368374
1021
-20.79566207855958
1031
0.0
1002
}
1002
{
1000
PINS
1011
122.1530859368374
1021
-20.79566207855958
1031
0.0
1002
}
1002
{
1000
HVAL
1000
30
1002
}
1002
{
1000
H
1070
     2
1002
}
1002
{
1000
WVAL
1000
30
1002
}
1002
{
1000
W
1070
     2
1002
}
1002
{
1000
C
1070
     1
1002
}
1001
GENIUS_GENOBJ-N-REC_13
1002
{
1000
OWNER
1000
GEN
1002
}
1001
GENIUS_GENODEF_13
1002
{
1000
HIER
1070
     0
1002
}
1002
{
1000
MANEDIT
1070
     0
1002
}
1002
{
1000
NOSEL
1070
     0
1002
}
1002
{
1000
BEHIND
1070
     0
1002
}
1002
{
1000
OTHER
1070
     0
1002
}
1002
{
1000
REACTOR
1002
}
  0
ARC
  5
13EDF
330
13EA1
100
AcDbEntity
  8
仮想線
  6
HIDDEN
100
AcDbCircle
 10
127.1530859368373
 20
-15.7956620785596
 30
0.0
 40
1.0
100
AcDbArc
 50
0.0
 51
90.0
1001
GENIUS_GENREC_14
1002
{
1000
PYDIR
1011
122.1530859368374
1021
-14.7956620785597
1031
0.0
1002
}
1002
{
1000
PXDIR
1011
128.1530859368372
1021
-20.79566207855958
1031
0.0
1002
}
1002
{
1000
PORI
1011
122.1530859368374
1021
-20.79566207855958
1031
0.0
1002
}
1002
{
1000
PINS
1011
122.1530859368374
1021
-20.79566207855958
1031
0.0
1002
}
1002
{
1000
HVAL
1000
30
1002
}
1002
{
1000
H
1070
     2
1002
}
1002
{
1000
WVAL
1000
30
1002
}
1002
{
1000
W
1070
     2
1002
}
1002
{
1000
C
1070
     1
1002
}
1001
GENIUS_GENOBJ-N-REC_13
1002
{
1000
OWNER
1000
GEN
1002
}
1001
GENIUS_GENODEF_13
1002
{
1000
HIER
1070
     0
1002
}
1002
{
1000
MANEDIT
1070
     0
1002
}
1002
{
1000
NOSEL
1070
     0
1002
}
1002
{
1000
BEHIND
1070
     0
1002
}
1002
{
1000
OTHER
1070
     0
1002
}
1002
{
1000
REACTOR
1002
}
  0
LINE
  5
13EE0
330
13EA1
100
AcDbEntity
  8
仮想線
  6
HIDDEN
100
AcDbLine
 10
127.1530859368373
 20
-14.7956620785596
 30
0.0
 11
123.1530859368374
 21
-14.79566207855978
 31
0.0
1001
GENIUS_GENREC_14
1002
{
1000
PYDIR
1011
122.1530859368374
1021
-14.7956620785597
1031
0.0
1002
}
1002
{
1000
PXDIR
1011
128.1530859368372
1021
-20.79566207855958
1031
0.0
1002
}
1002
{
1000
PORI
1011
122.1530859368374
1021
-20.79566207855958
1031
0.0
1002
}
1002
{
1000
PINS
1011
122.1530859368374
1021
-20.79566207855958
1031
0.0
1002
}
1002
{
1000
HVAL
1000
30
1002
}
1002
{
1000
H
1070
     2
1002
}
1002
{
1000
WVAL
1000
30
1002
}
1002
{
1000
W
1070
     2
1002
}
1002
{
1000
C
1070
     1
1002
}
1001
GENIUS_GENOBJ-N-REC_13
1002
{
1000
OWNER
1000
GEN
1002
}
1001
GENIUS_GENODEF_13
1002
{
1000
HIER
1070
     0
1002
}
1002
{
1000
MANEDIT
1070
     0
1002
}
1002
{
1000
NOSEL
1070
     0
1002
}
1002
{
1000
BEHIND
1070
     0
1002
}
1002
{
1000
OTHER
1070
     0
1002
}
1002
{
1000
REACTOR
1002
}
  0
ARC
  5
13EE1
330
13EA1
100
AcDbEntity
  8
仮想線
  6
HIDDEN
100
AcDbCircle
 10
123.1530859368374
 20
-15.79566207855978
 30
0.0
 40
0.9999999999999927
100
AcDbArc
 50
90.0
 51
179.9999999999966
1001
GENIUS_GENREC_14
1002
{
1000
PYDIR
1011
122.1530859368374
1021
-14.7956620785597
1031
0.0
1002
}
1002
{
1000
PXDIR
1011
128.1530859368372
1021
-20.79566207855958
1031
0.0
1002
}
1002
{
1000
PORI
1011
122.1530859368374
1021
-20.79566207855958
1031
0.0
1002
}
1002
{
1000
PINS
1011
122.1530859368374
1021
-20.79566207855958
1031
0.0
1002
}
1002
{
1000
HVAL
1000
30
1002
}
1002
{
1000
H
1070
     2
1002
}
1002
{
1000
WVAL
1000
30
1002
}
1002
{
1000
W
1070
     2
1002
}
1002
{
1000
C
1070
     1
1002
}
1001
GENIUS_GENOBJ-N-REC_13
1002
{
1000
OWNER
1000
GEN
1002
}
1001
GENIUS_GENODEF_13
1002
{
1000
HIER
1070
     0
1002
}
1002
{
1000
MANEDIT
1070
     0
1002
}
1002
{
1000
NOSEL
1070
     0
1002
}
1002
{
1000
BEHIND
1070
     0
1002
}
1002
{
1000
OTHER
1070
     0
1002
}
1002
{
1000
REACTOR
1002
}
  0
LINE
  5
13EE2
330
13EA1
100
AcDbEntity
  8
仮想線
  6
HIDDEN
100
AcDbLine
 10
122.1530859368374
 20
-15.79566207855974
 30
0.0
 11
122.1530859368373
 21
-19.79566207855959
 31
0.0
1001
GENIUS_GENREC_14
1002
{
1000
PYDIR
1011
122.1530859368374
1021
-14.7956620785597
1031
0.0
1002
}
1002
{
1000
PXDIR
1011
128.1530859368372
1021
-20.79566207855958
1031
0.0
1002
}
1002
{
1000
PORI
1011
122.1530859368374
1021
-20.79566207855958
1031
0.0
1002
}
1002
{
1000
PINS
1011
122.1530859368374
1021
-20.79566207855958
1031
0.0
1002
}
1002
{
1000
HVAL
1000
30
1002
}
1002
{
1000
H
1070
     2
1002
}
1002
{
1000
WVAL
1000
30
1002
}
1002
{
1000
W
1070
     2
1002
}
1002
{
1000
C
1070
     1
1002
}
1001
GENIUS_GENOBJ-N-REC_13
1002
{
1000
OWNER
1000
GEN
1002
}
1001
GENIUS_GENODEF_13
1002
{
1000
HIER
1070
     0
1002
}
1002
{
1000
MANEDIT
1070
     0
1002
}
1002
{
1000
NOSEL
1070
     0
1002
}
1002
{
1000
BEHIND
1070
     0
1002
}
1002
{
1000
OTHER
1070
     0
1002
}
1002
{
1000
REACTOR
1002
}
  0
ARC
  5
13EE3
330
13EA1
100
AcDbEntity
  8
仮想線
  6
HIDDEN
100
AcDbCircle
 10
123.1530859368373
 20
-19.79566207855959
 30
0.0
 40
0.9999999999999715
100
AcDbArc
 50
180.0
 51
270.0
1001
GENIUS_GENREC_14
1002
{
1000
PYDIR
1011
122.1530859368374
1021
-14.7956620785597
1031
0.0
1002
}
1002
{
1000
PXDIR
1011
128.1530859368372
1021
-20.79566207855958
1031
0.0
1002
}
1002
{
1000
PORI
1011
122.1530859368374
1021
-20.79566207855958
1031
0.0
1002
}
1002
{
1000
PINS
1011
122.1530859368374
1021
-20.79566207855958
1031
0.0
1002
}
1002
{
1000
HVAL
1000
30
1002
}
1002
{
1000
H
1070
     2
1002
}
1002
{
1000
WVAL
1000
30
1002
}
1002
{
1000
W
1070
     2
1002
}
1002
{
1000
C
1070
     1
1002
}
1001
GENIUS_GENOBJ-N-REC_13
1002
{
1000
OWNER
1000
GEN
1002
}
1001
GENIUS_GENODEF_13
1002
{
1000
HIER
1070
     0
1002
}
1002
{
1000
MANEDIT
1070
     0
1002
}
1002
{
1000
NOSEL
1070
     0
1002
}
1002
{
1000
BEHIND
1070
     0
1002
}
1002
{
1000
OTHER
1070
     0
1002
}
1002
{
1000
REACTOR
1002
}
  0
LINE
  5
13EE4
330
13EA1
100
AcDbEntity
  8
AM_5
 62
     4
370
     9
100
AcDbLine
 10
10.1250001844226
 20
186.1254391323203
 30
0.0
 11
30.25000012803829
 21
186.1254391323203
 31
0.0
  0
LINE
  5
13EE5
330
13EA1
100
AcDbEntity
  8
AM_5
 62
     4
370
     9
100
AcDbLine
 10
10.125000171355
 20
141.2367761312733
 30
0.0
 11
30.25000012803829
 21
141.2367761312733
 31
0.0
  0
LINE
  5
13EE6
330
13EA1
100
AcDbEntity
  8
AM_5
 62
     4
370
     9
100
AcDbLine
 10
29.25000012803831
 20
184.6254391323203
 30
0.0
 11
29.25000012803828
 21
142.7367761312733
 31
0.0
  0
LINE
  5
13EE7
330
13EA1
100
AcDbEntity
  8
0
  6
ByBlock
 62
     0
370
    -2
100
AcDbLine
 10
29.00000012803829
 20
184.6254391323203
 30
0.0
 11
29.25000012803831
 21
186.1254391323203
 31
0.0
  0
LINE
  5
13EE8
330
13EA1
100
AcDbEntity
  8
0
  6
ByBlock
 62
     0
370
    -2
100
AcDbLine
 10
29.50000012803831
 20
184.6254391323203
 30
0.0
 11
29.25000012803831
 21
186.1254391323203
 31
0.0
  0
LINE
  5
13EE9
330
13EA1
100
AcDbEntity
  8
0
  6
ByBlock
 62
     0
370
    -2
100
AcDbLine
 10
29.25000012803831
 20
186.1254391323203
 30
0.0
 11
29.25000012803831
 21
184.6254391323203
 31
0.0
  0
LINE
  5
13EEA
330
13EA1
100
AcDbEntity
  8
0
  6
ByBlock
 62
     0
370
    -2
100
AcDbLine
 10
29.50000012803828
 20
142.7367761312733
 30
0.0
 11
29.25000012803828
 21
141.2367761312733
 31
0.0
  0
LINE
  5
13EEB
330
13EA1
100
AcDbEntity
  8
0
  6
ByBlock
 62
     0
370
    -2
100
AcDbLine
 10
29.00000012803829
 20
142.7367761312733
 30
0.0
 11
29.25000012803828
 21
141.2367761312733
 31
0.0
  0
LINE
  5
13EEC
330
13EA1
100
AcDbEntity
  8
0
  6
ByBlock
 62
     0
370
    -2
100
AcDbLine
 10
29.25000012803828
 20
141.2367761312733
 30
0.0
 11
29.25000012803828
 21
142.7367761312733
 31
0.0
  0
TEXT
  5
13EED
330
13EA1
100
AcDbEntity
  8
AM_5
100
AcDbText
 10
27.08333346137158
 20
157.2644409651301
 30
0.0
 40
3.5
  1
(180)
 50
90.0
100
AcDbText
  0
LINE
  5
13EEE
330
13EA1
100
AcDbEntity
  8
AM_5
 62
     4
370
     9
100
AcDbLine
 10
7.125000184422602
 20
186.1254391323203
 30
0.0
 11
-11.94360419715093
 21
186.1254391323203
 31
0.0
  0
LINE
  5
13EEF
330
13EA1
100
AcDbEntity
  8
AM_5
 62
     4
370
     9
100
AcDbLine
 10
6.375000186851152
 20
177.5004391602486
 30
0.0
 11
-11.94360419715093
 21
177.5004391602486
 31
0.0
  0
LINE
  5
13EF0
330
13EA1
100
AcDbEntity
  8
AM_5
 62
     4
370
     9
100
AcDbLine
 10
-10.94360419715093
 20
184.6254391323203
 30
0.0
 11
-10.94360419715093
 21
179.0004391602486
 31
0.0
  0
LINE
  5
13EF1
330
13EA1
100
AcDbEntity
  8
0
  6
ByBlock
 62
     0
370
    -2
100
AcDbLine
 10
-11.19360419715093
 20
184.6254391323203
 30
0.0
 11
-10.94360419715093
 21
186.1254391323203
 31
0.0
  0
LINE
  5
13EF2
330
13EA1
100
AcDbEntity
  8
0
  6
ByBlock
 62
     0
370
    -2
100
AcDbLine
 10
-10.69360419715093
 20
184.6254391323203
 30
0.0
 11
-10.94360419715093
 21
186.1254391323203
 31
0.0
  0
LINE
  5
13EF3
330
13EA1
100
AcDbEntity
  8
0
  6
ByBlock
 62
     0
370
    -2
100
AcDbLine
 10
-10.94360419715093
 20
186.1254391323203
 30
0.0
 11
-10.94360419715093
 21
184.6254391323203
 31
0.0
  0
LINE
  5
13EF4
330
13EA1
100
AcDbEntity
  8
0
  6
ByBlock
 62
     0
370
    -2
100
AcDbLine
 10
-10.69360419715093
 20
179.0004391602486
 30
0.0
 11
-10.94360419715093
 21
177.5004391602486
 31
0.0
  0
LINE
  5
13EF5
330
13EA1
100
AcDbEntity
  8
0
  6
ByBlock
 62
     0
370
    -2
100
AcDbLine
 10
-11.19360419715093
 20
179.0004391602486
 30
0.0
 11
-10.94360419715093
 21
177.5004391602486
 31
0.0
  0
LINE
  5
13EF6
330
13EA1
100
AcDbEntity
  8
0
  6
ByBlock
 62
     0
370
    -2
100
AcDbLine
 10
-10.94360419715093
 20
177.5004391602486
 30
0.0
 11
-10.94360419715093
 21
179.0004391602486
 31
0.0
  0
TEXT
  5
13EF7
330
13EA1
100
AcDbEntity
  8
AM_5
100
AcDbText
 10
-11.94360419715097
 20
176.4796058129511
 30
0.0
 40
3.5
  1
34.5
 50
90.0
100
AcDbText
  0
TEXT
  5
13EF8
330
13EA1
100
AcDbEntity
  8
図面枠
100
AcDbText
 10
81.76417218445449
 20
-71.17587352537033
 30
0.0
 40
2.5
  1
　・クランプ台取り付け：可
 41
0.9
100
AcDbText
  0
TEXT
  5
13EF9
330
13EA1
100
AcDbEntity
  8
図面枠
100
AcDbText
 10
105.0956007558831
 20
-50.80087352537042
 30
0.0
 40
3.0
  1
2.3kg（標準仕様）
 41
0.9
  7
承認
100
AcDbText
  0
TEXT
  5
13EFA
330
13EA1
100
AcDbEntity
  8
文字
100
AcDbText
 10
60.01417218445453
 20
-33.80087352537042
 30
0.0
 40
3.0
  1
MG-8B
 41
0.9
  7
承認
100
AcDbText
  0
LINE
  5
13EFB
330
13EA1
100
AcDbEntity
  8
図面枠
100
AcDbLine
 10
51.76417218445453
 20
-27.30087352537024
 30
0.0
 11
156.7641721844545
 21
-27.30087352537018
 31
0.0
  0
TEXT
  5
13EFC
330
13EA1
100
AcDbEntity
  8
図面枠
100
AcDbText
 10
60.64417218445452
 20
-43.80087352537056
 30
0.0
 40
3.0
  1
外形寸法
 41
0.9
  7
承認
100
AcDbText
  0
LINE
  5
13EFD
330
13EA1
100
AcDbEntity
  8
図面枠
100
AcDbLine
 10
51.76417218445454
 20
-52.30087352537056
 30
0.0
 11
156.7641721844545
 21
-52.30087352537034
 31
0.0
  0
TEXT
  5
13EFE
330
13EA1
100
AcDbEntity
  8
図面枠
100
AcDbText
 10
59.02417218445453
 20
-56.30087352537056
 30
0.0
 40
3.0
  1
穴あけ寸法
 41
0.9
  7
承認
100
AcDbText
  0
LINE
  5
13EFF
330
13EA1
100
AcDbEntity
  8
図面枠
100
AcDbLine
 10
81.76417218445456
 20
-27.30087352537021
 30
0.0
 11
81.76417218445449
 21
-77.30087352537021
 31
0.0
  0
TEXT
  5
13F00
330
13EA1
100
AcDbEntity
  8
図面枠
100
AcDbText
 10
115.8570293273117
 20
-56.30087352537042
 30
0.0
 40
3.0
  1
\U+220537
 41
0.9
  7
承認
100
AcDbText
  0
TEXT
  5
13F01
330
13EA1
100
AcDbEntity
  8
図面枠
100
AcDbText
 10
60.99131504159735
 20
-61.42587352537055
 30
0.0
 40
3.0
  1
MC加工
 41
0.9
  7
承認
100
AcDbText
  0
TEXT
  5
13F02
330
13EA1
100
AcDbEntity
  8
図面枠
100
AcDbText
 10
118.0041721844546
 20
-61.42587352537052
 30
0.0
 40
3.0
  1
可
 41
0.9
  7
承認
100
AcDbText
  0
LINE
  5
13F03
330
13EA1
100
AcDbEntity
  8
図面枠
100
AcDbLine
 10
51.76417218445457
 20
-47.30087352537056
 30
0.0
 11
156.7641721844546
 21
-47.30087352537034
 31
0.0
  0
LINE
  5
13F04
330
13EA1
100
AcDbEntity
  8
図面枠
100
AcDbLine
 10
156.7641721844545
 20
-37.30087352537064
 30
0.0
 11
51.76417218445449
 21
-37.30087352537059
 31
0.0
  0
TEXT
  5
13F05
330
13EA1
100
AcDbEntity
  8
図面枠
100
AcDbText
 10
63.88417218445453
 20
-51.30087352537049
 30
0.0
 40
3.0
  1
重量
 41
0.9
  7
承認
100
AcDbText
  0
LINE
  5
13F06
330
13EA1
100
AcDbEntity
  8
図面枠
100
AcDbLine
 10
51.76417218445449
 20
-57.30087352537056
 30
0.0
 11
156.7641721844545
 21
-57.30087352537034
 31
0.0
  0
LINE
  5
13F07
330
13EA1
100
AcDbEntity
  8
図面枠
100
AcDbLine
 10
51.76417218445449
 20
-62.55087352537056
 30
0.0
 11
156.7641721844545
 21
-62.55087352537034
 31
0.0
  0
TEXT
  5
13F08
330
13EA1
100
AcDbEntity
  8
図面枠
100
AcDbText
 10
63.8841721844545
 20
-71.42587352537034
 30
0.0
 40
3.0
  1
備考
 41
0.9
  7
承認
100
AcDbText
  0
LINE
  5
13F09
330
13EA1
100
AcDbEntity
  8
図面枠
100
AcDbLine
 10
51.76417218445453
 20
-27.30087352537024
 30
0.0
 11
51.76417218445453
 21
-77.30087352537045
 31
0.0
  0
TEXT
  5
13F0A
330
13EA1
100
AcDbEntity
  8
図面枠
100
AcDbText
 10
-38.55582781554553
 20
-73.45087358204994
 30
0.0
 40
3.0
  1
%%U※改良の為、予告なく仕様・デザインを変更することがあります。ご了承ください。
 41
0.6
100
AcDbText
  0
TEXT
  5
13F0B
330
13EA1
100
AcDbEntity
  8
図面枠
100
AcDbText
 10
-38.55582781554553
 20
-67.45087358204994
 30
0.0
 40
3.0
  1
%%U※固定部分は十分な強度が必要です。
 41
0.6
100
AcDbText
  0
TEXT
  5
13F0C
330
13EA1
100
AcDbEntity
  8
図面枠
100
AcDbText
 10
84.02496706877293
 20
-33.58658781108458
 30
0.0
 40
3.0
  1
A4  尺度 1/ 4
 41
0.6
  7
0.9横
100
AcDbText
  0
LINE
  5
13F0D
330
13EA1
100
AcDbEntity
  8
図面枠
100
AcDbLine
 10
124.0686190959485
 20
-37.30087352537061
 30
0.0
 11
124.0686190959485
 21
-27.30087352537061
 31
0.0
  0
LINE
  5
13F0E
330
13EA1
100
AcDbEntity
  8
図面枠
100
AcDbLine
 10
103.0686190959485
 20
-37.30087352537061
 30
0.0
 11
103.0686190959485
 21
-27.30087352537061
 31
0.0
  0
TEXT
  5
13F0F
330
13EA1
100
AcDbEntity
  8
図面枠
100
AcDbText
 10
105.2543333816627
 20
-33.58658781108489
 30
0.0
 40
3.0
  1
2014/01/08
 41
0.6
  7
0.9横
100
AcDbText
  0
HATCH
  5
13F10
330
13EA1
100
AcDbEntity
  8
0
 62
   172
100
AcDbHatch
 10
0.0
 20
0.0
 30
0.0
210
0.0
220
0.0
230
1.0
  2
SOLID
 70
     1
 71
     0
 91
        1
 92
        1
 93
        4
 72
     1
 10
129.676110335751
 20
-32.36430172871319
 11
131.2192952125563
 21
-34.83391377175877
 72
     1
 10
131.2192952125563
 20
-34.83391377175865
 11
134.2336649661668
 21
-30.00991377175858
 72
     1
 10
134.2336649661669
 20
-30.00991377175881
 11
131.1472952125563
 21
-30.00991377175881
 72
     1
 10
131.1472952125563
 20
-30.00991377175881
 11
129.6761103357509
 21
-32.36430172871331
 97
        0
 75
     0
 76
     1
 98
        1
 10
110.7345543235235
 20
-51.16740535330751
1001
ACAD
1010
0.0
1020
0.0
1030
0.0
1001
GENIUS_GENOBJ-N-HTC_13
1002
{
1000
OWNER
1000
GEN
1002
}
1001
GENIUS_GENODEF_13
1002
{
1000
HIER
1070
     0
1002
}
1002
{
1000
MANEDIT
1070
     0
1002
}
1002
{
1000
NOSEL
1070
     0
1002
}
1002
{
1000
BEHIND
1070
     0
1002
}
1002
{
1000
OTHER
1070
     0
1002
}
1002
{
1000
REACTOR
1002
}
1001
GENIUS_GENHATCH_13
1002
{
1000
DATA
1040
45.0
1042
1.900000000000003
1000
_U
1070
     0
1011
132.376181539064
1021
-30.89053232069665
1031
0.0
1002
}
1002
{
1000
UCS
1010
0.0
1020
0.0
1030
0.0
1010
1.0
1020
0.0
1030
0.0
1010
0.0
1020
1.0
1030
0.0
1002
}
  0
TEXT
  5
13F11
330
13EA1
100
AcDbEntity
  8
0
 62
   172
100
AcDbText
 10
134.3820093146158
 20
-32.34821511776745
 30
0.0
 40
1.511999999999999
  1
株式
100
AcDbText
  0
TEXT
  5
13F12
330
13EA1
100
AcDbEntity
  8
0
 62
   172
100
AcDbText
 10
134.3552820418887
 20
-34.36039693594922
 30
0.0
 40
1.511999999999999
  1
会社
100
AcDbText
  0
HATCH
  5
13F13
330
13EA1
100
AcDbEntity
  8
0
 62
   172
100
AcDbHatch
 10
0.0
 20
0.0
 30
0.0
210
0.0
220
0.0
230
1.0
  2
SOLID
 70
     1
 71
     0
 91
        3
 92
        1
 93
       10
 72
     2
 10
151.6544952125563
 20
-31.24111377175864
 40
0.4319999999999919
 50
359.9999999999994
 51
450.0000000000008
 73
     0
 72
     1
 10
151.6544952125563
 20
-31.67311377175888
 11
151.3952952125563
 21
-31.67311377175888
 72
     1
 10
151.3952952125563
 20
-31.67311377175888
 11
151.3952952125563
 21
-33.24991377175893
 72
     1
 10
151.3952952125563
 20
-33.24991377175871
 11
151.9568952125563
 21
-33.24991377175871
 72
     1
 10
151.9568952125563
 20
-33.24991377175871
 11
151.9568952125563
 21
-34.54591377175876
 72
     1
 10
151.9568952125563
 20
-34.54591377175887
 11
154.5272952125563
 21
-34.54591377175887
 72
     2
 10
154.4626198147657
 20
-33.22123837396822
 40
1.326253300312942
 50
272.7951656096049
 51
357.2048343903955
 73
     1
 72
     1
 10
155.7872952125561
 20
-33.28591377175877
 11
155.7872952125561
 21
-30.69391377175878
 72
     1
 10
155.7872952125561
 20
-30.69391377175867
 11
152.0864952125561
 21
-30.69391377175867
 72
     1
 10
152.0864952125563
 20
-30.69391377175867
 11
152.0864952125563
 21
-31.24111377175865
 97
        0
 92
       16
 93
        5
 72
     2
 10
153.8792952125562
 20
-32.5299137717588
 40
0.3960000000000001
 50
0.0000000000006107
 51
90.0
 73
     0
 72
     1
 10
153.8792952125562
 20
-32.92591377175875
 11
152.7416952125562
 21
-32.92591377175875
 72
     2
 10
152.2260452173155
 20
-31.87875177575648
 40
1.167237406641532
 50
296.2168428093594
 51
343.7226386468612
 73
     1
 72
     1
 10
153.3464952125563
 20
-32.20591377175884
 11
154.2752952125563
 21
-32.20591377175884
 72
     1
 10
154.2752952125562
 20
-32.20591377175884
 11
154.2752952125562
 21
-32.52991377175891
 97
        0
 92
       16
 93
       14
 72
     2
 10
154.4552952125561
 20
-33.21391377175865
 40
0.9719999999999997
 50
360.0
 51
450.0
 73
     0
 72
     1
 10
154.4552952125561
 20
-34.18591377175886
 11
152.3168952125563
 21
-34.18591377175886
 72
     1
 10
152.3168952125563
 20
-34.18591377175886
 11
152.3168952125563
 21
-33.28591377175888
 72
     1
 10
152.3168952125563
 20
-33.28591377175877
 11
154.0232952125561
 21
-33.28591377175877
 72
     2
 10
154.0232952125561
 20
-32.67391377175869
 40
0.6120000000000021
 50
270.0
 51
359.9999999999998
 73
     1
 72
     1
 10
154.6352952125563
 20
-32.67391377175869
 11
154.6352952125563
 21
-31.84591377175871
 72
     1
 10
154.6352952125563
 20
-31.84591377175883
 11
153.1232952125563
 21
-31.84591377175883
 72
     2
 10
151.8950551289541
 20
-31.55786567143632
 40
1.26156466780984
 50
13.19854039234393
 51
87.19031742312592
 73
     0
 72
     1
 10
151.9568952125563
 20
-32.8179137717588
 11
151.755295212556
 21
-32.8179137717588
 72
     1
 10
151.7552952125563
 20
-32.8179137717588
 11
151.7552952125563
 21
-32.03311377175879
 72
     2
 10
151.7552952125563
 20
-31.34191377175881
 40
0.6912000000000017
 50
270.0000000000007
 51
359.9999999999998
 73
     1
 72
     1
 10
152.4464952125561
 20
-31.34191377175881
 11
152.4464952125561
 21
-31.05391377175879
 72
     1
 10
152.4464952125561
 20
-31.05391377175879
 11
155.4272952125562
 21
-31.05391377175879
 72
     1
 10
155.4272952125562
 20
-31.05391377175879
 11
155.4272952125562
 21
-33.21391377175888
 97
        0
 75
     0
 76
     1
 98
        1
 10
110.8945543235235
 20
-43.96740535330756
1001
ACAD
1010
0.0
1020
0.0
1030
0.0
1001
GENIUS_GENOBJ-N-HTC_13
1002
{
1000
OWNER
1000
GEN
1002
}
1001
GENIUS_GENODEF_13
1002
{
1000
HIER
1070
     0
1002
}
1002
{
1000
MANEDIT
1070
     0
1002
}
1002
{
1000
NOSEL
1070
     0
1002
}
1002
{
1000
BEHIND
1070
     0
1002
}
1002
{
1000
OTHER
1070
     0
1002
}
1002
{
1000
REACTOR
1002
}
1001
GENIUS_GENHATCH_13
1002
{
1000
DATA
1040
45.0
1042
1.900000000000003
1000
_U
1070
     0
1011
154.6401682504841
1021
-30.94708476255079
1031
0.0
1002
}
1002
{
1000
UCS
1010
0.0
1020
0.0
1030
0.0
1010
1.0
1020
0.0
1030
0.0
1010
0.0
1020
1.0
1030
0.0
1002
}
  0
HATCH
  5
13F14
330
13EA1
100
AcDbEntity
  8
0
 62
   172
100
AcDbHatch
 10
0.0
 20
0.0
 30
0.0
210
0.0
220
0.0
230
1.0
  2
SOLID
 70
     1
 71
     0
 91
        2
 92
        1
 93
        8
 72
     1
 10
148.8032952125563
 20
-30.69391377175867
 11
147.1472952125563
 21
-30.69391377175867
 72
     1
 10
147.1472952125563
 20
-30.69391377175867
 11
147.1472952125563
 21
-34.54591377175876
 72
     1
 10
147.1472952125563
 20
-34.54591377175887
 11
148.8032952125561
 21
-34.54591377175887
 72
     1
 10
148.8032952125563
 20
-34.54591377175887
 11
148.8032952125563
 21
-33.24991377175882
 72
     1
 10
148.8032952125563
 20
-33.24991377175871
 11
150.9992952125563
 21
-33.24991377175871
 72
     1
 10
150.9992952125561
 20
-33.24991377175871
 11
150.9992952125561
 21
-31.6299137717587
 72
     1
 10
150.9992952125561
 20
-31.62991377175881
 11
148.8032952125561
 21
-31.62991377175881
 72
     1
 10
148.8032952125563
 20
-31.62991377175881
 11
148.8032952125563
 21
-30.6939137717589
 97
        0
 92
       16
 93
        8
 72
     1
 10
150.6032952125563
 20
-32.85391377175876
 11
148.4072952125563
 21
-32.85391377175876
 72
     1
 10
148.4072952125563
 20
-32.85391377175876
 11
148.4072952125563
 21
-34.1499137717588
 72
     1
 10
148.4072952125563
 20
-34.1499137717588
 11
147.5432952125562
 21
-34.1499137717588
 72
     1
 10
147.5432952125563
 20
-34.1499137717588
 11
147.5432952125563
 21
-31.08991377175874
 72
     1
 10
147.5432952125563
 20
-31.08991377175874
 11
148.4072952125563
 21
-31.08991377175874
 72
     1
 10
148.4072952125563
 20
-31.08991377175874
 11
148.4072952125563
 21
-32.02591377175866
 72
     1
 10
148.4072952125563
 20
-32.02591377175878
 11
150.6032952125563
 21
-32.02591377175878
 72
     1
 10
150.6032952125563
 20
-32.02591377175878
 11
150.6032952125563
 21
-32.85391377175876
 97
        0
 75
     0
 76
     1
 98
        1
 10
110.8945543235235
 20
-43.96740535330756
1001
ACAD
1010
0.0
1020
0.0
1030
0.0
1001
GENIUS_GENOBJ-N-HTC_13
1002
{
1000
OWNER
1000
GEN
1002
}
1001
GENIUS_GENODEF_13
1002
{
1000
HIER
1070
     0
1002
}
1002
{
1000
MANEDIT
1070
     0
1002
}
1002
{
1000
NOSEL
1070
     0
1002
}
1002
{
1000
BEHIND
1070
     0
1002
}
1002
{
1000
OTHER
1070
     0
1002
}
1002
{
1000
REACTOR
1002
}
1001
GENIUS_GENHATCH_13
1002
{
1000
DATA
1040
45.0
1042
1.900000000000003
1000
_U
1070
     0
1011
150.5345279494553
1021
-31.87122871679451
1031
0.0
1002
}
1002
{
1000
UCS
1010
0.0
1020
0.0
1030
0.0
1010
1.0
1020
0.0
1030
0.0
1010
0.0
1020
1.0
1030
0.0
1002
}
  0
HATCH
  5
13F15
330
13EA1
100
AcDbEntity
  8
0
 62
   172
100
AcDbHatch
 10
0.0
 20
0.0
 30
0.0
210
0.0
220
0.0
230
1.0
  2
SOLID
 70
     1
 71
     0
 91
        4
 92
        1
 93
        5
 72
     1
 10
143.2952952125562
 20
-34.54591377175887
 11
145.6712952125562
 21
-34.54591377175887
 72
     2
 10
145.6712952125563
 20
-33.39391377175871
 40
1.152
 50
270.0
 51
360.0
 73
     1
 72
     1
 10
146.8232952125561
 20
-33.39391377175871
 11
146.8232952125561
 21
-31.77391377175871
 72
     1
 10
146.8232952125561
 20
-31.77391377175871
 11
143.2952952125563
 21
-31.77391377175871
 72
     1
 10
143.2952952125562
 20
-31.77391377175871
 11
143.2952952125562
 21
-34.54591377175876
 97
        0
 92
       16
 93
        4
 72
     1
 10
144.3032952125563
 20
-32.88991377175869
 11
143.7272952125563
 21
-32.88991377175869
 72
     1
 10
143.7272952125561
 20
-32.88991377175869
 11
143.7272952125561
 21
-32.16991377175868
 72
     1
 10
143.7272952125561
 20
-32.16991377175878
 11
144.3032952125561
 21
-32.16991377175878
 72
     1
 10
144.3032952125563
 20
-32.16991377175878
 11
144.3032952125563
 21
-32.88991377175881
 97
        0
 92
       16
 93
        4
 72
     1
 10
145.3112952125563
 20
-32.88991377175869
 11
144.6992952125563
 21
-32.88991377175869
 72
     1
 10
144.6992952125563
 20
-32.88991377175869
 11
144.6992952125563
 21
-32.16991377175868
 72
     1
 10
144.6992952125563
 20
-32.16991377175878
 11
145.3112952125563
 21
-32.16991377175878
 72
     1
 10
145.3112952125563
 20
-32.16991377175878
 11
145.3112952125563
 21
-32.88991377175881
 97
        0
 92
       16
 93
        8
 72
     2
 10
145.4912952125563
 20
-33.21391377175865
 40
0.9
 50
360.0
 51
450.0
 73
     0
 72
     1
 10
145.4912952125563
 20
-34.11391377175874
 11
143.7272952125562
 21
-34.11391377175874
 72
     1
 10
143.7272952125561
 20
-34.11391377175874
 11
143.7272952125561
 21
-33.42991377175877
 72
     1
 10
143.7272952125561
 20
-33.42991377175877
 11
145.2752952125561
 21
-33.42991377175877
 72
     2
 10
145.2752952125562
 20
-32.99791377175875
 40
0.4320000000000002
 50
270.0
 51
360.0
 73
     1
 72
     1
 10
145.7072952125563
 20
-32.99791377175875
 11
145.7072952125563
 21
-32.16991377175878
 72
     1
 10
145.7072952125563
 20
-32.16991377175878
 11
146.3912952125563
 21
-32.16991377175878
 72
     1
 10
146.3912952125563
 20
-32.16991377175878
 11
146.3912952125563
 21
-33.21391377175888
 97
        0
 75
     0
 76
     1
 98
        1
 10
110.8945543235235
 20
-43.96740535330756
1001
ACAD
1010
0.0
1020
0.0
1030
0.0
1001
GENIUS_GENOBJ-N-HTC_13
1002
{
1000
OWNER
1000
GEN
1002
}
1001
GENIUS_GENODEF_13
1002
{
1000
HIER
1070
     0
1002
}
1002
{
1000
MANEDIT
1070
     0
1002
}
1002
{
1000
NOSEL
1070
     0
1002
}
1002
{
1000
BEHIND
1070
     0
1002
}
1002
{
1000
OTHER
1070
     0
1002
}
1002
{
1000
REACTOR
1002
}
1001
GENIUS_GENHATCH_13
1002
{
1000
DATA
1040
45.0
1042
1.900000000000003
1000
_U
1070
     0
1011
145.7712327229108
1021
-32.03213512060056
1031
0.0
1002
}
1002
{
1000
UCS
1010
0.0
1020
0.0
1030
0.0
1010
1.0
1020
0.0
1030
0.0
1010
0.0
1020
1.0
1030
0.0
1002
}
  0
HATCH
  5
13F16
330
13EA1
100
AcDbEntity
  8
0
 62
   172
100
AcDbHatch
 10
0.0
 20
0.0
 30
0.0
210
0.0
220
0.0
230
1.0
  2
SOLID
 70
     1
 71
     0
 91
        2
 92
        1
 93
        4
 72
     1
 10
138.9032952125562
 20
-32.27791377175873
 11
142.5032952125562
 21
-32.27791377175873
 72
     1
 10
142.5032952125563
 20
-32.27791377175873
 11
142.5032952125563
 21
-30.69391377175867
 72
     1
 10
142.5032952125563
 20
-30.69391377175867
 11
138.9032952125563
 21
-30.69391377175867
 72
     1
 10
138.9032952125562
 20
-30.69391377175867
 11
138.9032952125562
 21
-32.27791377175873
 97
        0
 92
       16
 93
        4
 72
     1
 10
142.0712952125561
 20
-31.84591377175883
 11
139.3352952125562
 21
-31.84591377175883
 72
     1
 10
139.3352952125562
 20
-31.84591377175883
 11
139.3352952125562
 21
-31.1259137717588
 72
     1
 10
139.3352952125562
 20
-31.1259137717588
 11
142.0712952125563
 21
-31.1259137717588
 72
     1
 10
142.0712952125561
 20
-31.1259137717588
 11
142.0712952125561
 21
-31.84591377175883
 97
        0
 75
     0
 76
     1
 98
        1
 10
110.8945543235235
 20
-43.96740535330756
1001
ACAD
1010
0.0
1020
0.0
1030
0.0
1001
GENIUS_GENOBJ-N-HTC_13
1002
{
1000
OWNER
1000
GEN
1002
}
1001
GENIUS_GENODEF_13
1002
{
1000
HIER
1070
     0
1002
}
1002
{
1000
MANEDIT
1070
     0
1002
}
1002
{
1000
NOSEL
1070
     0
1002
}
1002
{
1000
BEHIND
1070
     0
1002
}
1002
{
1000
OTHER
1070
     0
1002
}
1002
{
1000
REACTOR
1002
}
1001
GENIUS_GENHATCH_13
1002
{
1000
DATA
1040
45.0
1042
1.900000000000003
1000
_U
1070
     0
1011
142.2080796534305
1021
-30.94780635774628
1031
0.0
1002
}
1002
{
1000
UCS
1010
0.0
1020
0.0
1030
0.0
1010
1.0
1020
0.0
1030
0.0
1010
0.0
1020
1.0
1030
0.0
1002
}
  0
HATCH
  5
13F17
330
13EA1
100
AcDbEntity
  8
0
 62
   172
100
AcDbHatch
 10
0.0
 20
0.0
 30
0.0
210
0.0
220
0.0
230
1.0
  2
SOLID
 70
     1
 71
     0
 91
        2
 92
        1
 93
        4
 72
     1
 10
138.4712952125563
 20
-34.54591377175887
 11
142.9352952125563
 21
-34.54591377175887
 72
     1
 10
142.9352952125563
 20
-34.54591377175887
 11
142.9352952125563
 21
-32.85391377175886
 72
     1
 10
142.9352952125563
 20
-32.85391377175876
 11
138.4712952125563
 21
-32.85391377175876
 72
     1
 10
138.4712952125563
 20
-32.85391377175876
 11
138.4712952125563
 21
-34.54591377175876
 97
        0
 92
       16
 93
        4
 72
     1
 10
142.5032952125563
 20
-34.11391377175874
 11
138.9032952125563
 21
-34.11391377175874
 72
     1
 10
138.9032952125562
 20
-34.11391377175874
 11
138.9032952125562
 21
-33.28591377175877
 72
     1
 10
138.9032952125562
 20
-33.28591377175877
 11
142.5032952125562
 21
-33.28591377175877
 72
     1
 10
142.5032952125563
 20
-33.28591377175877
 11
142.5032952125563
 21
-34.11391377175874
 97
        0
 75
     0
 76
     1
 98
        1
 10
110.8945543235235
 20
-43.96740535330756
1001
ACAD
1010
0.0
1020
0.0
1030
0.0
1001
GENIUS_GENOBJ-N-HTC_13
1002
{
1000
OWNER
1000
GEN
1002
}
1001
GENIUS_GENODEF_13
1002
{
1000
HIER
1070
     0
1002
}
1002
{
1000
MANEDIT
1070
     0
1002
}
1002
{
1000
NOSEL
1070
     0
1002
}
1002
{
1000
BEHIND
1070
     0
1002
}
1002
{
1000
OTHER
1070
     0
1002
}
1002
{
1000
REACTOR
1002
}
1001
GENIUS_GENHATCH_13
1002
{
1000
DATA
1040
45.0
1042
1.900000000000003
1000
_U
1070
     0
1011
142.5902863041661
1021
-32.94395708372525
1031
0.0
1002
}
1002
{
1000
UCS
1010
0.0
1020
0.0
1030
0.0
1010
1.0
1020
0.0
1030
0.0
1010
0.0
1020
1.0
1030
0.0
1002
}
  0
HATCH
  5
13F18
330
13EA1
100
AcDbEntity
  8
0
 62
   172
100
AcDbHatch
 10
0.0
 20
0.0
 30
0.0
210
0.0
220
0.0
230
1.0
  2
SOLID
 70
     1
 71
     0
 91
        1
 92
        1
 93
        3
 72
     1
 10
125.0912952125563
 20
-34.83391377175865
 11
131.0312952125563
 21
-34.83391377175865
 72
     1
 10
131.0312952125563
 20
-34.83391377175865
 11
128.0432952125563
 21
-30.05211419898393
 72
     1
 10
128.0432952125563
 20
-30.05211419898405
 11
125.0912952125563
 21
-34.83391377175877
 97
        0
 75
     0
 76
     1
 98
        1
 10
110.6185543235235
 20
-43.96740535330756
1001
ACAD
1010
0.0
1020
0.0
1030
0.0
1001
GENIUS_GENOBJ-N-HTC_13
1002
{
1000
OWNER
1000
GEN
1002
}
1001
GENIUS_GENODEF_13
1002
{
1000
HIER
1070
     0
1002
}
1002
{
1000
MANEDIT
1070
     0
1002
}
1002
{
1000
NOSEL
1070
     0
1002
}
1002
{
1000
BEHIND
1070
     0
1002
}
1002
{
1000
OTHER
1070
     0
1002
}
1002
{
1000
REACTOR
1002
}
1001
GENIUS_GENHATCH_13
1002
{
1000
DATA
1040
45.0
1042
1.900000000000003
1000
_U
1070
     0
1011
129.1162916669644
1021
-32.78368745540098
1031
0.0
1002
}
1002
{
1000
UCS
1010
0.0
1020
0.0
1030
0.0
1010
1.0
1020
0.0
1030
0.0
1010
0.0
1020
1.0
1030
0.0
1002
}
  0
ENDBLK
  5
13F1C
330
13EA1
100
AcDbEntity
  8
0
100
AcDbBlockEnd
  0
ENDSEC
  0
SECTION
  2
ENTITIES
  0
HATCH
  5
7145
330
37
100
AcDbEntity
  8
弱線
100
AcDbHatch
 10
0.0
 20
0.0
 30
0.0
210
0.0
220
0.0
230
1.0
  2
DASH
 70
     0
 71
     0
 91
        1
 92
        1
 93
        8
 72
     1
 10
782.8758843871312
 20
327.4172173013286
 11
782.8758843871312
 21
352.4172173012498
 72
     1
 10
782.8758843871312
 20
352.4172173012498
 11
642.8758843867807
 21
352.4172173013111
 72
     1
 10
642.8758843867804
 20
352.4172173013111
 11
612.875884387131
 21
352.4172173012498
 72
     1
 10
612.8758843871312
 20
352.4172173012498
 11
612.8758843871312
 21
327.4172173013286
 72
     1
 10
612.8758843871312
 20
327.4172173013286
 11
662.8758843870747
 21
327.4172173012892
 72
     1
 10
662.8758843870747
 20
327.4172173012892
 11
732.875884387075
 21
327.4172173012892
 72
     1
 10
732.875884387075
 20
327.4172173012892
 11
738.8800519464216
 21
327.4172173013286
 72
     1
 10
738.8800519464216
 20
327.4172173013286
 11
782.8758843871312
 21
327.4172173013286
 97
        0
 75
     0
 76
     1
 52
0.0
 41
1.0
 77
     0
 78
     1
 53
0.0
 43
-2596.428249474054
 44
-1155.486990109762
 45
3.174999999999998
 46
3.174999999999998
 79
     2
 49
3.174999999999998
 49
-3.174999999999998
 98
        1
 10
-2596.428249474054
 20
-1155.486990109762
1001
GENIUS_GENOBJ-N-HTC_13
1002
{
1000
OWNER
1000
GEN
1002
}
1001
GENIUS_GENODEF_13
1002
{
1000
HIER
1070
     0
1002
}
1002
{
1000
MANEDIT
1070
     0
1002
}
1002
{
1000
NOSEL
1070
     0
1002
}
1002
{
1000
BEHIND
1070
     0
1002
}
1002
{
1000
OTHER
1070
     0
1002
}
1002
{
1000
REACTOR
1002
}
1001
GENIUS_GENHATCH_13
1002
{
1000
DATA
1040
0.0
1042
1.0
1000
DASH
1070
     0
1011
738.8800519464216
1021
336.8900253290306
1031
0.0
1002
}
1002
{
1000
UCS
1010
0.0
1020
0.0
1030
0.0
1010
1.0
1020
0.0
1030
0.0
1010
0.0
1020
1.0
1030
0.0
1002
}
  0
LINE
  5
9875
330
37
100
AcDbEntity
  8
0
100
AcDbLine
 10
612.8758843871312
 20
352.4172173012498
 30
0.0
 11
782.8758843871312
 21
352.4172173012498
 31
0.0
  0
LINE
  5
9876
330
37
100
AcDbEntity
  8
0
100
AcDbLine
 10
612.8758843871312
 20
327.4172173013286
 30
0.0
 11
782.8758843871312
 21
327.4172173013286
 31
0.0
  0
HATCH
  5
CD80
330
37
100
AcDbEntity
  8
弱線
100
AcDbHatch
 10
0.0
 20
0.0
 30
0.0
210
0.0
220
0.0
230
1.0
  2
_U
 70
     0
 71
     0
 91
        1
 92
        1
 93
        6
 72
     1
 10
715.375884387075
 20
310.4172173012499
 11
715.375884387075
 21
314.9172173012499
 72
     1
 10
715.375884387075
 20
314.9172173012499
 11
680.3758843870751
 21
314.9172173012499
 72
     1
 10
680.3758843870751
 20
314.9172173012499
 11
680.3758843870751
 21
310.4172173012499
 72
     1
 10
680.3758843870751
 20
310.4172173012499
 11
680.8758843870751
 21
309.9172173012499
 72
     1
 10
680.8758843870751
 20
309.9172173012499
 11
714.8758843870751
 21
309.9172173012499
 72
     1
 10
714.8758843870751
 20
309.9172173012499
 11
715.375884387075
 21
310.4172173012499
 97
        0
 75
     0
 76
     0
 52
5.0
 41
2.0
 77
     0
 78
     1
 53
4.999999999999998
 43
-1807.233698098454
 44
-223.421972329311
 45
-0.1743114854953163
 46
1.992389396183491
 79
     0
 98
        1
 10
-1807.233698098454
 20
-223.421972329311
1001
GENIUS_GENODEF_13
1002
{
1000
HIER
1070
     0
1002
}
1002
{
1000
MANEDIT
1070
     0
1002
}
1002
{
1000
NOSEL
1070
     0
1002
}
1002
{
1000
BEHIND
1070
     0
1002
}
1002
{
1000
OTHER
1070
     0
1002
}
1002
{
1000
REACTOR
1002
}
1001
GENIUS_GENOBJ-N-HTC_13
1002
{
1000
OWNER
1000
GEN
1002
}
1001
GENIUS_GENHATCH_13
1002
{
1000
DATA
1040
45.0
1042
2.5
1000
_U
1070
     0
1011
699.796109634362
1021
312.2849054640326
1031
0.0
1002
}
1002
{
1000
UCS
1010
0.0
1020
0.0
1030
0.0
1010
1.0
1020
0.0
1030
0.0
1010
0.0
1020
1.0
1030
0.0
1002
}
1001
ACAD
1010
0.0
1020
0.0
1030
0.0
  0
LINE
  5
12BC4
330
37
100
AcDbEntity
  8
0
 48
0.5
100
AcDbLine
 10
701.6256451480361
 20
879.606983245678
 30
0.0
 11
753.2256451480366
 21
879.606983245678
 31
0.0
  0
LINE
  5
12BC5
330
37
100
AcDbEntity
  8
0
 48
0.5
100
AcDbLine
 10
748.7691005656747
 20
866.6069832456781
 30
0.0
 11
706.0821897304752
 21
866.6069832456781
 31
0.0
  0
LINE
  5
12BC6
330
37
100
AcDbEntity
  8
0
 48
0.5
100
AcDbLine
 10
714.5256451480368
 20
879.606983245678
 30
0.0
 11
714.5256451480368
 21
868.6069832456778
 31
0.0
  0
LINE
  5
12BC7
330
37
100
AcDbEntity
  8
0
 48
0.5
100
AcDbLine
 10
740.3256451480365
 20
879.606983245678
 30
0.0
 11
740.3256451480365
 21
868.6069832456778
 31
0.0
  0
LINE
  5
12BC8
330
37
100
AcDbEntity
  8
0
 48
0.5
100
AcDbLine
 10
701.6256451480361
 20
879.606983245678
 30
0.0
 11
701.6256451480361
 21
868.6069832456778
 31
0.0
  0
LINE
  5
12BC9
330
37
100
AcDbEntity
  8
0
 48
0.5
100
AcDbLine
 10
753.2256451480366
 20
879.606983245678
 30
0.0
 11
753.2256451480366
 21
868.6069832456778
 31
0.0
  0
LINE
  5
12BCA
330
37
100
AcDbEntity
  8
0
 48
0.5
100
AcDbLine
 10
748.7691005656747
 20
866.6069832456781
 30
0.0
 11
753.2256451480366
 21
868.6069832456778
 31
0.0
  0
LINE
  5
12BCB
330
37
100
AcDbEntity
  8
0
 48
0.5
100
AcDbLine
 10
706.0821897304752
 20
866.6069832456781
 30
0.0
 11
701.6256451481145
 21
868.6069832456778
 31
0.0
  0
ARC
  5
12BCC
330
37
100
AcDbEntity
  8
0
 48
0.5
100
AcDbCircle
 10
727.4256451480361
 20
913.9319832456784
 30
0.0
 40
47.12499999999996
100
AcDbArc
 50
254.1130563788156
 51
285.8869436211844
  0
ARC
  5
12BCD
330
37
100
AcDbEntity
  8
0
 48
0.5
100
AcDbCircle
 10
746.7756451480362
 20
879.2632332456781
 30
0.0
 40
12.45625000000011
100
AcDbArc
 50
238.8143781214772
 51
287.1533836005132
  0
ARC
  5
12BCE
330
37
100
AcDbEntity
  8
0
 48
0.5
100
AcDbCircle
 10
708.0756451480365
 20
879.2632332456781
 30
0.0
 40
12.45625000000011
100
AcDbArc
 50
252.8466163994868
 51
301.1856218785228
  0
LWPOLYLINE
  5
12BCF
330
37
100
AcDbEntity
  8
0
 48
0.5
100
AcDbPolyline
 90
        6
 70
     0
 43
0.0
 10
709.9631451480368
 20
988.6755575437666
 10
709.9631451480368
 20
1013.175557543766
 10
710.9631451480368
 20
1014.175557543766
 10
743.8881451480365
 20
1014.175557543766
 10
744.8881451480365
 20
1013.175557543766
 10
744.8881451480365
 20
988.6755575437655
  0
LWPOLYLINE
  5
12BD0
330
37
100
AcDbEntity
  8
0
 48
0.5
100
AcDbPolyline
 90
        6
 70
     0
 43
0.0
 10
744.888145148036
 20
983.6755575437658
 10
744.888145148036
 20
959.1755575437655
 10
743.888145148036
 20
958.1755575437655
 10
710.9631451480362
 20
958.1755575437655
 10
709.9631451480362
 20
959.1755575437655
 10
709.9631451480362
 20
983.6755575437667
  0
LWPOLYLINE
  5
12BD1
330
37
100
AcDbEntity
  8
弱線
100
AcDbPolyline
 90
        3
 70
     0
 43
0.0
 10
709.9631451480359
 20
983.6755575437662
 42
-0.2722128246654474
 10
727.4256451480368
 20
983.6755575437658
 42
0.2722128246655077
 10
744.8881451480392
 20
983.6755575437676
  0
LWPOLYLINE
  5
12BD2
330
37
100
AcDbEntity
  8
弱線
100
AcDbPolyline
 90
        3
 70
     0
 43
0.0
 10
709.9631451480359
 20
988.6755575437662
 42
-0.2722128246654474
 10
727.4256451480368
 20
988.6755575437655
 42
0.2722128246655077
 10
744.8881451480392
 20
988.6755575437677
  0
LWPOLYLINE
  5
12BD3
330
37
100
AcDbEntity
  8
0
100
AcDbPolyline
 90
        4
 70
     1
 43
0.0
 10
694.9256451480362
 20
916.6755575437658
 10
759.9256451480361
 20
916.6755575437658
 10
759.9256451480361
 20
918.6755575437658
 10
694.9256451480362
 20
918.6755575437658
1001
GENIUS_GENREC_14
1002
{
1000
PYDIR
1011
694.9256451480362
1021
918.6755575437658
1031
0.0
1002
}
1002
{
1000
PXDIR
1011
759.9256451480361
1021
916.6755575437658
1031
0.0
1002
}
1002
{
1000
PORI
1011
694.9256451480362
1021
916.6755575437658
1031
0.0
1002
}
1002
{
1000
PINS
1011
694.9256451480362
1021
916.6755575437658
1031
0.0
1002
}
1002
{
1000
HVAL
1000
2
1002
}
1002
{
1000
H
1070
     2
1002
}
1002
{
1000
WVAL
1000
65
1002
}
1002
{
1000
W
1070
     2
1002
}
1002
{
1000
C
1070
     1
1002
}
1001
GENIUS_GENOBJ-N-REC_13
1002
{
1000
OWNER
1000
GEN
1002
}
1001
GENIUS_GENODEF_13
1002
{
1000
HIER
1070
     0
1002
}
1002
{
1000
MANEDIT
1070
     0
1002
}
1002
{
1000
NOSEL
1070
     0
1002
}
1002
{
1000
BEHIND
1070
     0
1002
}
1002
{
1000
OTHER
1070
     0
1002
}
1002
{
1000
REACTOR
1002
}
  0
HATCH
  5
12BD5
330
37
100
AcDbEntity
  8
弱線
100
AcDbHatch
 10
0.0
 20
0.0
 30
0.0
210
0.0
220
0.0
230
1.0
  2
_U
 70
     0
 71
     0
 91
        1
 92
        1
 93
        7
 72
     1
 10
709.9631451480368
 20
1013.175557543766
 11
709.9631451480368
 21
988.6755575437666
 72
     2
 10
718.6943951480361
 20
973.8263932182723
 40
17.22592255085399
 50
239.5446399104549
 51
300.4553600895507
 73
     0
 72
     2
 10
736.1568951480368
 20
1003.524721869258
 40
17.22592255085226
 50
239.5446399104497
 51
300.4553600895609
 73
     1
 72
     1
 10
744.8881451480392
 20
988.6755575437673
 11
744.8881451480365
 21
1013.175557543766
 72
     1
 10
744.8881451480365
 20
1013.175557543766
 11
743.8881451480365
 21
1014.175557543766
 72
     1
 10
743.8881451480365
 20
1014.175557543766
 11
710.9631451480368
 21
1014.175557543766
 72
     1
 10
710.9631451480368
 20
1014.175557543766
 11
709.9631451480368
 21
1013.175557543766
 97
        0
 75
     0
 76
     0
 52
5.0
 41
2.0
 77
     0
 78
     1
 53
4.999999999999998
 43
-305.5372881437906
 44
-273.4219723293112
 45
-0.1743114854953163
 46
1.992389396183491
 79
     0
 98
        1
 10
-305.5372881437906
 20
-273.4219723293112
1001
ACAD
1010
0.0
1020
0.0
1030
0.0
1001
GENIUS_GENOBJ-N-HTC_13
1002
{
1000
OWNER
1000
GEN
1002
}
1001
GENIUS_GENODEF_13
1002
{
1000
HIER
1070
     0
1002
}
1002
{
1000
MANEDIT
1070
     0
1002
}
1002
{
1000
NOSEL
1070
     0
1002
}
1002
{
1000
BEHIND
1070
     0
1002
}
1002
{
1000
OTHER
1070
     0
1002
}
1002
{
1000
REACTOR
1002
}
1001
GENIUS_GENHATCH_13
1002
{
1000
DATA
1040
45.0
1042
2.5
1000
_U
1070
     0
1011
722.4468827237577
1021
1003.292872274348
1031
0.0
1002
}
1002
{
1000
UCS
1010
0.0
1020
0.0
1030
0.0
1010
1.0
1020
0.0
1030
0.0
1010
0.0
1020
1.0
1030
0.0
1002
}
  0
HATCH
  5
12BD6
330
37
100
AcDbEntity
  8
弱線
100
AcDbHatch
 10
0.0
 20
0.0
 30
0.0
210
0.0
220
0.0
230
1.0
  2
_U
 70
     0
 71
     0
 91
        1
 92
        1
 93
        7
 72
     1
 10
744.888145148036
 20
959.1755575437655
 11
744.888145148036
 21
983.6755575437658
 72
     2
 10
736.1568951480368
 20
998.5247218692578
 40
17.22592255085215
 50
59.54463991045033
 51
120.4553600895496
 73
     0
 72
     2
 10
718.6943951480361
 20
968.8263932182724
 40
17.22592255085402
 50
59.54463991044871
 51
120.4553600895479
 73
     1
 72
     1
 10
709.9631451480359
 20
983.6755575437662
 11
709.9631451480362
 21
959.1755575437655
 72
     1
 10
709.9631451480362
 20
959.1755575437655
 11
710.9631451480362
 21
958.1755575437655
 72
     1
 10
710.9631451480362
 20
958.1755575437655
 11
743.888145148036
 21
958.1755575437655
 72
     1
 10
743.888145148036
 20
958.1755575437655
 11
744.888145148036
 21
959.1755575437655
 97
        0
 75
     0
 76
     0
 52
5.0
 41
2.0
 77
     0
 78
     1
 53
4.999999999999998
 43
-305.5372881437906
 44
-273.4219723293112
 45
-0.1743114854953163
 46
1.992389396183491
 79
     0
 98
        1
 10
-305.5372881437906
 20
-273.4219723293112
1001
ACAD
1010
0.0
1020
0.0
1030
0.0
1001
GENIUS_GENOBJ-N-HTC_13
1002
{
1000
OWNER
1000
GEN
1002
}
1001
GENIUS_GENODEF_13
1002
{
1000
HIER
1070
     0
1002
}
1002
{
1000
MANEDIT
1070
     0
1002
}
1002
{
1000
NOSEL
1070
     0
1002
}
1002
{
1000
BEHIND
1070
     0
1002
}
1002
{
1000
OTHER
1070
     0
1002
}
1002
{
1000
REACTOR
1002
}
1001
GENIUS_GENHATCH_13
1002
{
1000
DATA
1040
45.0
1042
2.5
1000
_U
1070
     0
1011
732.4215854826213
1021
967.6895995416387
1031
0.0
1002
}
1002
{
1000
UCS
1010
0.0
1020
0.0
1030
0.0
1010
1.0
1020
0.0
1030
0.0
1010
0.0
1020
1.0
1030
0.0
1002
}
  0
LWPOLYLINE
  5
139CE
330
37
100
AcDbEntity
  8
0
 48
0.5
100
AcDbPolyline
 90
        4
 70
     1
 43
0.0
 10
665.3758843871312
 20
325.9172173013285
 10
730.3758843871312
 20
325.9172173013285
 10
730.3758843871312
 20
327.4172173013286
 10
665.3758843871312
 20
327.4172173013286
1001
GENIUS_GENREC_14
1002
{
1000
PYDIR
1011
665.3758843871312
1021
327.4172173013286
1031
0.0
1002
}
1002
{
1000
PXDIR
1011
730.3758843871312
1021
325.9172173013285
1031
0.0
1002
}
1002
{
1000
PORI
1011
665.3758843871312
1021
325.9172173013285
1031
0.0
1002
}
1002
{
1000
PINS
1011
697.8758843871315
1021
327.9172173013285
1031
0.0
1002
}
1002
{
1000
HVAL
1000
1.5
1002
}
1002
{
1000
H
1070
     2
1002
}
1002
{
1000
WVAL
1000
65
1002
}
1002
{
1000
W
1070
     2
1002
}
1002
{
1000
C
1070
     2
1002
}
1001
GENIUS_GENODEF_13
1002
{
1000
HIER
1070
     0
1002
}
1002
{
1000
MANEDIT
1070
     0
1002
}
1002
{
1000
NOSEL
1070
     0
1002
}
1002
{
1000
BEHIND
1070
     0
1002
}
1002
{
1000
REACTOR
1002
}
1001
GENIUS_GENOBJ-N-REC_13
1002
{
1000
OWNER
1000
GEN
1002
}
  0
LINE
  5
139CF
330
37
100
AcDbEntity
  8
0
100
AcDbLine
 10
678.3903153451856
 20
314.9172173013312
 30
0.0
 11
717.3614585154855
 21
314.9172173013312
 31
0.0
  0
LINE
  5
139D0
330
37
100
AcDbEntity
  8
0
 48
0.5
100
AcDbLine
 10
723.8566465006648
 20
325.9172173013285
 30
0.0
 11
723.8566465006627
 21
316.9172173013249
 31
0.0
  0
LINE
  5
139D1
330
37
100
AcDbEntity
  8
0
 48
0.5
100
AcDbLine
 10
710.8662654438981
 20
325.9172173013285
 30
0.0
 11
710.8662654438981
 21
316.9172173013286
 31
0.0
  0
LINE
  5
139D2
330
37
100
AcDbEntity
  8
0
 48
0.5
100
AcDbLine
 10
684.8855033303647
 20
325.9172173013285
 30
0.0
 11
684.8855212674792
 21
316.9172173013249
 31
0.0
  0
LINE
  5
139D3
330
37
100
AcDbEntity
  8
0
 48
0.5
100
AcDbLine
 10
671.8951222735983
 20
325.9172173013285
 30
0.0
 11
671.8951222735983
 21
316.9172173013249
 31
0.0
  0
ARC
  5
139D4
330
37
100
AcDbEntity
  8
0
 48
0.5
100
AcDbCircle
 10
717.3614559722834
 20
326.4640923013358
 30
0.0
 40
11.54687500000699
100
AcDbArc
 50
235.7706935164158
 51
304.2293064835842
  0
ARC
  5
139D5
330
37
100
AcDbEntity
  8
0
 48
0.5
100
AcDbCircle
 10
697.8758933556912
 20
358.1046590489241
 30
0.0
 40
43.18744174759344
100
AcDbArc
 50
252.494894539461
 51
287.5050884117964
  0
ARC
  5
139D6
330
37
100
AcDbEntity
  8
0
 48
0.5
100
AcDbCircle
 10
678.3903128019797
 20
326.4640923013467
 30
0.0
 40
11.54687500001704
100
AcDbArc
 50
235.7706935164158
 51
304.2293064835842
  0
LINE
  5
139D7
330
37
100
AcDbEntity
  8
0
100
AcDbLine
 10
723.8566465006648
 20
325.9172173013285
 30
0.0
 11
671.8951222735983
 21
325.9172173013285
 31
0.0
  0
LINE
  5
139D8
330
37
100
AcDbEntity
  8
0
100
AcDbLine
 10
715.3758843871312
 20
310.4172173013286
 30
0.0
 11
715.3758843871312
 21
314.9172173013286
 31
0.0
  0
LINE
  5
139D9
330
37
100
AcDbEntity
  8
0
100
AcDbLine
 10
714.8758843871312
 20
309.9172173013286
 30
0.0
 11
715.3758843871312
 21
310.4172173013286
 31
0.0
  0
LINE
  5
139DA
330
37
100
AcDbEntity
  8
0
100
AcDbLine
 10
680.3758843871312
 20
314.9172173013286
 30
0.0
 11
680.3758843871312
 21
310.4172173013286
 31
0.0
  0
LINE
  5
139DB
330
37
100
AcDbEntity
  8
0
100
AcDbLine
 10
680.8758843871315
 20
309.9172173013286
 30
0.0
 11
680.3758843871312
 21
310.4172173013286
 31
0.0
  0
LINE
  5
139DC
330
37
100
AcDbEntity
  8
0
100
AcDbLine
 10
680.8758843871315
 20
309.9172173013286
 30
0.0
 11
714.8758843871312
 21
309.9172173013286
 31
0.0
  0
LINE
  5
139E0
330
37
100
AcDbEntity
  8
AM_3
 48
2.0
100
AcDbLine
 10
679.375884387221
 20
352.4172173013287
 30
0.0
 11
679.375884387221
 21
327.4172173014072
 31
0.0
  0
LINE
  5
139E1
330
37
100
AcDbEntity
  8
AM_3
 48
2.0
100
AcDbLine
 10
716.375884387221
 20
352.4172173013287
 30
0.0
 11
716.375884387221
 21
327.4172173014072
 31
0.0
  0
LINE
  5
13AD2
330
37
100
AcDbEntity
  8
AM_5
370
     9
100
AcDbLine
 10
750.8881435572424
 20
1014.175541410233
 30
0.0
 11
791.1446954371072
 21
1014.175541410233
 31
0.0
  0
LINE
  5
13AD3
330
37
100
AcDbEntity
  8
AM_5
370
     9
100
AcDbLine
 10
750.8881435572424
 20
958.1755412374716
 30
0.0
 11
791.1446954371072
 21
958.1755412374716
 31
0.0
  0
LINE
  5
13AD4
330
37
100
AcDbEntity
  8
AM_5
370
     9
100
AcDbLine
 10
787.1446954371072
 20
1008.175541410233
 30
0.0
 11
787.1446954371072
 21
964.1755412374717
 31
0.0
  0
LINE
  5
13AD5
330
37
100
AcDbEntity
  8
AM_5
370
     9
100
AcDbLine
 10
786.144695437107
 20
1008.175541410233
 30
0.0
 11
787.1446954371072
 21
1014.175541410233
 31
0.0
  0
LINE
  5
13AD6
330
37
100
AcDbEntity
  8
AM_5
370
     9
100
AcDbLine
 10
788.1446954371072
 20
1008.175541410233
 30
0.0
 11
787.1446954371072
 21
1014.175541410233
 31
0.0
  0
LINE
  5
13AD7
330
37
100
AcDbEntity
  8
AM_5
370
     9
100
AcDbLine
 10
787.1446954371072
 20
1014.175541410233
 30
0.0
 11
787.1446954371072
 21
1008.175541410233
 31
0.0
  0
LINE
  5
13AD8
330
37
100
AcDbEntity
  8
AM_5
370
     9
100
AcDbLine
 10
788.1446954371072
 20
964.1755412374717
 30
0.0
 11
787.1446954371072
 21
958.1755412374716
 31
0.0
  0
LINE
  5
13AD9
330
37
100
AcDbEntity
  8
AM_5
370
     9
100
AcDbLine
 10
786.144695437107
 20
964.1755412374717
 30
0.0
 11
787.1446954371072
 21
958.1755412374716
 31
0.0
  0
LINE
  5
13ADA
330
37
100
AcDbEntity
  8
AM_5
370
     9
100
AcDbLine
 10
787.1446954371072
 20
958.1755412374716
 30
0.0
 11
787.1446954371072
 21
964.1755412374717
 31
0.0
  0
TEXT
  5
13ADB
330
37
100
AcDbEntity
  8
AM_5
100
AcDbText
 10
783.1446954371062
 20
974.9987224721898
 30
0.0
 40
10.0
  1
150
 50
90.0
100
AcDbText
  0
LINE
  5
13ADC
330
37
100
AcDbEntity
  8
AM_5
370
     9
100
AcDbLine
 10
744.8881436224715
 20
952.2032848628008
 30
0.0
 11
744.8881436224715
 21
931.7488110408092
 31
0.0
  0
LINE
  5
13ADD
330
37
100
AcDbEntity
  8
AM_5
370
     9
100
AcDbLine
 10
709.9631436634495
 20
952.1755412374716
 30
0.0
 11
709.9631436634495
 21
931.7488110408092
 31
0.0
  0
LINE
  5
13ADE
330
37
100
AcDbEntity
  8
AM_5
370
     9
100
AcDbLine
 10
738.8881436224712
 20
935.7488110408096
 30
0.0
 11
715.9631436634493
 21
935.7488110408096
 31
0.0
  0
LINE
  5
13ADF
330
37
100
AcDbEntity
  8
AM_5
370
     9
100
AcDbLine
 10
738.8881436224712
 20
936.7488110408093
 30
0.0
 11
744.8881436224715
 21
935.7488110408096
 31
0.0
  0
LINE
  5
13AE0
330
37
100
AcDbEntity
  8
AM_5
370
     9
100
AcDbLine
 10
738.8881436224712
 20
934.7488110408093
 30
0.0
 11
744.8881436224715
 21
935.7488110408096
 31
0.0
  0
LINE
  5
13AE1
330
37
100
AcDbEntity
  8
AM_5
370
     9
100
AcDbLine
 10
744.8881436224715
 20
935.7488110408096
 30
0.0
 11
738.8881436224712
 21
935.7488110408096
 31
0.0
  0
LINE
  5
13AE2
330
37
100
AcDbEntity
  8
AM_5
370
     9
100
AcDbLine
 10
715.9631436634493
 20
934.7488110408093
 30
0.0
 11
709.9631436634495
 21
935.7488110408096
 31
0.0
  0
LINE
  5
13AE3
330
37
100
AcDbEntity
  8
AM_5
370
     9
100
AcDbLine
 10
715.9631436634493
 20
936.7488110408093
 30
0.0
 11
709.9631436634495
 21
935.7488110408096
 31
0.0
  0
LINE
  5
13AE4
330
37
100
AcDbEntity
  8
AM_5
370
     9
100
AcDbLine
 10
709.9631436634495
 20
935.7488110408096
 30
0.0
 11
715.9631436634493
 21
935.7488110408096
 31
0.0
  0
TEXT
  5
13AE5
330
37
100
AcDbEntity
  8
AM_5
100
AcDbText
 10
714.8065960239132
 20
939.7488110408092
 30
0.0
 40
10.0
  1
\U+220535
100
AcDbText
  0
TEXT
  5
13AE6
330
37
100
AcDbEntity
  8
AM_5
100
AcDbText
 10
707.3304055473347
 20
851.5124516767496
 30
0.0
 40
10.0
  1
平径45
100
AcDbText
  0
MTEXT
  5
13AE7
330
37
100
AcDbEntity
  8
文字
 48
0.5
100
AcDbMText
 10
637.3077433993143
 20
1033.120842826526
 30
0.0
 40
14.0
 41
160.6766984733935
 71
     4
 72
     5
  1
 A　詳細図
 73
     1
 44
1.0
1001
ACAD
1000
MTEXTBEGIN
1070
    73
1070
     1
1070
    44
1040
1.0
1070
    74
1070
     0
1000
MTEXTEND
  0
LWPOLYLINE
  5
13AE8
330
37
100
AcDbEntity
  8
図面枠
 48
0.5
370
    50
100
AcDbPolyline
 90
        8
 70
     1
 43
0.0
 10
638.4280299409547
 20
844.6207161132591
 10
790.8328255440141
 20
844.6207161132591
 42
0.4142135623730951
 10
806.8328255440142
 20
860.6207161132591
 10
806.8328255440151
 20
1037.999238259171
 42
0.4142135623730951
 10
790.8328255440152
 20
1053.999238259171
 10
638.4280299409547
 20
1053.999238259171
 42
0.4142135623730951
 10
622.4280299409547
 20
1037.999238259171
 10
622.4280299409547
 20
860.6207161132591
 42
0.4142135623730951
1001
GENIUS_GENREC_14
1002
{
1000
PYDIR
1011
622.4280299409547
1021
1053.999238259171
1031
0.0
1002
}
1002
{
1000
PXDIR
1011
806.8328255440142
1021
844.6207161132591
1031
0.0
1002
}
1002
{
1000
PORI
1011
622.4280299409547
1021
844.6207161132591
1031
0.0
1002
}
1002
{
1000
PINS
1011
622.4280299409547
1021
844.6207161132591
1031
0.0
1002
}
1002
{
1000
PINS2
1011
806.8328255440142
1021
1053.999238259171
1031
0.0
1002
}
1002
{
1000
C
1070
     1
1002
}
1001
GENIUS_GENODEF_13
1002
{
1000
HIER
1070
     0
1002
}
1002
{
1000
MANEDIT
1070
     0
1002
}
1002
{
1000
NOSEL
1070
     0
1002
}
1002
{
1000
BEHIND
1070
     0
1002
}
1002
{
1000
OTHER
1070
     0
1002
}
1002
{
1000
REACTOR
1002
}
1001
GENIUS_GENOBJ-N-REC_13
1002
{
1000
OWNER
1000
GEN
1002
}
  0
LINE
  5
13AE9
330
37
100
AcDbEntity
  8
AM_5
370
     9
100
AcDbLine
 10
694.9256481142096
 20
910.6755541606323
 30
0.0
 11
694.9256481142096
 21
889.6599976537514
 31
0.0
  0
LINE
  5
13AEA
330
37
100
AcDbEntity
  8
AM_5
370
     9
100
AcDbLine
 10
759.9256421818621
 20
910.6755541606323
 30
0.0
 11
759.9256421818621
 21
889.6599976537514
 31
0.0
  0
LINE
  5
13AEB
330
37
100
AcDbEntity
  8
AM_5
370
     9
100
AcDbLine
 10
700.9256481142097
 20
893.6599976537516
 30
0.0
 11
753.9256421818621
 21
893.6599976537516
 31
0.0
  0
LINE
  5
13AEC
330
37
100
AcDbEntity
  8
AM_5
370
     9
100
AcDbLine
 10
700.9256481142097
 20
892.6599976537515
 30
0.0
 11
694.9256481142096
 21
893.6599976537516
 31
0.0
  0
LINE
  5
13AED
330
37
100
AcDbEntity
  8
AM_5
370
     9
100
AcDbLine
 10
700.9256481142097
 20
894.6599976537516
 30
0.0
 11
694.9256481142096
 21
893.6599976537516
 31
0.0
  0
LINE
  5
13AEE
330
37
100
AcDbEntity
  8
AM_5
370
     9
100
AcDbLine
 10
694.9256481142096
 20
893.6599976537516
 30
0.0
 11
700.9256481142097
 21
893.6599976537516
 31
0.0
  0
LINE
  5
13AEF
330
37
100
AcDbEntity
  8
AM_5
370
     9
100
AcDbLine
 10
753.9256421818621
 20
894.6599976537516
 30
0.0
 11
759.9256421818621
 21
893.6599976537516
 31
0.0
  0
LINE
  5
13AF0
330
37
100
AcDbEntity
  8
AM_5
370
     9
100
AcDbLine
 10
753.9256421818621
 20
892.6599976537515
 30
0.0
 11
759.9256421818621
 21
893.6599976537516
 31
0.0
  0
LINE
  5
13AF1
330
37
100
AcDbEntity
  8
AM_5
370
     9
100
AcDbLine
 10
759.9256421818621
 20
893.6599976537516
 30
0.0
 11
753.9256421818621
 21
893.6599976537516
 31
0.0
  0
TEXT
  5
13AF2
330
37
100
AcDbEntity
  8
AM_5
100
AcDbText
 10
714.8065975289888
 20
897.6599976537514
 30
0.0
 40
10.0
  1
\U+220565
100
AcDbText
  0
TEXT
  5
13AF3
330
37
100
AcDbEntity
  8
文字
100
AcDbText
 10
636.3288153245926
 20
980.9195785134683
 30
0.0
 40
10.0
  1
パイプネジ
 41
0.8
  7
0.8横
100
AcDbText
  0
TEXT
  5
13AF4
330
37
100
AcDbEntity
  8
文字
100
AcDbText
 10
636.2645536785244
 20
913.4397644978083
 30
0.0
 40
10.0
  1
ワッシャー
 41
0.8
  7
0.8横
100
AcDbText
  0
TEXT
  5
13AF5
330
37
100
AcDbEntity
  8
文字
100
AcDbText
 10
636.2645536785244
 20
868.0466433672361
 30
0.0
 40
10.0
  1
六角ナット
 41
0.8
  7
0.8横
100
AcDbText
  0
LWPOLYLINE
  5
13AF6
330
37
100
AcDbEntity
  8
仮想線
  6
HIDDEN
 48
0.5
100
AcDbPolyline
 90
        8
 70
     1
 43
0.0
 10
643.213578656831
 20
1021.037771546417
 10
659.2135786568319
 20
1021.037771546417
 42
0.4142135623730951
 10
663.213578656831
 20
1025.037771546417
 10
663.213578656831
 20
1041.037771546417
 42
0.4142135623730898
 10
659.213578656831
 20
1045.037771546417
 10
643.2135786568319
 20
1045.037771546416
 42
0.4142135623730897
 10
639.2135786568319
 20
1041.037771546416
 10
639.213578656831
 20
1025.037771546417
 42
0.4142135623731005
1001
GENIUS_GENREC_14
1002
{
1000
PYDIR
1011
639.2135786568319
1021
1045.037771546416
1031
0.0
1002
}
1002
{
1000
PXDIR
1011
663.213578656831
1021
1021.037771546417
1031
0.0
1002
}
1002
{
1000
PORI
1011
639.2135786568319
1021
1021.037771546417
1031
0.0
1002
}
1002
{
1000
PINS
1011
639.2135786568319
1021
1021.037771546417
1031
0.0
1002
}
1002
{
1000
HVAL
1000
30
1002
}
1002
{
1000
H
1070
     2
1002
}
1002
{
1000
WVAL
1000
30
1002
}
1002
{
1000
W
1070
     2
1002
}
1002
{
1000
C
1070
     1
1002
}
1001
GENIUS_GENOBJ-N-REC_13
1002
{
1000
OWNER
1000
GEN
1002
}
1001
GENIUS_GENODEF_13
1002
{
1000
HIER
1070
     0
1002
}
1002
{
1000
MANEDIT
1070
     0
1002
}
1002
{
1000
NOSEL
1070
     0
1002
}
1002
{
1000
BEHIND
1070
     0
1002
}
1002
{
1000
OTHER
1070
     0
1002
}
1002
{
1000
REACTOR
1002
}
  0
LINE
  5
13BD9
330
37
100
AcDbEntity
  8
弱線
 48
2.0
100
AcDbLine
 10
327.5901380365994
 20
357.4172173012567
 30
0.0
 11
258.5901380365994
 21
357.4172173012567
 31
0.0
  0
LWPOLYLINE
  5
13BDA
330
37
100
AcDbEntity
  8
0
 48
2.0
100
AcDbPolyline
 90
        6
 70
     1
 43
0.0
 10
327.5901380365994
 20
352.4172173012567
 10
327.5901380365994
 20
357.4172173012567
 10
323.0901380365994
 20
377.4172173012567
 10
263.0901380365994
 20
377.4172173012567
 10
258.5901380365994
 20
357.4172173012567
 10
258.5901380365994
 20
352.4172173012567
  0
LWPOLYLINE
  5
13BDB
330
37
100
AcDbEntity
  8
0
 48
0.3
100
AcDbPolyline
 90
        2
 70
     0
 43
0.0
 10
266.0901380365995
 20
663.4172173012566
 10
284.9651681426912
 20
666.2135180577147
1001
GENIUS_GENOREF_13
1005
0
1005
0
  0
LWPOLYLINE
  5
13BDC
330
37
100
AcDbEntity
  8
0
 48
2.0
100
AcDbPolyline
 90
        6
 70
     0
 43
0.0
 10
285.4431873274029
 20
663.4172173012566
 10
264.740138036972
 20
663.4172173012566
 10
264.740138036972
 20
377.4172173012567
 10
321.4401380362269
 20
377.4172173012567
 10
321.4401380362269
 20
663.4172173012566
 10
300.7370887457996
 20
663.4172173012566
1001
GENIUS_GENREC_14
1002
{
1000
PYDIR
1011
264.740138036972
1021
663.4172173012566
1031
0.0
1002
}
1002
{
1000
PXDIR
1011
321.4401380362269
1021
377.4172173012567
1031
0.0
1002
}
1002
{
1000
PORI
1011
264.740138036972
1021
377.4172173012567
1031
0.0
1002
}
1002
{
1000
PINS
1011
264.740138036972
1021
377.4172173012567
1031
0.0
1002
}
1002
{
1000
PINS2
1011
321.4401380362269
1021
663.4172173012566
1031
0.0
1002
}
1002
{
1000
C
1070
     1
1002
}
1001
GENIUS_GENODEF_13
1002
{
1000
HIER
1070
     0
1002
}
1002
{
1000
MANEDIT
1070
     0
1002
}
1002
{
1000
NOSEL
1070
     0
1002
}
1002
{
1000
BEHIND
1070
     0
1002
}
1002
{
1000
OTHER
1070
     0
1002
}
1002
{
1000
REACTOR
1002
}
1001
GENIUS_GENOBJ-N-REC_13
1002
{
1000
OWNER
1000
GEN
1002
}
1001
GENIUS_GENOREF_13
1005
0
1005
0
  0
LWPOLYLINE
  5
13BDD
330
37
100
AcDbEntity
  8
0
 48
0.3
100
AcDbPolyline
 90
        2
 70
     0
 43
0.0
 10
301.2151079305113
 20
666.2135180577145
 10
320.0901380365995
 20
663.4172173012566
1001
GENIUS_GENOREF_13
1005
0
1005
0
  0
ARC
  5
13BDE
330
37
100
AcDbEntity
  8
0
 48
2.0
100
AcDbCircle
 10
293.0901380365995
 20
627.4172173012566
 30
0.0
 40
18.0
100
AcDbArc
 50
298.2383970405376
 51
52.33011303565531
1001
GENIUS_GENOREF_13
1005
0
  0
ARC
  5
13BDF
330
37
100
AcDbEntity
  8
0
 48
2.0
100
AcDbCircle
 10
293.0901380365995
 20
627.4172173012566
 30
0.0
 40
18.0
100
AcDbArc
 50
127.6698869643447
 51
241.7744585964667
1001
GENIUS_GENOREF_13
1005
0
  0
LINE
  5
13BE0
330
37
100
AcDbEntity
  8
中心線
100
AcDbLine
 10
293.0901380365995
 20
355.4172173012498
 30
0.0
 11
293.0901380365995
 21
349.4172173012498
 31
0.0
  0
LINE
  5
13BE2
330
37
100
AcDbEntity
  8
弱線
 48
2.0
100
AcDbLine
 10
732.3758843871977
 20
357.4172173012498
 30
0.0
 11
663.3758843871977
 21
357.4172173012498
 31
0.0
  0
LWPOLYLINE
  5
13BE3
330
37
100
AcDbEntity
  8
0
 48
2.0
100
AcDbPolyline
 90
        6
 70
     1
 43
0.0
 10
732.3758843871977
 20
352.4172173012498
 10
732.3758843871977
 20
357.4172173012498
 10
727.8758843871977
 20
377.4172173012498
 10
667.8758843871977
 20
377.4172173012498
 10
663.3758843871977
 20
357.4172173012498
 10
663.3758843871977
 20
352.4172173012498
  0
LINE
  5
13BE4
330
37
100
AcDbEntity
  8
0
 48
2.0
100
AcDbLine
 10
669.5258843875704
 20
609.4172173012505
 30
0.0
 11
669.5258843875704
 21
377.4172173012498
 31
0.0
  0
LINE
  5
13BE5
330
37
100
AcDbEntity
  8
0
 48
2.0
100
AcDbLine
 10
669.5258843875704
 20
645.4172173012493
 30
0.0
 11
669.5258843875704
 21
663.4172173012496
 31
0.0
  0
LWPOLYLINE
  5
13BE6
330
37
100
AcDbEntity
  8
0
 48
2.0
100
AcDbPolyline
 90
        3
 70
     0
 43
0.0
 10
670.8758843871977
 20
663.4172173012496
 10
697.8758843871977
 20
667.4172173012496
 10
724.8758843871977
 20
663.4172173012496
  0
LINE
  5
13BE7
330
37
100
AcDbEntity
  8
0
 48
2.0
100
AcDbLine
 10
726.2258843868252
 20
663.4172173012496
 30
0.0
 11
726.2258843868252
 21
377.4172173012498
 31
0.0
  0
LINE
  5
13BE8
330
37
100
AcDbEntity
  8
弱線
 48
2.0
100
AcDbLine
 10
643.9190290174661
 20
645.4172173012493
 30
0.0
 11
643.9190290174661
 21
609.4172173012496
 31
0.0
  0
LINE
  5
13BE9
330
37
100
AcDbEntity
  8
0
 48
2.0
100
AcDbLine
 10
726.2258843868252
 20
663.4172173012505
 30
0.0
 11
669.5258843875704
 21
663.4172173012496
 31
0.0
  0
LWPOLYLINE
  5
13BEA
330
37
100
AcDbEntity
  8
0
 48
2.0
100
AcDbPolyline
 90
        6
 70
     1
 43
0.0
 10
669.5258843875704
 20
645.4172173012493
 10
643.8758843871977
 20
645.4172173012493
 42
-0.1793382386089267
 10
637.8758843871978
 20
642.4172173012496
 10
637.8758843871978
 20
612.4172173012496
 42
-0.2069750474875663
 10
643.8758843871977
 20
609.4172173012496
 10
669.5258843875704
 20
609.4172173012496
 42
0.1690913573132467
  0
LINE
  5
13BEB
330
37
100
AcDbEntity
  8
中心線
100
AcDbLine
 10
697.8758843871977
 20
355.417217301243
 30
0.0
 11
697.8758843871977
 21
349.417217301243
 31
0.0
  0
CIRCLE
  5
13BED
330
37
100
AcDbEntity
  8
0
 48
2.0
100
AcDbCircle
 10
293.0901380365995
 20
1062.418976301216
 30
0.0
 40
28.34999999962747
  0
ARC
  5
13BEE
330
37
100
AcDbEntity
  8
0
 48
2.0
100
AcDbCircle
 10
293.0901380365995
 20
1062.418976301216
 30
0.0
 40
30.0
100
AcDbArc
 50
306.8698976458049
 51
233.130102354195
  0
ARC
  5
13BEF
330
37
100
AcDbEntity
  8
0
 48
2.0
100
AcDbCircle
 10
293.0901380365995
 20
1062.418976301216
 30
0.0
 40
34.50000000000006
100
AcDbArc
 50
301.4489813893924
 51
238.5510186106077
  0
LINE
  5
13BF0
330
37
100
AcDbEntity
  8
弱線
 48
2.0
100
AcDbLine
 10
275.0901380365994
 20
1008.462120931485
 30
0.0
 11
311.0901380365995
 21
1008.462120931485
 31
0.0
  0
LINE
  5
13BF1
330
37
100
AcDbEntity
  8
0
 48
2.0
100
AcDbLine
 10
275.0901380365994
 20
1040.51640795915
 30
0.0
 11
275.0901380365994
 21
1008.418976301216
 31
0.0
  0
ARC
  5
13BF2
330
37
100
AcDbEntity
  8
0
 48
2.0
100
AcDbCircle
 10
268.4950619082747
 20
1001.371438237054
 30
0.0
 40
9.652088991727117
100
AcDbArc
 50
6.230564610764762
 51
46.89953774344473
  0
LINE
  5
13BF3
330
37
100
AcDbEntity
  8
0
 48
2.0
100
AcDbLine
 10
278.0901380365995
 20
1002.418976301216
 30
0.0
 11
308.0901380365995
 21
1002.418976301216
 31
0.0
  0
ARC
  5
13BF4
330
37
100
AcDbEntity
  8
0
 48
2.0
100
AcDbCircle
 10
316.5269258861708
 20
1001.95058237643
 30
0.0
 40
8.449780002311127
100
AcDbArc
 50
130.0475848885317
 51
176.8223127573123
  0
LINE
  5
13BF5
330
37
100
AcDbEntity
  8
0
 48
2.0
100
AcDbLine
 10
311.0901380365995
 20
1008.418976301216
 30
0.0
 11
311.0901380365995
 21
1040.51640795915
 31
0.0
  0
LINE
  5
13BF6
330
37
100
AcDbEntity
  8
中心線
100
AcDbLine
 10
290.0901380365994
 20
1062.418976301216
 30
0.0
 11
296.0901380365994
 21
1062.418976301216
 31
0.0
  0
LINE
  5
13BF7
330
37
100
AcDbEntity
  8
中心線
100
AcDbLine
 10
293.0901380365995
 20
1065.418976301216
 30
0.0
 11
293.0901380365995
 21
1059.418976301216
 31
0.0
  0
LINE
  5
13D3A
330
37
100
AcDbEntity
  8
0
100
AcDbLine
 10
292.2901380366011
 20
631.3364013012566
 30
0.0
 11
292.2901380366011
 21
632.9395723012575
 31
0.0
  0
LINE
  5
13D3B
330
37
100
AcDbEntity
  8
0
100
AcDbLine
 10
293.8901380366015
 20
631.352645301257
 30
0.0
 11
293.8901380366015
 21
632.9395723012575
 31
0.0
  0
LINE
  5
13D3C
330
37
100
AcDbEntity
  8
0
100
AcDbLine
 10
292.2901380366011
 20
621.8948623012575
 30
0.0
 11
292.2901380366011
 21
623.4980333012562
 31
0.0
  0
LINE
  5
13D3D
330
37
100
AcDbEntity
  8
0
100
AcDbLine
 10
293.8901380366015
 20
621.8948623012575
 30
0.0
 11
293.8901380366015
 21
623.4980333012562
 31
0.0
  0
CIRCLE
  5
13D3E
330
37
100
AcDbEntity
  8
0
100
AcDbCircle
 10
293.0901380366013
 20
627.4172173012566
 30
0.0
 40
4.0
  0
CIRCLE
  5
13D3F
330
37
100
AcDbEntity
  8
0
100
AcDbCircle
 10
293.0901380366013
 20
627.4172173012566
 30
0.0
 40
5.58
  0
CIRCLE
  5
13D40
330
37
100
AcDbEntity
  8
弱線
100
AcDbCircle
 10
293.0901380366013
 20
627.4172173012566
 30
0.0
 40
7.0
  0
LWPOLYLINE
  5
13D41
330
37
100
AcDbEntity
  8
0
100
AcDbPolyline
 90
       12
 70
     0
 43
0.0
 10
298.7749255197832
 20
577.9244334791887
 42
0.1825704369676276
 10
301.0096947413258
 20
583.2374534985023
 10
301.7898007413251
 20
620.2469674985036
 42
-0.0857265540456006
 10
302.4397384850067
 20
623.5883905437981
 42
0.0910366057351916
 10
303.091897036602
 20
627.1405533012575
 10
303.0901380366013
 20
638.9172168012565
 10
283.0901380366013
 20
638.9172168012565
 10
283.091897036601
 20
627.1405533012575
 42
0.0910366057351916
 10
283.7440555881963
 20
623.5883905437981
 42
-0.0857265540456006
 10
284.3939933318779
 20
620.2469674985036
 10
285.1740993318772
 20
583.2374534985023
 42
0.1825704369676276
 10
287.4088685534198
 20
577.9244334791887
  0
LWPOLYLINE
  5
13D42
330
37
100
AcDbEntity
  8
0
100
AcDbPolyline
 90
        9
 70
     0
 43
0.0
 10
285.1740993318772
 20
583.2374534985023
 42
-0.2267205279502641
 10
286.0558628192421
 20
584.9036463465689
 42
0.122934045893842
 10
288.0999423301764
 20
576.4404956854972
 42
0.2792270949748338
 10
288.5430630962437
 20
576.1721074008312
 10
293.0918970366015
 20
576.1721074008312
 10
297.6407309769594
 20
576.1721074008312
 42
0.2792270949748338
 10
298.0838517430266
 20
576.4404956854972
 42
0.122934045893842
 10
300.1279312539609
 20
584.9036463465689
 42
-0.2267205279502641
 10
301.0096947413258
 20
583.2374534985023
  0
LWPOLYLINE
  5
13D43
330
37
100
AcDbEntity
  8
0
100
AcDbPolyline
 90
        3
 70
     0
 43
0.0
 10
297.8648212594312
 20
576.3295632589679
 42
0.1610810211060622
 10
293.0918970366015
 20
577.9251920258139
 42
0.1610810211060622
 10
288.3189728137718
 20
576.3295632589679
  0
LWPOLYLINE
  5
13D44
330
37
100
AcDbEntity
  8
0
100
AcDbPolyline
 90
        8
 70
     0
 43
0.0
 10
284.4374864232177
 20
649.4172168012574
 42
0.0800061372182903
 10
282.5901380366013
 20
646.9172168012565
 10
282.0901380366013
 20
646.6172168012572
 10
282.0901380366013
 20
638.9172168012565
 10
304.0901380366013
 20
638.9172168012565
 10
304.0901380366013
 20
646.6172168012572
 10
303.5901380366013
 20
646.9172168012565
 42
0.0802777583198434
 10
301.7454667035772
 20
649.4172168012574
  0
LINE
  5
13D45
330
37
100
AcDbEntity
  8
0
100
AcDbLine
 10
304.0901380366013
 20
646.6172168012572
 30
0.0
 11
282.0901380366013
 21
646.6172168012572
 31
0.0
  0
LINE
  5
13D46
330
37
100
AcDbEntity
  8
弱線
100
AcDbLine
 10
303.5901380366013
 20
646.9172168012566
 30
0.0
 11
282.5901380366013
 21
646.9172168012566
 31
0.0
  0
HATCH
  5
13D47
330
37
100
AcDbEntity
  8
弱線
 48
0.3
100
AcDbHatch
 10
0.0
 20
0.0
 30
0.0
210
0.0
220
0.0
230
1.0
  2
_U
 70
     0
 71
     0
 91
        1
 92
        1
 93
        4
 72
     1
 10
303.5901380366013
 20
638.9172168012565
 11
282.5901380366013
 21
638.9172168012565
 72
     1
 10
282.5901380366013
 20
638.9172168012565
 11
282.5901380366013
 21
646.6172168012567
 72
     1
 10
282.5901380366013
 20
646.6172168012572
 11
303.5901380366013
 21
646.6172168012572
 72
     1
 10
303.5901380366013
 20
646.6172168012572
 11
303.5901380366013
 21
638.9172168012565
 97
        0
 75
     0
 76
     0
 52
90.0
 41
2.5
 77
     0
 78
     1
 53
90.0
 43
-1262.039745617983
 44
-2235.708193321353
 45
-2.5
 46
0.0000000000000002
 79
     0
 98
        1
 10
1649.054687274506
 20
-1108.412073900862
1001
GENIUS_GENOBJ-N-HTC_13
1002
{
1000
OWNER
1000
GEN
1002
}
1001
GENIUS_GENODEF_13
1002
{
1000
HIER
1070
     0
1002
}
1002
{
1000
MANEDIT
1070
     0
1002
}
1002
{
1000
NOSEL
1070
     0
1002
}
1002
{
1000
BEHIND
1070
     0
1002
}
1002
{
1000
OTHER
1070
     0
1002
}
1002
{
1000
REACTOR
1002
}
1001
GENIUS_GENHATCH_13
1002
{
1000
DATA
1040
90.0
1042
-1.0
1000
_U
1070
     0
1011
291.066744830001
1021
642.6143702730105
1031
0.0
1002
}
1002
{
1000
UCS
1010
0.0
1020
0.0
1030
0.0
1010
1.0
1020
0.0
1030
0.0
1010
0.0
1020
1.0
1030
0.0
1002
}
  0
LINE
  5
13D48
330
37
100
AcDbEntity
  8
0
100
AcDbLine
 10
283.5901380366013
 20
654.4172168012574
 30
0.0
 11
302.5901380366013
 21
654.4172168012574
 31
0.0
  0
LWPOLYLINE
  5
13D49
330
37
100
AcDbEntity
  8
0
100
AcDbPolyline
 90
       10
 70
     1
 43
0.0
 10
285.014296469813
 20
655.3666557567317
 10
283.5901380366013
 20
654.4172168012574
 10
283.5901380366013
 20
649.4172168012574
 10
302.5901380366013
 20
649.4172168012574
 10
302.5901380366013
 20
654.4172168012574
 10
301.16597960339
 20
655.3666557567317
 42
-0.2892456994447618
 10
299.8608951215338
 20
658.2916889277112
 10
302.1901380366012
 20
671.9172168012573
 10
283.9901380366013
 20
671.9172168012573
 10
286.3193809516688
 20
658.2916889277112
 42
-0.2892456994447619
  0
HATCH
  5
13D4A
330
37
100
AcDbEntity
  8
弱線
100
AcDbHatch
 10
0.0
 20
0.0
 30
0.0
210
0.0
220
0.0
230
1.0
  2
_U
 70
     0
 71
     0
 91
        1
 92
        1
 93
        4
 72
     1
 10
283.5901380366013
 20
654.4172168012574
 11
302.5901380366013
 21
654.4172168012574
 72
     1
 10
302.5901380366013
 20
654.4172168012574
 11
302.5901380366013
 21
649.4172168012574
 72
     1
 10
302.5901380366013
 20
649.4172168012574
 11
283.5901380366013
 21
649.4172168012574
 72
     1
 10
283.5901380366013
 20
649.4172168012574
 11
283.5901380366013
 21
654.4172168012574
 97
        0
 75
     0
 76
     0
 52
90.0
 41
2.5
 77
     0
 78
     1
 53
90.0
 43
-1262.039745617983
 44
-2235.408193321353
 45
-2.5
 46
0.0000000000000002
 79
     0
 98
        1
 10
486.1913940648764
 20
488.1545940812203
1001
GENIUS_GENOBJ-N-HTC_13
1002
{
1000
OWNER
1000
GEN
1002
}
1001
GENIUS_GENODEF_13
1002
{
1000
HIER
1070
     0
1002
}
1002
{
1000
MANEDIT
1070
     0
1002
}
1002
{
1000
NOSEL
1070
     0
1002
}
1002
{
1000
BEHIND
1070
     0
1002
}
1002
{
1000
OTHER
1070
     0
1002
}
1002
{
1000
REACTOR
1002
}
1001
GENIUS_GENHATCH_13
1002
{
1000
DATA
1040
90.0
1042
-1.0
1000
_U
1070
     0
1011
291.1044094762865
1021
653.3835822802292
1031
0.0
1002
}
1002
{
1000
UCS
1010
0.0
1020
0.0
1030
0.0
1010
1.0
1020
0.0
1030
0.0
1010
0.0
1020
1.0
1030
0.0
1002
}
  0
ARC
  5
13D4B
330
37
100
AcDbEntity
  8
0
 48
0.5
100
AcDbCircle
 10
293.0901380366013
 20
627.4172173012566
 30
0.0
 40
14.14897900000028
100
AcDbArc
 50
134.9710207280732
 51
232.5138980864613
  0
ARC
  5
13D4C
330
37
100
AcDbEntity
  8
0
 48
0.5
100
AcDbCircle
 10
293.0901380366013
 20
627.4172173012566
 30
0.0
 40
14.14897900000028
100
AcDbArc
 50
307.5043526116602
 51
45.0264309349346
  0
LWPOLYLINE
  5
13D4D
330
37
100
AcDbEntity
  8
0
100
AcDbPolyline
 90
        6
 70
     0
 43
0.0
 10
304.0901380366013
 20
679.9172168012574
 10
298.7370968575305
 20
728.5812275199841
 42
0.3824764488947462
 10
297.2460903236388
 20
729.9172168012573
 10
288.9341857495637
 20
729.9172168012573
 42
0.3824764488947462
 10
287.4431792156597
 20
728.5812275199774
 10
282.0901380366013
 20
679.9172168012574
  0
ARC
  5
13D4E
330
37
100
AcDbEntity
  8
0
100
AcDbCircle
 10
282.0901380366013
 20
678.4172168012574
 30
0.0
 40
1.5
100
AcDbArc
 50
90.0
 51
270.0
  0
ARC
  5
13D4F
330
37
100
AcDbEntity
  8
0
100
AcDbCircle
 10
304.0901380366013
 20
678.4172168012574
 30
0.0
 40
1.5
100
AcDbArc
 50
270.0
 51
90.0
  0
LWPOLYLINE
  5
13D50
330
37
100
AcDbEntity
  8
0
100
AcDbPolyline
 90
        4
 70
     0
 43
0.0
 10
282.0901380366013
 20
676.9172168012572
 10
283.8401380366013
 20
671.9172168012573
 10
302.3401380366013
 20
671.9172168012573
 10
304.0901380366013
 20
676.9172168012572
  0
LINE
  5
13D51
330
37
100
AcDbEntity
  8
0
100
AcDbLine
 10
304.0901380366013
 20
676.9172168012572
 30
0.0
 11
282.0901380366013
 21
676.9172168012572
 31
0.0
  0
LINE
  5
13D52
330
37
100
AcDbEntity
  8
0
100
AcDbLine
 10
304.0901380366158
 20
679.9172168012574
 30
0.0
 11
282.0901380366013
 21
679.9172168012574
 31
0.0
  0
ARC
  5
13D55
330
37
100
AcDbEntity
  8
0
100
AcDbCircle
 10
293.0901380365995
 20
627.4172173012566
 30
0.0
 40
17.0
100
AcDbArc
 50
300.1595887454748
 51
49.6797849300067
  0
ARC
  5
13D56
330
37
100
AcDbEntity
  8
0
100
AcDbCircle
 10
293.0901380365995
 20
627.4172173012566
 30
0.0
 40
17.0
100
AcDbArc
 50
130.3202150699607
 51
239.8542934968211
  0
LINE
  5
13D57
330
37
100
AcDbEntity
  8
弱線
100
AcDbLine
 10
622.3758843871983
 20
640.5594453993763
 30
0.0
 11
620.6329262396166
 21
640.5595065632954
 31
0.0
  0
LINE
  5
13D58
330
37
100
AcDbEntity
  8
弱線
100
AcDbLine
 10
619.857795387198
 20
640.1662970243401
 30
0.0
 11
619.8577969065345
 21
614.6681358056143
 31
0.0
  0
LWPOLYLINE
  5
13D59
330
37
100
AcDbEntity
  8
0
100
AcDbPolyline
 90
       28
 70
     0
 43
0.0
 10
622.3758843871983
 20
641.5661963012567
 10
620.9857191615363
 20
641.5661963012567
 10
620.4951266383595
 20
640.1662973012567
 10
619.857795387198
 20
640.1662970243401
 42
-0.201941003146582
 10
613.8582287825824
 20
637.1665139073142
 10
596.1351030137238
 20
637.166513327254
 42
-0.1212442646865258
 10
590.1008843871977
 20
638.9172173012566
 10
570.2390516722187
 20
638.9172173012566
 42
-0.1162670064868335
 10
568.7584175384927
 20
636.3856460379532
 10
563.5990033871981
 20
634.5027223012566
 10
563.3640803871981
 20
634.1672173012566
 10
563.3640803871981
 20
620.6672173012566
 10
563.5990033871981
 20
620.3317123012566
 10
565.9765395338036
 20
619.4663602675441
 42
-0.4663076788060272
 10
570.168581387198
 20
607.9488193012566
 10
552.8212303871978
 20
577.9002303012567
 10
553.0042433871981
 20
577.2172173012562
 10
554.7353864402666
 20
576.217741393174
 10
569.6528303871982
 20
584.8621953012566
 10
582.2930003871976
 20
577.5643893012563
 10
582.9760133871976
 20
577.7474023012569
 10
602.558824387198
 20
611.6679213012567
 42
-0.2679491830006636
 10
612.9511293871983
 20
617.6679213012566
 10
613.8582283871982
 20
617.6679213012566
 42
-0.2019410001722421
 10
619.8577969065345
 20
614.6681358056143
 10
620.4951266383595
 20
614.6686793012563
 10
620.9857191615363
 20
613.2682393012562
 10
622.3758843871983
 20
613.2682393012562
  0
LWPOLYLINE
  5
13D5A
330
37
100
AcDbEntity
  8
弱線
100
AcDbPolyline
 90
        5
 70
     0
 43
0.0
 10
593.5353323168527
 20
636.5117389093783
 42
0.0540571066179281
 10
587.3836074443461
 20
626.9464783083162
 42
-0.6647316702052556
 10
575.3641786438762
 20
627.7525036374068
 42
0.1155786764145547
 10
569.7367390843362
 20
635.1937716013052
 42
-0.1684010842477683
 10
568.7481155342237
 20
636.4135527333988
  0
LINE
  5
13D5B
330
37
100
AcDbEntity
  8
弱線
100
AcDbLine
 10
620.4951266383595
 20
640.1662973012567
 30
0.0
 11
620.4951266383595
 21
614.6686793012563
 31
0.0
  0
LINE
  5
13D5C
330
37
100
AcDbEntity
  8
弱線
100
AcDbLine
 10
622.3758843871983
 20
614.2749892031369
 30
0.0
 11
620.6330628746817
 21
614.2749280440125
 31
0.0
  0
LWPOLYLINE
  5
13D5D
330
37
100
AcDbEntity
  8
0
 48
0.5
100
AcDbPolyline
 90
        8
 70
     1
 43
0.0
 10
636.8758843871983
 20
610.4172173012571
 10
622.8758843871982
 20
610.4172173012566
 10
622.3758843871983
 20
610.9172173012566
 10
622.3758843871983
 20
643.917217301256
 10
622.8758843871982
 20
644.417217301256
 10
636.8758843871983
 20
644.4172173012566
 10
637.3758843871983
 20
643.9172173012566
 10
637.3758843871983
 20
610.9172173012571
1001
GENIUS_GENREC_14
1002
{
1000
PYDIR
1011
637.3758843871983
1021
644.4172173012566
1031
0.0
1002
}
1002
{
1000
PXDIR
1011
622.3758843871983
1021
610.4172173012566
1031
0.0
1002
}
1002
{
1000
PORI
1011
637.3758843871983
1021
610.4172173012566
1031
0.0
1002
}
1002
{
1000
PINS
1011
637.3758843871983
1021
610.4172173012566
1031
0.0
1002
}
1002
{
1000
HVAL
1000
33
1002
}
1002
{
1000
H
1070
     2
1002
}
1002
{
1000
WVAL
1000
15
1002
}
1002
{
1000
W
1070
     2
1002
}
1002
{
1000
C
1070
     1
1002
}
1001
GENIUS_GENOBJ-N-REC_13
1002
{
1000
OWNER
1000
GEN
1002
}
1001
GENIUS_GENODEF_13
1002
{
1000
HIER
1070
     0
1002
}
1002
{
1000
MANEDIT
1070
     0
1002
}
1002
{
1000
NOSEL
1070
     0
1002
}
1002
{
1000
BEHIND
1070
     0
1002
}
1002
{
1000
OTHER
1070
     0
1002
}
1002
{
1000
REACTOR
1002
}
  0
LINE
  5
13D5E
330
37
100
AcDbEntity
  8
弱線
 48
0.5
100
AcDbLine
 10
622.8758843871982
 20
644.417217301256
 30
0.0
 11
622.8758843871982
 21
610.4172173012566
 31
0.0
  0
LINE
  5
13D5F
330
37
100
AcDbEntity
  8
弱線
 48
0.5
100
AcDbLine
 10
636.8758843871983
 20
644.4172173012566
 30
0.0
 11
636.8758843871983
 21
610.4172173012571
 31
0.0
  0
LWPOLYLINE
  5
13D60
330
37
100
AcDbEntity
  8
0
 48
0.5
100
AcDbPolyline
 90
        4
 70
     0
 43
0.0
 10
637.3758843871983
 20
639.9172173012566
 10
637.8758843871978
 20
639.9172173012566
 10
637.8758843871978
 20
614.9172173012566
 10
637.3758843871983
 20
614.9172173012566
  0
HATCH
  5
13D61
330
37
100
AcDbEntity
  8
弱線
 48
0.5
100
AcDbHatch
 10
0.0
 20
0.0
 30
0.0
210
0.0
220
0.0
230
1.0
  2
_U
 70
     0
 71
     0
 91
        1
 92
        1
 93
        4
 72
     1
 10
622.8758843871982
 20
644.417217301256
 11
622.8758843871982
 21
610.4172173012566
 72
     1
 10
622.8758843871982
 20
610.4172173012566
 11
636.8758843871983
 21
610.4172173012571
 72
     1
 10
636.8758843871983
 20
610.4172173012571
 11
636.8758843871983
 21
644.4172173012566
 72
     1
 10
636.8758843871983
 20
644.4172173012566
 11
622.8758843871982
 21
644.417217301256
 97
        0
 75
     0
 76
     0
 52
0.0
 41
3.0
 77
     0
 78
     1
 53
0.0
 43
-855.8083904602423
 44
-2231.53582509261
 45
0.0
 46
3.0
 79
     0
 98
        1
 10
-855.8083904602423
 20
-2231.53582509261
1001
GENIUS_GENODEF_13
1002
{
1000
HIER
1070
     0
1002
}
1002
{
1000
MANEDIT
1070
     0
1002
}
1002
{
1000
NOSEL
1070
     0
1002
}
1002
{
1000
BEHIND
1070
     0
1002
}
1002
{
1000
OTHER
1070
     0
1002
}
1002
{
1000
REACTOR
1002
}
1001
GENIUS_GENOBJ-N-HTC_13
1002
{
1000
OWNER
1000
GEN
1002
}
1001
GENIUS_GENHATCH_13
1002
{
1000
DATA
1040
45.0
1042
2.5
1000
_U
1070
     0
1011
633.2058405367716
1021
635.9605280422206
1031
0.0
1002
}
1002
{
1000
UCS
1010
0.0
1020
0.0
1030
0.0
1010
1.0
1020
0.0
1030
0.0
1010
0.0
1020
1.0
1030
0.0
1002
}
  0
LWPOLYLINE
  5
13D62
330
37
100
AcDbEntity
  8
0
100
AcDbPolyline
 90
        8
 70
     0
 43
0.0
 10
571.9232327738144
 20
649.4172173012571
 42
0.0800061372182834
 10
570.0758843871981
 20
646.9172173012566
 10
569.5758843871981
 20
646.6172173012572
 10
569.5758843871981
 20
638.9172173012566
 10
591.5758843871981
 20
638.9172173012566
 10
591.5758843871981
 20
646.6172173012572
 10
591.0758843871981
 20
646.9172173012566
 42
0.0802777583198353
 10
589.2312130541737
 20
649.4172173012571
  0
LINE
  5
13D63
330
37
100
AcDbEntity
  8
0
100
AcDbLine
 10
591.5758843871981
 20
646.6172173012572
 30
0.0
 11
569.5758843871981
 21
646.6172173012572
 31
0.0
  0
LINE
  5
13D64
330
37
100
AcDbEntity
  8
弱線
100
AcDbLine
 10
591.0758843871981
 20
646.9172173012569
 30
0.0
 11
570.0758843871981
 21
646.9172173012569
 31
0.0
  0
HATCH
  5
13D65
330
37
100
AcDbEntity
  8
弱線
 48
0.3
100
AcDbHatch
 10
0.0
 20
0.0
 30
0.0
210
0.0
220
0.0
230
1.0
  2
_U
 70
     0
 71
     0
 91
        1
 92
        1
 93
        4
 72
     1
 10
591.0758843871981
 20
638.9172173012566
 11
570.0758843871981
 21
638.9172173012566
 72
     1
 10
570.0758843871981
 20
638.9172173012566
 11
570.0758843871981
 21
646.6172173012567
 72
     1
 10
570.0758843871981
 20
646.6172173012572
 11
591.0758843871981
 21
646.6172173012572
 72
     1
 10
591.0758843871981
 20
646.6172173012572
 11
591.0758843871981
 21
638.9172173012569
 97
        0
 75
     0
 76
     0
 52
90.0
 41
2.5
 77
     0
 78
     1
 53
90.0
 43
-947.2490133507173
 44
-2348.317051582606
 45
-2.5
 46
0.0000000000000002
 79
     0
 98
        1
 10
1936.540433625103
 20
-1108.412073400862
1001
GENIUS_GENOBJ-N-HTC_13
1002
{
1000
OWNER
1000
GEN
1002
}
1001
GENIUS_GENODEF_13
1002
{
1000
HIER
1070
     0
1002
}
1002
{
1000
MANEDIT
1070
     0
1002
}
1002
{
1000
NOSEL
1070
     0
1002
}
1002
{
1000
BEHIND
1070
     0
1002
}
1002
{
1000
OTHER
1070
     0
1002
}
1002
{
1000
REACTOR
1002
}
1001
GENIUS_GENHATCH_13
1002
{
1000
DATA
1040
90.0
1042
-1.0
1000
_U
1070
     0
1011
578.5524911805977
1021
642.6143707730108
1031
0.0
1002
}
1002
{
1000
UCS
1010
0.0
1020
0.0
1030
0.0
1010
1.0
1020
0.0
1030
0.0
1010
0.0
1020
1.0
1030
0.0
1002
}
  0
LINE
  5
13D66
330
37
100
AcDbEntity
  8
0
100
AcDbLine
 10
571.0758843871981
 20
654.4172173012571
 30
0.0
 11
590.0758843871981
 21
654.4172173012571
 31
0.0
  0
LWPOLYLINE
  5
13D67
330
37
100
AcDbEntity
  8
0
100
AcDbPolyline
 90
       10
 70
     1
 43
0.0
 10
572.5000428204098
 20
655.3666562567313
 10
571.0758843871981
 20
654.4172173012571
 10
571.0758843871981
 20
649.4172173012571
 10
590.0758843871981
 20
649.4172173012571
 10
590.0758843871981
 20
654.4172173012571
 10
588.6517259539869
 20
655.3666562567313
 42
-0.2892456994447618
 10
587.3466414721304
 20
658.2916894277107
 10
589.675884387198
 20
671.9172173012569
 10
571.4758843871982
 20
671.9172173012569
 10
573.8051273022656
 20
658.2916894277107
 42
-0.2892456994447619
  0
HATCH
  5
13D68
330
37
100
AcDbEntity
  8
弱線
100
AcDbHatch
 10
0.0
 20
0.0
 30
0.0
210
0.0
220
0.0
230
1.0
  2
_U
 70
     0
 71
     0
 91
        1
 92
        1
 93
        4
 72
     1
 10
571.0758843871981
 20
654.4172173012571
 11
590.0758843871981
 21
654.4172173012571
 72
     1
 10
590.0758843871981
 20
654.4172173012571
 11
590.0758843871981
 21
649.4172173012571
 72
     1
 10
590.0758843871981
 20
649.4172173012571
 11
571.0758843871981
 21
649.4172173012571
 72
     1
 10
571.0758843871981
 20
649.4172173012571
 11
571.0758843871981
 21
654.4172173012571
 97
        0
 75
     0
 76
     0
 52
90.0
 41
2.5
 77
     0
 78
     1
 53
90.0
 43
-947.2490133507173
 44
-2348.317051582606
 45
-2.5
 46
0.0000000000000002
 79
     0
 98
        1
 10
773.6771404154731
 20
488.15459458122
1001
GENIUS_GENOBJ-N-HTC_13
1002
{
1000
OWNER
1000
GEN
1002
}
1001
GENIUS_GENODEF_13
1002
{
1000
HIER
1070
     0
1002
}
1002
{
1000
MANEDIT
1070
     0
1002
}
1002
{
1000
NOSEL
1070
     0
1002
}
1002
{
1000
BEHIND
1070
     0
1002
}
1002
{
1000
OTHER
1070
     0
1002
}
1002
{
1000
REACTOR
1002
}
1001
GENIUS_GENHATCH_13
1002
{
1000
DATA
1040
90.0
1042
-1.0
1000
_U
1070
     0
1011
578.5901558268832
1021
653.383582780229
1031
0.0
1002
}
1002
{
1000
UCS
1010
0.0
1020
0.0
1030
0.0
1010
1.0
1020
0.0
1030
0.0
1010
0.0
1020
1.0
1030
0.0
1002
}
  0
LWPOLYLINE
  5
13D69
330
37
100
AcDbEntity
  8
0
100
AcDbPolyline
 90
        6
 70
     0
 43
0.0
 10
591.5758843871981
 20
679.917217301257
 10
586.2228432081272
 20
728.5812280199839
 42
0.3824764488947462
 10
584.7318366742356
 20
729.917217301257
 10
576.4199321001606
 20
729.917217301257
 42
0.3824764488947462
 10
574.9289255662564
 20
728.581228019977
 10
569.5758843871981
 20
679.917217301257
  0
ARC
  5
13D6A
330
37
100
AcDbEntity
  8
0
100
AcDbCircle
 10
569.5758843871981
 20
678.4172173012571
 30
0.0
 40
1.5
100
AcDbArc
 50
90.0
 51
270.0
  0
ARC
  5
13D6B
330
37
100
AcDbEntity
  8
0
100
AcDbCircle
 10
591.5758843871981
 20
678.4172173012571
 30
0.0
 40
1.5
100
AcDbArc
 50
270.0
 51
90.0
  0
LWPOLYLINE
  5
13D6C
330
37
100
AcDbEntity
  8
0
100
AcDbPolyline
 90
        4
 70
     0
 43
0.0
 10
569.5758843871981
 20
676.9172173012568
 10
571.3258843871981
 20
671.9172173012569
 10
589.8258843871981
 20
671.9172173012569
 10
591.5758843871981
 20
676.9172173012568
  0
LINE
  5
13D6D
330
37
100
AcDbEntity
  8
0
100
AcDbLine
 10
591.5758843871981
 20
676.9172173012568
 30
0.0
 11
569.5758843871981
 21
676.9172173012568
 31
0.0
  0
LINE
  5
13D6E
330
37
100
AcDbEntity
  8
0
100
AcDbLine
 10
591.5758843872128
 20
679.917217301257
 30
0.0
 11
569.5758843871981
 21
679.917217301257
 31
0.0
  0
LWPOLYLINE
  5
13D70
330
37
100
AcDbEntity
  8
0
100
AcDbPolyline
 90
        8
 70
     1
 43
0.0
 10
310.0901380365995
 20
987.6689763012164
 10
310.0901380365995
 20
1001.168976301217
 10
309.3401380365995
 20
1001.918976301217
 10
276.8401380365995
 20
1001.918976301216
 10
276.0901380365995
 20
1001.168976301216
 10
276.0901380365995
 20
987.6689763012164
 10
276.8401380365995
 20
986.9189763012164
 10
309.3401380365995
 20
986.9189763012164
1001
GENIUS_GENREC_14
1002
{
1000
PYDIR
1011
276.0901380365995
1021
986.9189763012164
1031
0.0
1002
}
1002
{
1000
PXDIR
1011
310.0901380365995
1021
1001.918976301216
1031
0.0
1002
}
1002
{
1000
PORI
1011
310.0901380365995
1021
986.9189763012164
1031
0.0
1002
}
1002
{
1000
PINS
1011
293.0901380365995
1021
986.9189763012164
1031
0.0
1002
}
1002
{
1000
HVAL
1000
36
1002
}
1002
{
1000
H
1070
     2
1002
}
1002
{
1000
WVAL
1000
16.5
1002
}
1002
{
1000
W
1070
     2
1002
}
1002
{
1000
C
1070
     3
1002
}
1001
GENIUS_GENOBJ-N-REC_13
1002
{
1000
OWNER
1000
GEN
1002
}
1001
GENIUS_GENODEF_13
1002
{
1000
HIER
1070
     0
1002
}
1002
{
1000
MANEDIT
1070
     0
1002
}
1002
{
1000
NOSEL
1070
     0
1002
}
1002
{
1000
BEHIND
1070
     0
1002
}
1002
{
1000
OTHER
1070
     0
1002
}
1002
{
1000
REACTOR
1002
}
  0
CIRCLE
  5
13D71
330
37
100
AcDbEntity
  8
0
100
AcDbCircle
 10
293.0901380365995
 20
945.1189763012164
 30
0.0
 40
12.5
  0
LINE
  5
13D72
330
37
100
AcDbEntity
  8
0
100
AcDbLine
 10
286.167440414672
 20
927.9071723012163
 30
0.0
 11
300.0128356585268
 21
927.9071723012163
 31
0.0
  0
LWPOLYLINE
  5
13D73
330
37
100
AcDbEntity
  8
0
100
AcDbPolyline
 90
       10
 70
     0
 43
0.0
 10
283.9288718735998
 20
936.6147889626088
 42
0.0672445587347603
 10
285.6409614146718
 20
928.7663363014454
 10
285.8319354146729
 20
928.1420953012164
 10
286.167440414672
 20
927.9071723012163
 10
287.5549645248711
 20
920.9189763014435
 42
0.6421937799592128
 10
298.6253115483279
 20
920.9189763014434
 10
300.0128356585268
 20
927.9071723012163
 10
300.348340658526
 20
928.1420953012164
 10
300.539314658527
 20
928.7663363014454
 42
0.067244558734709
 10
302.2514041995983
 20
936.6147889626033
 42
0.067244558734709
  0
LINE
  5
13D74
330
37
100
AcDbEntity
  8
弱線
 48
0.5
100
AcDbLine
 10
276.5901380365995
 20
987.6689763012164
 30
0.0
 11
276.5901380365995
 21
1001.168976301216
 31
0.0
1001
GENIUS_GENODEF_13
1002
{
1000
HIER
1070
     0
1002
}
1002
{
1000
MANEDIT
1070
     0
1002
}
1002
{
1000
NOSEL
1070
     0
1002
}
1002
{
1000
BEHIND
1070
     0
1002
}
1002
{
1000
OTHER
1070
     0
1002
}
1002
{
1000
REACTOR
1002
}
1001
GENIUS_GENOBJ-N-HTC_13
1002
{
1000
OWNER
1000
GEN
1002
}
1001
GENIUS_GENHATCH_13
1002
{
1000
DATA
1040
90.0
1042
3.0
1000
_U
1070
     0
1011
296.5890755376276
1021
995.057890869762
1031
0.0
1002
}
1002
{
1000
UCS
1010
0.0
1020
0.0
1030
0.0
1010
1.0
1020
0.0
1030
0.0
1010
0.0
1020
1.0
1030
0.0
1002
}
  0
LINE
  5
13D75
330
37
100
AcDbEntity
  8
弱線
 48
0.5
100
AcDbLine
 10
279.5901380365994
 20
987.6689763012164
 30
0.0
 11
279.5901380365994
 21
1001.168976301216
 31
0.0
1001
GENIUS_GENODEF_13
1002
{
1000
HIER
1070
     0
1002
}
1002
{
1000
MANEDIT
1070
     0
1002
}
1002
{
1000
NOSEL
1070
     0
1002
}
1002
{
1000
BEHIND
1070
     0
1002
}
1002
{
1000
OTHER
1070
     0
1002
}
1002
{
1000
REACTOR
1002
}
1001
GENIUS_GENOBJ-N-HTC_13
1002
{
1000
OWNER
1000
GEN
1002
}
1001
GENIUS_GENHATCH_13
1002
{
1000
DATA
1040
90.0
1042
3.0
1000
_U
1070
     0
1011
296.5890755376276
1021
995.057890869762
1031
0.0
1002
}
1002
{
1000
UCS
1010
0.0
1020
0.0
1030
0.0
1010
1.0
1020
0.0
1030
0.0
1010
0.0
1020
1.0
1030
0.0
1002
}
  0
LINE
  5
13D76
330
37
100
AcDbEntity
  8
弱線
 48
0.5
100
AcDbLine
 10
282.5901380365995
 20
987.6689763012164
 30
0.0
 11
282.5901380365995
 21
1001.168976301216
 31
0.0
1001
GENIUS_GENODEF_13
1002
{
1000
HIER
1070
     0
1002
}
1002
{
1000
MANEDIT
1070
     0
1002
}
1002
{
1000
NOSEL
1070
     0
1002
}
1002
{
1000
BEHIND
1070
     0
1002
}
1002
{
1000
OTHER
1070
     0
1002
}
1002
{
1000
REACTOR
1002
}
1001
GENIUS_GENOBJ-N-HTC_13
1002
{
1000
OWNER
1000
GEN
1002
}
1001
GENIUS_GENHATCH_13
1002
{
1000
DATA
1040
90.0
1042
3.0
1000
_U
1070
     0
1011
296.5890755376276
1021
995.057890869762
1031
0.0
1002
}
1002
{
1000
UCS
1010
0.0
1020
0.0
1030
0.0
1010
1.0
1020
0.0
1030
0.0
1010
0.0
1020
1.0
1030
0.0
1002
}
  0
LINE
  5
13D77
330
37
100
AcDbEntity
  8
弱線
 48
0.5
100
AcDbLine
 10
285.5901380365994
 20
987.6689763012164
 30
0.0
 11
285.5901380365994
 21
1001.168976301216
 31
0.0
1001
GENIUS_GENODEF_13
1002
{
1000
HIER
1070
     0
1002
}
1002
{
1000
MANEDIT
1070
     0
1002
}
1002
{
1000
NOSEL
1070
     0
1002
}
1002
{
1000
BEHIND
1070
     0
1002
}
1002
{
1000
OTHER
1070
     0
1002
}
1002
{
1000
REACTOR
1002
}
1001
GENIUS_GENOBJ-N-HTC_13
1002
{
1000
OWNER
1000
GEN
1002
}
1001
GENIUS_GENHATCH_13
1002
{
1000
DATA
1040
90.0
1042
3.0
1000
_U
1070
     0
1011
296.5890755376276
1021
995.057890869762
1031
0.0
1002
}
1002
{
1000
UCS
1010
0.0
1020
0.0
1030
0.0
1010
1.0
1020
0.0
1030
0.0
1010
0.0
1020
1.0
1030
0.0
1002
}
  0
LINE
  5
13D78
330
37
100
AcDbEntity
  8
弱線
 48
0.5
100
AcDbLine
 10
288.5901380365995
 20
987.6689763012164
 30
0.0
 11
288.5901380365995
 21
1001.168976301216
 31
0.0
1001
GENIUS_GENODEF_13
1002
{
1000
HIER
1070
     0
1002
}
1002
{
1000
MANEDIT
1070
     0
1002
}
1002
{
1000
NOSEL
1070
     0
1002
}
1002
{
1000
BEHIND
1070
     0
1002
}
1002
{
1000
OTHER
1070
     0
1002
}
1002
{
1000
REACTOR
1002
}
1001
GENIUS_GENOBJ-N-HTC_13
1002
{
1000
OWNER
1000
GEN
1002
}
1001
GENIUS_GENHATCH_13
1002
{
1000
DATA
1040
90.0
1042
3.0
1000
_U
1070
     0
1011
296.5890755376276
1021
995.057890869762
1031
0.0
1002
}
1002
{
1000
UCS
1010
0.0
1020
0.0
1030
0.0
1010
1.0
1020
0.0
1030
0.0
1010
0.0
1020
1.0
1030
0.0
1002
}
  0
LINE
  5
13D79
330
37
100
AcDbEntity
  8
弱線
 48
0.5
100
AcDbLine
 10
291.5901380365994
 20
987.6689763012164
 30
0.0
 11
291.5901380365994
 21
1001.168976301216
 31
0.0
1001
GENIUS_GENODEF_13
1002
{
1000
HIER
1070
     0
1002
}
1002
{
1000
MANEDIT
1070
     0
1002
}
1002
{
1000
NOSEL
1070
     0
1002
}
1002
{
1000
BEHIND
1070
     0
1002
}
1002
{
1000
OTHER
1070
     0
1002
}
1002
{
1000
REACTOR
1002
}
1001
GENIUS_GENOBJ-N-HTC_13
1002
{
1000
OWNER
1000
GEN
1002
}
1001
GENIUS_GENHATCH_13
1002
{
1000
DATA
1040
90.0
1042
3.0
1000
_U
1070
     0
1011
296.5890755376276
1021
995.057890869762
1031
0.0
1002
}
1002
{
1000
UCS
1010
0.0
1020
0.0
1030
0.0
1010
1.0
1020
0.0
1030
0.0
1010
0.0
1020
1.0
1030
0.0
1002
}
  0
LINE
  5
13D7A
330
37
100
AcDbEntity
  8
弱線
 48
0.5
100
AcDbLine
 10
294.5901380365995
 20
987.6689763012164
 30
0.0
 11
294.5901380365995
 21
1001.168976301216
 31
0.0
1001
GENIUS_GENODEF_13
1002
{
1000
HIER
1070
     0
1002
}
1002
{
1000
MANEDIT
1070
     0
1002
}
1002
{
1000
NOSEL
1070
     0
1002
}
1002
{
1000
BEHIND
1070
     0
1002
}
1002
{
1000
OTHER
1070
     0
1002
}
1002
{
1000
REACTOR
1002
}
1001
GENIUS_GENOBJ-N-HTC_13
1002
{
1000
OWNER
1000
GEN
1002
}
1001
GENIUS_GENHATCH_13
1002
{
1000
DATA
1040
90.0
1042
3.0
1000
_U
1070
     0
1011
296.5890755376276
1021
995.057890869762
1031
0.0
1002
}
1002
{
1000
UCS
1010
0.0
1020
0.0
1030
0.0
1010
1.0
1020
0.0
1030
0.0
1010
0.0
1020
1.0
1030
0.0
1002
}
  0
LINE
  5
13D7B
330
37
100
AcDbEntity
  8
弱線
 48
0.5
100
AcDbLine
 10
297.5901380365995
 20
987.6689763012164
 30
0.0
 11
297.5901380365995
 21
1001.168976301216
 31
0.0
1001
GENIUS_GENODEF_13
1002
{
1000
HIER
1070
     0
1002
}
1002
{
1000
MANEDIT
1070
     0
1002
}
1002
{
1000
NOSEL
1070
     0
1002
}
1002
{
1000
BEHIND
1070
     0
1002
}
1002
{
1000
OTHER
1070
     0
1002
}
1002
{
1000
REACTOR
1002
}
1001
GENIUS_GENOBJ-N-HTC_13
1002
{
1000
OWNER
1000
GEN
1002
}
1001
GENIUS_GENHATCH_13
1002
{
1000
DATA
1040
90.0
1042
3.0
1000
_U
1070
     0
1011
296.5890755376276
1021
995.057890869762
1031
0.0
1002
}
1002
{
1000
UCS
1010
0.0
1020
0.0
1030
0.0
1010
1.0
1020
0.0
1030
0.0
1010
0.0
1020
1.0
1030
0.0
1002
}
  0
LINE
  5
13D7C
330
37
100
AcDbEntity
  8
弱線
 48
0.5
100
AcDbLine
 10
300.5901380365994
 20
987.6689763012164
 30
0.0
 11
300.5901380365994
 21
1001.168976301216
 31
0.0
1001
GENIUS_GENODEF_13
1002
{
1000
HIER
1070
     0
1002
}
1002
{
1000
MANEDIT
1070
     0
1002
}
1002
{
1000
NOSEL
1070
     0
1002
}
1002
{
1000
BEHIND
1070
     0
1002
}
1002
{
1000
OTHER
1070
     0
1002
}
1002
{
1000
REACTOR
1002
}
1001
GENIUS_GENOBJ-N-HTC_13
1002
{
1000
OWNER
1000
GEN
1002
}
1001
GENIUS_GENHATCH_13
1002
{
1000
DATA
1040
90.0
1042
3.0
1000
_U
1070
     0
1011
296.5890755376276
1021
995.057890869762
1031
0.0
1002
}
1002
{
1000
UCS
1010
0.0
1020
0.0
1030
0.0
1010
1.0
1020
0.0
1030
0.0
1010
0.0
1020
1.0
1030
0.0
1002
}
  0
LINE
  5
13D7D
330
37
100
AcDbEntity
  8
弱線
 48
0.5
100
AcDbLine
 10
303.5901380365995
 20
987.6689763012164
 30
0.0
 11
303.5901380365995
 21
1001.168976301216
 31
0.0
1001
GENIUS_GENODEF_13
1002
{
1000
HIER
1070
     0
1002
}
1002
{
1000
MANEDIT
1070
     0
1002
}
1002
{
1000
NOSEL
1070
     0
1002
}
1002
{
1000
BEHIND
1070
     0
1002
}
1002
{
1000
OTHER
1070
     0
1002
}
1002
{
1000
REACTOR
1002
}
1001
GENIUS_GENOBJ-N-HTC_13
1002
{
1000
OWNER
1000
GEN
1002
}
1001
GENIUS_GENHATCH_13
1002
{
1000
DATA
1040
90.0
1042
3.0
1000
_U
1070
     0
1011
296.5890755376276
1021
995.057890869762
1031
0.0
1002
}
1002
{
1000
UCS
1010
0.0
1020
0.0
1030
0.0
1010
1.0
1020
0.0
1030
0.0
1010
0.0
1020
1.0
1030
0.0
1002
}
  0
LINE
  5
13D7E
330
37
100
AcDbEntity
  8
弱線
 48
0.5
100
AcDbLine
 10
306.5901380365994
 20
987.6689763012164
 30
0.0
 11
306.5901380365994
 21
1001.168976301216
 31
0.0
1001
GENIUS_GENODEF_13
1002
{
1000
HIER
1070
     0
1002
}
1002
{
1000
MANEDIT
1070
     0
1002
}
1002
{
1000
NOSEL
1070
     0
1002
}
1002
{
1000
BEHIND
1070
     0
1002
}
1002
{
1000
OTHER
1070
     0
1002
}
1002
{
1000
REACTOR
1002
}
1001
GENIUS_GENOBJ-N-HTC_13
1002
{
1000
OWNER
1000
GEN
1002
}
1001
GENIUS_GENHATCH_13
1002
{
1000
DATA
1040
90.0
1042
3.0
1000
_U
1070
     0
1011
296.5890755376276
1021
995.057890869762
1031
0.0
1002
}
1002
{
1000
UCS
1010
0.0
1020
0.0
1030
0.0
1010
1.0
1020
0.0
1030
0.0
1010
0.0
1020
1.0
1030
0.0
1002
}
  0
LINE
  5
13D7F
330
37
100
AcDbEntity
  8
弱線
 48
0.5
100
AcDbLine
 10
309.5901380365995
 20
987.6689763012164
 30
0.0
 11
309.5901380365995
 21
1001.168976301216
 31
0.0
1001
GENIUS_GENODEF_13
1002
{
1000
HIER
1070
     0
1002
}
1002
{
1000
MANEDIT
1070
     0
1002
}
1002
{
1000
NOSEL
1070
     0
1002
}
1002
{
1000
BEHIND
1070
     0
1002
}
1002
{
1000
OTHER
1070
     0
1002
}
1002
{
1000
REACTOR
1002
}
1001
GENIUS_GENOBJ-N-HTC_13
1002
{
1000
OWNER
1000
GEN
1002
}
1001
GENIUS_GENHATCH_13
1002
{
1000
DATA
1040
90.0
1042
3.0
1000
_U
1070
     0
1011
296.5890755376276
1021
995.057890869762
1031
0.0
1002
}
1002
{
1000
UCS
1010
0.0
1020
0.0
1030
0.0
1010
1.0
1020
0.0
1030
0.0
1010
0.0
1020
1.0
1030
0.0
1002
}
  0
LWPOLYLINE
  5
13D80
330
37
100
AcDbEntity
  8
0
 48
0.5
100
AcDbPolyline
 90
        4
 70
     0
 43
0.0
 10
280.5901380365995
 20
1001.918976301216
 10
280.5901380365995
 20
1002.418976301216
 10
305.5901380365995
 20
1002.418976301216
 10
305.5901380365995
 20
1001.918976301217
  0
LWPOLYLINE
  5
13D81
330
37
100
AcDbEntity
  8
弱線
 48
0.5
100
AcDbPolyline
 90
        2
 70
     0
 43
0.0
 10
276.0901380365995
 20
1001.168976301216
 10
310.0901380365995
 20
1001.168976301216
  0
LWPOLYLINE
  5
13D82
330
37
100
AcDbEntity
  8
弱線
 48
0.5
100
AcDbPolyline
 90
        2
 70
     0
 43
0.0
 10
276.0901380365995
 20
987.6689763012164
 10
310.0901380365995
 20
987.6689763012164
  0
CIRCLE
  5
13D83
330
37
100
AcDbEntity
  8
弱線
 48
0.5
100
AcDbCircle
 10
293.0901380365995
 20
945.1189763012164
 30
0.0
 40
11.0
  0
LWPOLYLINE
  5
13D84
330
37
100
AcDbEntity
  8
0
100
AcDbPolyline
 90
        3
 70
     0
 43
0.0
 10
283.5889162150033
 20
953.2415857278
 10
283.3408414305413
 20
978.4013206966008
 42
0.2019410031465282
 10
280.3410583135155
 20
984.4008873012162
  0
LINE
  5
13D85
330
37
100
AcDbEntity
  8
弱線
100
AcDbLine
 10
279.9479099384798
 20
986.9189763012164
 30
0.0
 11
279.94784877456
 21
985.1760181536347
 31
0.0
  0
LINE
  5
13D86
330
37
100
AcDbEntity
  8
弱線
100
AcDbLine
 10
280.3410583135155
 20
984.4008873012162
 30
0.0
 11
305.8392195322412
 21
984.4008888205523
 31
0.0
  0
LINE
  5
13D87
330
37
100
AcDbEntity
  8
0
100
AcDbLine
 10
278.941159036599
 20
986.9189763012164
 30
0.0
 11
278.941159036599
 21
985.5288110755546
 31
0.0
  0
LINE
  5
13D88
330
37
100
AcDbEntity
  8
0
100
AcDbLine
 10
278.941159036599
 20
985.5288110755546
 30
0.0
 11
280.3410580365989
 21
985.0382185523777
 31
0.0
  0
LINE
  5
13D89
330
37
100
AcDbEntity
  8
0
100
AcDbLine
 10
280.3410580365989
 20
985.0382185523777
 30
0.0
 11
280.3410583135155
 21
984.4008873012162
 31
0.0
  0
LINE
  5
13D8A
330
37
100
AcDbEntity
  8
0
100
AcDbLine
 10
305.8392195322412
 20
984.4008888205523
 30
0.0
 11
305.8386760365993
 21
985.0382185523777
 31
0.0
  0
LINE
  5
13D8B
330
37
100
AcDbEntity
  8
0
100
AcDbLine
 10
305.8386760365993
 20
985.0382185523777
 30
0.0
 11
307.2391160365996
 21
985.5288110755546
 31
0.0
  0
LINE
  5
13D8C
330
37
100
AcDbEntity
  8
0
100
AcDbLine
 10
307.2391160365996
 20
985.5288110755546
 30
0.0
 11
307.2391160365996
 21
986.9189763012164
 31
0.0
  0
LINE
  5
13D8D
330
37
100
AcDbEntity
  8
弱線
100
AcDbLine
 10
280.3410580365989
 20
985.0382185523777
 30
0.0
 11
305.8386760365993
 21
985.0382185523777
 31
0.0
  0
LINE
  5
13D8E
330
37
100
AcDbEntity
  8
弱線
100
AcDbLine
 10
306.2323661347191
 20
986.9189763012164
 30
0.0
 11
306.2324272938431
 21
985.1761547887004
 31
0.0
  0
LWPOLYLINE
  5
13D8F
330
37
100
AcDbEntity
  8
0
100
AcDbPolyline
 90
        3
 70
     0
 43
0.0
 10
302.5913616105436
 20
953.2415836780343
 10
302.8394364152159
 20
978.4013206966008
 42
-0.2019408762348164
 10
305.8392195322412
 20
984.4008888205523
  0
CIRCLE
  5
13D90
330
37
100
AcDbEntity
  8
弱線
 48
0.5
100
AcDbCircle
 10
293.0901380365995
 20
945.1189763012164
 30
0.0
 40
4.155952287035006
  0
INSERT
  5
13F1D
330
37
100
AcDbEntity
  8
0
100
AcDbBlockReference
  2
A$C081E3E1A
 10
258.5901380365994
 20
352.4172173012567
 30
0.0
 41
4.0
 42
4.0
 43
4.0
  0
ENDSEC
  0
SECTION
  2
OBJECTS
  0
DICTIONARY
  5
C
330
0
100
AcDbDictionary
281
     1
  3
ACAD_2007HEADERVARS_RT
350
14D15
  3
ACAD_CIP_PREVIOUS_PRODUCT_INFO
350
12026
  3
ACAD_COLOR
350
30
  3
ACAD_DETAILVIEWSTYLE
350
12019
  3
ACAD_FIELDLIST
350
12364
  3
ACAD_GROUP
350
D
  3
ACAD_LAYOUT
350
2F
  3
ACAD_MATERIAL
350
10
  3
ACAD_MLEADERSTYLE
350
1757
  3
ACAD_MLINESTYLE
350
2C
  3
ACAD_PLOTSETTINGS
350
2E
  3
ACAD_PLOTSTYLENAME
350
E
  3
ACAD_SCALELIST
350
1735
  3
ACAD_SECTIONVIEWSTYLE
350
12017
  3
ACAD_TABLESTYLE
350
31
  3
ACAD_VISUALSTYLE
350
14
  3
ACDB_RECOMPOSE_DATA
350
14D13
  3
AcDbVariableDictionary
350
454
  3
AcmDictionary
350
9F
  3
AEC_PROPERTY_SET_DEFS
350
EF56
  3
AMG
350
42
  3
AMGSNAPSETTINGS
350
125
  3
ASE_INDEX_DICTIONARY
350
FAC9
  3
DWGPROPS
350
14D14
  0
DICTIONARY
  5
104
330
2
100
AcDbDictionary
280
     1
281
     1
  3
ACAD_LAYERFILTERS
360
D07F
  3
ACAD_LAYERSTATES
360
105
  3
ACLYDICTIONARY
360
D07E
  3
AMLAYER_GROUPCOLORS
360
1956
  0
DICTIONARY
  5
2025
330
25
100
AcDbDictionary
280
     1
281
     1
  3
ADSK_XREC_LAYER_RECONCILED
360
60E2
  0
DICTIONARY
  5
52A3
330
52A2
100
AcDbDictionary
280
     1
281
     1
  3
ADSK_XREC_LAYER_RECONCILED
360
60E3
  0
DICTIONARY
  5
52A9
330
52A8
100
AcDbDictionary
280
     1
281
     1
  3
ADSK_XREC_LAYER_RECONCILED
360
60E6
  0
DICTIONARY
  5
52AD
330
52AC
100
AcDbDictionary
280
     1
281
     1
  3
ADSK_XREC_LAYER_RECONCILED
360
60E8
  0
DICTIONARY
  5
60EB
330
5B8A
100
AcDbDictionary
280
     1
281
     1
  3
ADSK_XREC_LAYER_RECONCILED
360
60EC
  0
DICTIONARY
  5
98D8
330
98D7
100
AcDbDictionary
280
     1
281
     1
  0
DICTIONARY
  5
1019F
330
1019E
100
AcDbDictionary
280
     1
281
     1
  0
DICTIONARY
  5
4874
330
4873
100
AcDbDictionary
280
     1
281
     1
  3
ADSK_XREC_VTR_ANNOSCALE_DATA
360
4875
  3
ADSK_XREC_VTRVIEWINFO
360
4877
  0
DICTIONARY
  5
946
330
37
100
AcDbDictionary
280
     1
281
     1
  3
ACAD_SORTENTS
360
947
  0
DICTIONARY
  5
13F19
330
13EA1
100
AcDbDictionary
280
     1
281
     1
  3
ACAD_SORTENTS
360
148A8
  0
DICTIONARY
  5
14D15
102
{ACAD_REACTORS
330
C
102
}
330
C
100
AcDbDictionary
281
     1
  3
DIMARCSYM
350
14D16
  3
INTERFEREVPVS
350
14D17
  0
XRECORD
  5
12026
102
{ACAD_REACTORS
330
C
102
}
330
C
100
AcDbXrecord
280
     1
300
AMECH_PP
300
2014
300
PDSP_F_S
  0
DICTIONARY
  5
30
102
{ACAD_REACTORS
330
C
102
}
330
C
100
AcDbDictionary
281
     1
  0
DICTIONARY
  5
12019
102
{ACAD_REACTORS
330
C
102
}
330
C
100
AcDbDictionary
281
     1
  3
Imperial24
350
123EE
  3
Metric50
350
1201A
  0
FIELDLIST
  5
12364
102
{ACAD_REACTORS
330
C
102
}
330
C
100
AcDbIdSet
 90
        3
330
14D07
330
14D08
330
14D09
100
AcDbFieldList
  0
DICTIONARY
  5
D
102
{ACAD_REACTORS
330
C
102
}
330
C
100
AcDbDictionary
281
     1
  0
DICTIONARY
  5
2F
102
{ACAD_REACTORS
330
C
102
}
330
C
100
AcDbDictionary
281
     1
  3
Model
350
3A
  3
レイアウト1
350
1443D
  0
DICTIONARY
  5
10
102
{ACAD_REACTORS
330
C
102
}
330
C
100
AcDbDictionary
281
     1
  3
ByBlock
350
12
  3
ByLayer
350
11
  3
Global
350
13
  0
DICTIONARY
  5
1757
102
{ACAD_REACTORS
330
C
102
}
330
C
100
AcDbDictionary
281
     1
  3
Standard
350
1758
  0
DICTIONARY
  5
2C
102
{ACAD_REACTORS
330
C
102
}
330
C
100
AcDbDictionary
281
     1
  3
Standard
350
2D
  0
DICTIONARY
  5
2E
102
{ACAD_REACTORS
330
C
102
}
330
C
100
AcDbDictionary
281
     1
  3
PDF-A4
350
11308
  0
ACDBDICTIONARYWDFLT
  5
E
102
{ACAD_REACTORS
330
C
102
}
330
C
100
AcDbDictionary
281
     1
  3
Normal
350
F
100
AcDbDictionaryWithDefault
340
F
  0
DICTIONARY
  5
1735
102
{ACAD_REACTORS
330
C
102
}
330
C
100
AcDbDictionary
281
     1
  3
A0
350
5614
  3
A1
350
1736
  3
A2
350
523D
  3
A3
350
523E
  3
A4
350
12029
  3
A5
350
1202A
  3
A6
350
1202B
  3
A7
350
1202C
  3
A8
350
1202D
  3
A9
350
1202E
  3
B0
350
1202F
  3
B1
350
12030
  3
B2
350
12031
  3
B3
350
12032
  3
B4
350
12033
  3
B5
350
12034
  3
B6
350
12035
  3
B7
350
12036
  0
DICTIONARY
  5
12017
102
{ACAD_REACTORS
330
C
102
}
330
C
100
AcDbDictionary
281
     1
  3
Imperial24
350
123EC
  3
Metric50
350
12018
  0
DICTIONARY
  5
31
102
{ACAD_REACTORS
330
C
102
}
330
C
100
AcDbDictionary
281
     1
  3
Standard
350
32
  0
DICTIONARY
  5
14
102
{ACAD_REACTORS
330
C
102
}
330
C
100
AcDbDictionary
281
     1
  3
2dWireframe
350
1A
  3
3D Hidden
350
1C
  3
3dWireframe
350
1B
  3
Basic
350
19
  3
Brighten
350
20
  3
ColorChange
350
24
  3
Conceptual
350
1D
  3
Dim
350
1F
  3
EdgeColorOff
350
12016
  3
Facepattern
350
23
  3
Flat
350
15
  3
FlatWithEdges
350
16
  3
Gouraud
350
17
  3
GouraudWithEdges
350
18
  3
Hidden
350
1200E
  3
JitterOff
350
12014
  3
Linepattern
350
22
  3
OverhangOff
350
12015
  3
Realistic
350
1E
  3
Shaded
350
12013
  3
Shaded with edges
350
12012
  3
Shades of Gray
350
1200F
  3
Sketchy
350
12010
  3
Thicken
350
21
  3
Wireframe
350
1200D
  3
X-Ray
350
12011
  0
XRECORD
  5
14D13
102
{ACAD_REACTORS
330
C
102
}
330
C
100
AcDbXrecord
280
     1
 90
        1
330
32
  0
DICTIONARY
  5
454
102
{ACAD_REACTORS
330
C
102
}
330
C
100
AcDbDictionary
281
     1
  3
CANNOSCALE
350
177F
  3
CMLEADERSTYLE
350
177D
  3
CTABLESTYLE
350
455
  3
CVIEWDETAILSTYLE
350
1226B
  3
CVIEWSECTIONSTYLE
350
1226C
  3
DIMASSOC
350
14447
  3
HIDETEXT
350
14445
  3
INDEXCTL
350
14444
  3
LAYEREVAL
350
1226D
  3
LAYERNOTIFY
350
1226E
  3
LIGHTINGUNITS
350
1780
  3
MSLTSCALE
350
177E
  3
SOLIDHIST
350
14448
  3
SORTENTS
350
14443
  3
XCLIPFRAME
350
14D11
  0
DICTIONARY
  5
9F
102
{ACAD_REACTORS
330
C
102
}
330
C
100
AcDbDictionary
281
     1
  3
AcmStdDictionary
350
A1
  3
AMDTSECTSYM_ARROWCOLOR
350
C1
  0
DICTIONARY
  5
EF56
102
{ACAD_REACTORS
330
C
102
}
330
C
100
AcDbDictionary
281
     1
  0
DICTIONARY
  5
42
102
{ACAD_REACTORS
330
C
102
}
330
C
100
AcDbDictionary
281
     1
  0
DICTIONARY
  5
125
102
{ACAD_REACTORS
330
C
102
}
330
C
100
AcDbDictionary
281
     1
  0
DICTIONARY
  5
FAC9
102
{ACAD_REACTORS
330
C
102
}
330
C
100
AcDbDictionary
281
     1
  3
ASEBlockHierarchyIndexRecord
350
FACA
1001
DCO15
1040
1731401552.671
  0
XRECORD
  5
14D14
102
{ACAD_REACTORS
330
C
102
}
330
C
100
AcDbXrecord
280
     1
  1
DWGPROPS COOKIE
  2

  3

  4

  6

  7

  8
HONPC031
  9

300
=
301
=
302
=
303
=
304
=
305
=
306
=
307
=
308
=
309
=
 40
1.126094525462963
 41
2454698.769533414
 42
2456669.448177118
  1

 90
        0
  0
DICTIONARY
  5
D07F
102
{ACAD_REACTORS
330
104
102
}
330
104
100
AcDbDictionary
281
     1
  0
DICTIONARY
  5
105
102
{ACAD_REACTORS
330
104
102
}
330
104
100
AcDbDictionary
281
     1
  3
ACAD_VIEWS_セッティングイメージ
350
4878
  0
DICTIONARY
  5
D07E
102
{ACAD_REACTORS
330
104
102
}
330
104
100
AcDbDictionary
281
     1
1001
ACAD
1000
<All
  0
DICTIONARY
  5
1956
102
{ACAD_REACTORS
330
104
102
}
330
104
100
AcDbDictionary
280
     1
281
     1
  0
XRECORD
  5
60E2
102
{ACAD_REACTORS
330
2025
102
}
330
2025
100
AcDbXrecord
280
     1
290
     1
  0
XRECORD
  5
60E3
102
{ACAD_REACTORS
330
52A3
102
}
330
52A3
100
AcDbXrecord
280
     1
290
     1
  0
XRECORD
  5
60E6
102
{ACAD_REACTORS
330
52A9
102
}
330
52A9
100
AcDbXrecord
280
     1
290
     1
  0
XRECORD
  5
60E8
102
{ACAD_REACTORS
330
52AD
102
}
330
52AD
100
AcDbXrecord
280
     1
290
     1
  0
XRECORD
  5
60EC
102
{ACAD_REACTORS
330
60EB
102
}
330
60EB
100
AcDbXrecord
280
     1
290
     1
  0
XRECORD
  5
4875
102
{ACAD_REACTORS
330
4874
102
}
330
4874
100
AcDbXrecord
280
     1
340
1736
  0
XRECORD
  5
4877
102
{ACAD_REACTORS
330
4874
102
}
330
4874
100
AcDbXrecord
280
     1
300
<なし>
302
ACAD_VIEWS_セッティングイメージ
330
3A
294
     0
  0
SORTENTSTABLE
  5
947
102
{ACAD_REACTORS
330
946
102
}
330
946
100
AcDbSortentsTable
330
37
331
13D73
  5
12C66
331
13D44
  5
125DC
331
13D63
  5
12C48
331
13D82
  5
12E46
331
13D72
  5
12C65
331
13D43
  5
125DB
331
13D62
  5
12C47
331
13D81
  5
12E45
331
13D52
  5
12688
331
13D71
  5
12C64
331
13D90
  5
130A5
331
13D42
  5
125DA
331
13D61
  5
12C46
331
13D80
  5
12E44
331
13D70
  5
12C63
331
13D8F
  5
130A4
331
13D51
  5
12620
331
13D60
  5
12C44
331
13D7F
  5
12C73
331
13D41
  5
125D9
331
13D50
  5
1261F
331
13D8E
  5
12F4D
331
13D5F
  5
12C43
331
13D7E
  5
12C72
331
13D40
  5
125D8
331
13D8D
  5
12F3C
331
13D6E
  5
12C55
331
13ADF
  5
13D59
331
13D5E
  5
126A7
331
13D7D
  5
12C71
331
12BCF
  5
13D47
331
13D8C
  5
12E66
331
13D6D
  5
12C54
331
13ADE
  5
13D58
331
13D7C
  5
12C70
331
13D5D
  5
126A6
331
12BCE
  5
13D46
331
13D8B
  5
12E65
331
13D6C
  5
12C53
331
13ADD
  5
13D57
331
13D7B
  5
12C6F
331
13D5C
  5
126A5
331
12BCD
  5
13D45
331
13D6B
  5
12C52
331
13D8A
  5
12E64
331
13ADC
  5
13D56
331
13D7A
  5
12C6E
331
13D5B
  5
126A4
331
13BF7
  5
12C61
331
12BCC
  5
13D44
331
13D6A
  5
12C51
331
13D89
  5
12E63
331
13ADB
  5
13D55
331
13BE7
  5
12696
331
13D5A
  5
126A3
331
13D79
  5
12C6D
331
13BF6
  5
12C60
331
12BCB
  5
13D43
331
13D69
  5
12C4F
331
13D88
  5
12E62
331
13ADA
  5
13D54
331
13BE6
  5
12695
331
13D59
  5
126A2
331
13D78
  5
12C6C
331
13BF5
  5
12C5F
331
12BCA
  5
13D42
331
139CF
  5
1256B
331
13D68
  5
12C4E
331
13AD9
  5
13D53
331
13BE5
  5
12694
331
13D58
  5
126A1
331
13BF4
  5
12C5E
331
12BC9
  5
13D41
331
139CE
  5
1256A
331
13AD8
  5
13D52
331
13BE4
  5
12693
331
13BF3
  5
12C5D
331
12BC8
  5
13D40
331
13AE7
  5
13D61
331
139DC
  5
12578
331
13AD7
  5
13D51
331
13AF6
  5
13D70
331
13BE3
  5
12692
331
13BF2
  5
12C5C
331
12BC7
  5
13D3F
331
13AE6
  5
13D60
331
12BD6
  5
13D72
331
139DB
  5
12577
331
13AD6
  5
13D50
331
13AF5
  5
13D6F
331
13BE2
  5
12691
331
13BF1
  5
12C5B
331
12BC6
  5
13D3E
331
13AE5
  5
13D5F
331
12BD5
  5
13D71
331
139DA
  5
12576
331
13AD5
  5
13D4F
331
13AF4
  5
13D6E
331
13BF0
  5
12C5A
331
12BC5
  5
13D3D
331
13AE4
  5
13D5E
331
9876
  5
130C3
331
139D9
  5
12575
331
13BE0
  5
12581
331
13AD4
  5
13D4E
331
13AF3
  5
13D6D
331
12BC4
  5
13D3C
331
13BEF
  5
12C59
331
13AE3
  5
13D5D
331
9875
  5
130C2
331
12BD3
  5
13D4B
331
139D8
  5
12574
331
13BDF
  5
12580
331
13AD3
  5
13D4D
331
13AF2
  5
13D6C
331
13BEE
  5
12C58
331
13AE2
  5
13D5C
331
12BD2
  5
13D4A
331
139D7
  5
12573
331
13BDE
  5
1257F
331
13AF1
  5
13D6B
331
13AD2
  5
13D4C
331
7145
  5
88BB
331
13AE1
  5
13D5B
331
13BED
  5
12C57
331
12BD1
  5
13D49
331
139D6
  5
12572
331
13BDD
  5
1257E
331
13AF0
  5
13D6A
331
13AE0
  5
13D5A
331
12BD0
  5
13D48
331
139D5
  5
12571
331
13BDC
  5
1257D
331
13AEF
  5
13D69
331
13BEB
  5
1269B
331
139D4
  5
12570
331
13BDB
  5
1257C
331
13D4F
  5
125EA
331
13AEE
  5
13D68
331
CD80
  5
139D1
331
13BEA
  5
12699
331
13D3F
  5
125D7
331
139D3
  5
1256F
331
13BDA
  5
1257B
331
13D4E
  5
125E9
331
13AED
  5
13D67
331
13D3E
  5
125D6
331
13BE9
  5
12698
331
139D2
  5
1256E
331
13BD9
  5
1257A
331
13D4D
  5
125E7
331
13AEC
  5
13D66
331
139E1
  5
130A8
331
13D3D
  5
125D5
331
13BE8
  5
12697
331
139D1
  5
1256D
331
13AEB
  5
13D65
331
13D4C
  5
125E6
331
139E0
  5
130A7
331
13D3C
  5
125D4
331
139D0
  5
1256C
331
13AEA
  5
13D64
331
13D4B
  5
125E4
331
13D3B
  5
125D3
331
13AE9
  5
13D63
331
13D4A
  5
125E3
331
13D3A
  5
125D2
331
13AE8
  5
13D62
331
13D49
  5
125E2
331
13D87
  5
12E61
331
13D77
  5
12C6B
331
13D48
  5
125E1
331
13D67
  5
12C4D
331
13D86
  5
12E5C
331
13D57
  5
1269D
331
13D76
  5
12C6A
331
13D47
  5
125E0
331
13D66
  5
12C4C
331
13D85
  5
12E4B
331
13D56
  5
1268D
331
13D75
  5
12C68
331
13D46
  5
125DF
331
13D65
  5
12C4A
331
13D84
  5
12E48
331
13D55
  5
1268C
331
13D74
  5
12C67
331
13D45
  5
125DE
331
13D64
  5
12C49
331
13D83
  5
12E47
  0
SORTENTSTABLE
  5
148A8
102
{ACAD_REACTORS
330
13F19
102
}
330
13F19
100
AcDbSortentsTable
330
13EA1
  0
XRECORD
  5
14D16
102
{ACAD_REACTORS
330
14D15
102
}
330
14D15
100
AcDbXrecord
280
     1
 70
     1
  0
XRECORD
  5
14D17
102
{ACAD_REACTORS
330
14D15
102
}
330
14D15
100
AcDbXrecord
280
     1
340
1B
  0
ACDBDETAILVIEWSTYLE
  5
123EE
102
{ACAD_XDICTIONARY
360
14D57
102
}
102
{ACAD_REACTORS
330
12019
330
14D00
102
}
330
12019
100
AcDbModelDocViewStyle
 70
     0
  3
Imperial24
290
     0
100
AcDbDetailViewStyle
 70
     0
 71
     0
 90
        3
 71
     1
340
26
 40
0.24
340
0
 40
0.24
300

 40
0.36
280
     3
 71
     2
340
2B
 90
       25
 71
     3
340
26
 40
0.24
 90
        1
 40
0.75
 90
        1
300
%<\AcVar ViewType \f "%tc1">% %<\AcVar ViewDetailId>%\PSCALE %<\AcVar ViewScale \f "%sn">%
 71
     4
340
2B
 90
       25
340
2B
 90
       25
280
     0
  0
ACDBDETAILVIEWSTYLE
  5
1201A
102
{ACAD_XDICTIONARY
360
14D53
102
}
102
{ACAD_REACTORS
330
12019
330
14D01
102
}
330
12019
100
AcDbModelDocViewStyle
 70
     0
  3
Metric50
290
     0
100
AcDbDetailViewStyle
 70
     0
 71
     0
 90
        3
 71
     1
340
26
 40
5.0
340
0
 40
5.0
300

 40
0.0
280
     1
 71
     2
340
2B
 90
       25
 71
     3
340
26
 40
5.0
 90
        0
 40
15.0
 90
        1
300
%<\AcVar ViewDetailId>% (%<\AcVar ViewScale \f "%sn">%)
 71
     4
340
2B
 90
       25
340
2B
 90
       25
280
     0
  0
LAYOUT
  5
3A
102
{ACAD_XDICTIONARY
360
14D39
102
}
102
{ACAD_REACTORS
330
2F
102
}
330
2F
100
AcDbPlotSettings
  1

  2
\\CAD02\Canon LBP5700 LIPS
  4
A4
  6

 40
5.873749732971191
 41
5.873747825622557
 42
5.873748779296875
 43
5.873748779296875
 44
209.9733276367186
 45
296.9259948730469
 46
0.0
 47
0.0
 48
0.0
 49
0.0
140
0.0
141
0.0
142
1.0
143
7.186075887391405
 70
 11952
 72
     1
 73
     1
 74
     0
  7
monochrome.ctb
 75
     0
147
0.1391580071892348
148
773.4815346900619
149
-884.4699293230366
100
AcDbLayout
  1
Model
 70
     1
 71
     0
 10
0.0
 20
0.0
 11
12.0
 21
9.0
 12
0.0
 22
0.0
 32
0.0
 14
0.0
 24
0.0
 34
0.0
 15
0.0
 25
0.0
 35
0.0
146
0.0
 13
0.0
 23
0.0
 33
0.0
 16
1.0
 26
0.0
 36
0.0
 17
0.0
 27
1.0
 37
0.0
 76
     0
330
37
331
28
1001
ACAD_PSEXT
1000
\\CAD02\Canon LBP5700 LIPS
1000
Canon LBP5700 LIPS
1000
\\CAD02
1000

1070
     0
  0
LAYOUT
  5
1443D
102
{ACAD_XDICTIONARY
360
14D59
102
}
102
{ACAD_REACTORS
330
2F
102
}
330
2F
100
AcDbPlotSettings
  1

  2
EPSON EP-802A
  4

  6

 40
0.0
 41
0.0
 42
0.0
 43
0.0
 44
0.0
 45
0.0
 46
0.0
 47
0.0
 48
0.0
 49
0.0
140
0.0
141
0.0
142
1.0
143
1.0
 70
   688
 72
     0
 73
     0
 74
     5
  7

 75
    16
147
1.0
148
0.0
149
0.0
100
AcDbLayout
  1
レイアウト1
 70
     1
 71
     1
 10
0.0
 20
0.0
 11
12.0
 21
9.0
 12
0.0
 22
0.0
 32
0.0
 14
0.0
 24
0.0
 34
0.0
 15
0.0
 25
0.0
 35
0.0
146
0.0
 13
0.0
 23
0.0
 33
0.0
 16
1.0
 26
0.0
 36
0.0
 17
0.0
 27
1.0
 37
0.0
 76
     0
330
1443C
  0
MATERIAL
  5
12
102
{ACAD_XDICTIONARY
360
14458
102
}
102
{ACAD_REACTORS
330
10
102
}
330
10
100
AcDbMaterial
  1
ByBlock
 73
     1
 78
     1
172
     1
176
     1
270
     1
274
     1
  0
MATERIAL
  5
11
102
{ACAD_XDICTIONARY
360
14456
102
}
102
{ACAD_REACTORS
330
10
102
}
330
10
100
AcDbMaterial
  1
ByLayer
 73
     1
 78
     1
172
     1
176
     1
270
     1
274
     1
  0
MATERIAL
  5
13
102
{ACAD_XDICTIONARY
360
1362F
102
}
102
{ACAD_REACTORS
330
10
102
}
330
10
100
AcDbMaterial
  1
Global
 73
     1
 78
     1
172
     1
176
     1
270
     1
274
     1
  0
MLEADERSTYLE
  5
1758
102
{ACAD_REACTORS
330
1757
102
}
330
1757
100
AcDbMLeaderStyle
170
     2
171
     1
172
     0
 90
        2
 40
0.0
 41
0.0
173
     1
 91
-1056964608
340
29
 92
       -2
290
     1
 42
2.0
291
     1
 43
0.36
  3
Standard
 44
4.0
300

342
26
174
     1
178
     6
175
     1
176
     0
 93
-1056964608
 45
4.0
292
     0
297
     0
 46
4.0
 94
-1056964608
 47
1.0
 49
1.0
140
1.0
293
     1
141
0.0
294
     1
177
     0
142
1.0
295
     0
296
     0
143
0.125
1001
ACAD_MLEADERVER
1070
     2
  0
MLINESTYLE
  5
2D
102
{ACAD_REACTORS
330
2C
102
}
330
2C
100
AcDbMlineStyle
  2
STANDARD
 70
     0
  3

 62
   256
 51
90.0
 52
90.0
 71
     2
 49
0.5
 62
   256
  6
BYLAYER
 49
-0.5
 62
   256
  6
BYLAYER
  0
PLOTSETTINGS
  5
11308
102
{ACAD_XDICTIONARY
360
14D3B
102
}
102
{ACAD_REACTORS
330
2E
102
}
330
2E
100
AcDbPlotSettings
  1
PDF-A4
  2
Adobe PDF
  4
A4
  6

 40
3.174999952316281
 41
3.174999952316281
 42
3.175003051757812
 43
3.17498779296875
 44
209.9098358154297
 45
297.0318298339844
 46
2.5
 47
2.5
 48
0.0
 49
0.0
140
0.0
141
0.0
142
1.0
143
1.0
 70
  2736
 72
     1
 73
     0
 74
     5
  7
monochrome.ctb
 75
    16
147
1.0
148
0.0
149
0.0
1001
ACAD_PSEXT
1000
Adobe PDF
1000
Adobe PDF Converter
1000
My Documents
1000
Adobe PDF の作成
1070
     0
  0
ACDBPLACEHOLDER
  5
F
102
{ACAD_REACTORS
330
E
102
}
330
E
  0
SCALE
  5
5614
102
{ACAD_REACTORS
330
1735
102
}
330
1735
100
AcDbScale
 70
     0
300
1:6
140
1.0
141
6.0
290
     0
  0
SCALE
  5
1736
102
{ACAD_REACTORS
330
1735
102
}
330
1735
100
AcDbScale
 70
     0
300
1:1
140
1.0
141
1.0
290
     1
  0
SCALE
  5
523D
102
{ACAD_REACTORS
330
1735
102
}
330
1735
100
AcDbScale
 70
     0
300
1:4
140
1.0
141
4.0
290
     0
  0
SCALE
  5
523E
102
{ACAD_REACTORS
330
1735
102
}
330
1735
100
AcDbScale
 70
     0
300
1:5
140
1.0
141
5.0
290
     0
  0
SCALE
  5
12029
102
{ACAD_REACTORS
330
1735
102
}
330
1735
100
AcDbScale
 70
     0
300
1:2
140
1.0
141
2.0
290
     0
  0
SCALE
  5
1202A
102
{ACAD_REACTORS
330
1735
102
}
330
1735
100
AcDbScale
 70
     0
300
1:8
140
1.0
141
8.0
290
     0
  0
SCALE
  5
1202B
102
{ACAD_REACTORS
330
1735
102
}
330
1735
100
AcDbScale
 70
     0
300
1:10
140
1.0
141
10.0
290
     0
  0
SCALE
  5
1202C
102
{ACAD_REACTORS
330
1735
102
}
330
1735
100
AcDbScale
 70
     0
300
1:16
140
1.0
141
16.0
290
     0
  0
SCALE
  5
1202D
102
{ACAD_REACTORS
330
1735
102
}
330
1735
100
AcDbScale
 70
     0
300
1:20
140
1.0
141
20.0
290
     0
  0
SCALE
  5
1202E
102
{ACAD_REACTORS
330
1735
102
}
330
1735
100
AcDbScale
 70
     0
300
1:30
140
1.0
141
30.0
290
     0
  0
SCALE
  5
1202F
102
{ACAD_REACTORS
330
1735
102
}
330
1735
100
AcDbScale
 70
     0
300
1:40
140
1.0
141
40.0
290
     0
  0
SCALE
  5
12030
102
{ACAD_REACTORS
330
1735
102
}
330
1735
100
AcDbScale
 70
     0
300
1:50
140
1.0
141
50.0
290
     0
  0
SCALE
  5
12031
102
{ACAD_REACTORS
330
1735
102
}
330
1735
100
AcDbScale
 70
     0
300
1:100
140
1.0
141
100.0
290
     0
  0
SCALE
  5
12032
102
{ACAD_REACTORS
330
1735
102
}
330
1735
100
AcDbScale
 70
     0
300
2:1
140
2.0
141
1.0
290
     0
  0
SCALE
  5
12033
102
{ACAD_REACTORS
330
1735
102
}
330
1735
100
AcDbScale
 70
     0
300
4:1
140
4.0
141
1.0
290
     0
  0
SCALE
  5
12034
102
{ACAD_REACTORS
330
1735
102
}
330
1735
100
AcDbScale
 70
     0
300
8:1
140
8.0
141
1.0
290
     0
  0
SCALE
  5
12035
102
{ACAD_REACTORS
330
1735
102
}
330
1735
100
AcDbScale
 70
     0
300
10:1
140
10.0
141
1.0
290
     0
  0
SCALE
  5
12036
102
{ACAD_REACTORS
330
1735
102
}
330
1735
100
AcDbScale
 70
     0
300
100:1
140
100.0
141
1.0
290
     0
  0
ACDBSECTIONVIEWSTYLE
  5
123EC
102
{ACAD_XDICTIONARY
360
14D55
102
}
102
{ACAD_REACTORS
330
12017
330
14CFE
102
}
330
12017
100
AcDbModelDocViewStyle
 70
     0
  3
Imperial24
290
     0
100
AcDbSectionViewStyle
 70
     0
 71
     0
 90
       78
 71
     1
340
26
 40
0.24
340
0
340
0
 40
0.24
300
I, O, Q, S, X, Z
 40
0.48
 90
        3
 40
0.18
 90
        1
 71
     2
340
2B
 90
       25
340
2B
 90
       50
 40
0.24
 40
0.0
 40
0.24
 71
     3
340
26
 40
0.24
 90
        1
 40
0.75
 90
        1
300
%<\AcVar ViewType \f "%tc1">% %<\AcVar ViewSectionStartId>%-%<\AcVar ViewSectionEndId>%\PSCALE %<\AcVar ViewScale \f "%sn">%
 71
     4
300
ANSI31
 40
1.0
 90
        0
290
     0
290
     0
 90
        6
 40
0.0
 40
1.570796326794896
 40
0.2617993877991494
 40
1.308996938995747
 40
-0.2617993877991494
 40
1.832595714594044
  0
ACDBSECTIONVIEWSTYLE
  5
12018
102
{ACAD_XDICTIONARY
360
14D51
102
}
102
{ACAD_REACTORS
330
12017
330
14CFF
102
}
330
12017
100
AcDbModelDocViewStyle
 70
     0
  3
Metric50
290
     0
100
AcDbSectionViewStyle
 70
     0
 71
     0
 90
      102
 71
     1
340
26
 40
5.0
340
0
340
0
 40
5.0
300
I, O, Q, S, X, Z
 40
10.0
 90
        0
 40
2.5
 90
        0
 71
     2
340
2B
 90
       25
340
2B
 90
       50
 40
5.0
 40
2.5
 40
5.0
 71
     3
340
26
 40
5.0
 90
        0
 40
15.0
 90
        1
300
%<\AcVar ViewSectionStartId>%-%<\AcVar ViewSectionEndId>% (%<\AcVar ViewScale \f "%sn">%)
 71
     4
300
ANSI31
 40
1.0
 90
        0
290
     0
290
     0
 90
        6
 40
0.0
 40
1.570796326794896
 40
0.2617993877991494
 40
1.308996938995747
 40
-0.2617993877991494
 40
1.832595714594044
  0
TABLESTYLE
  5
32
102
{ACAD_XDICTIONARY
360
177A
102
}
102
{ACAD_REACTORS
330
31
102
}
330
31
100
AcDbTableStyle
  3
Standard
 70
     0
 71
     0
 40
1.5
 41
1.5
280
     0
281
     0
  7
STANDARD
140
4.5
170
     2
 62
     0
 63
     7
283
     0
274
    -2
284
     1
 64
     0
275
    -2
285
     1
 65
     0
276
    -2
286
     1
 66
     0
277
    -2
287
     1
 67
     0
278
    -2
288
     1
 68
     0
279
    -2
289
     1
 69
     0
  7
STANDARD
140
6.0
170
     5
 62
     0
 63
     7
283
     0
274
    -2
284
     1
 64
     0
275
    -2
285
     1
 65
     0
276
    -2
286
     1
 66
     0
277
    -2
287
     1
 67
     0
278
    -2
288
     1
 68
     0
279
    -2
289
     1
 69
     0
  7
STANDARD
140
4.5
170
     5
 62
     0
 63
     7
283
     0
274
    -2
284
     1
 64
     0
275
    -2
285
     1
 65
     0
276
    -2
286
     1
 66
     0
277
    -2
287
     1
 67
     0
278
    -2
288
     1
 68
     0
279
    -2
289
     1
 69
     0
  0
VISUALSTYLE
  5
1A
102
{ACAD_XDICTIONARY
360
14D22
102
}
102
{ACAD_REACTORS
330
14
102
}
330
14
100
AcDbVisualStyle
  2

 70
     4
 71
     0
 72
     2
 73
     0
 90
        0
 40
-0.6
 41
-30.0
 62
     5
 63
     7
 74
     1
 91
        4
 64
     7
 65
   257
 75
     1
175
     1
 42
1.0
 92
        0
 66
   257
 43
1.0
 76
     1
 77
     6
 78
     2
 67
     7
 79
     5
170
     0
171
     0
290
     0
174
     0
 93
        1
 44
0.0
173
     0
291
     0
 45
0.0
1001
ACAD
1000
AcDbSavedByObjectVersion
1070
     0
  0
VISUALSTYLE
  5
1C
102
{ACAD_XDICTIONARY
360
14D26
102
}
102
{ACAD_REACTORS
330
14
102
}
330
14
100
AcDbVisualStyle
  2

 70
     6
 71
     1
 72
     2
 73
     2
 90
        0
 40
-0.6
 41
-30.0
 62
     5
 63
     7
 74
     2
 91
        2
 64
     7
 65
   257
 75
     2
175
     1
 42
40.0
 92
        0
 66
   257
 43
1.0
 76
     1
 77
     6
 78
     2
 67
     7
 79
     3
170
     0
171
     0
290
     0
174
     0
 93
        1
 44
0.0
173
     0
291
     0
 45
0.0
1001
ACAD
1000
AcDbSavedByObjectVersion
1070
     0
  0
VISUALSTYLE
  5
1B
102
{ACAD_XDICTIONARY
360
14D24
102
}
102
{ACAD_REACTORS
330
14
102
}
330
14
100
AcDbVisualStyle
  2

 70
     5
 71
     0
 72
     2
 73
     0
 90
        0
 40
-0.6
 41
-30.0
 62
     5
 63
     7
 74
     1
 91
        4
 64
     7
 65
   257
 75
     1
175
     1
 42
1.0
 92
        0
 66
   257
 43
1.0
 76
     1
 77
     6
 78
     2
 67
     7
 79
     5
170
     0
171
     0
290
     0
174
     0
 93
        1
 44
0.0
173
     0
291
     0
 45
0.0
1001
ACAD
1000
AcDbSavedByObjectVersion
1070
     0
  0
VISUALSTYLE
  5
19
102
{ACAD_XDICTIONARY
360
14D20
102
}
102
{ACAD_REACTORS
330
14
102
}
330
14
100
AcDbVisualStyle
  2

 70
     7
 71
     1
 72
     0
 73
     1
 90
        0
 40
-0.6
 41
-30.0
 62
     5
 63
     7
 74
     0
 91
        4
 64
     7
 65
   257
 75
     1
175
     1
 42
1.0
 92
        8
 66
     7
 43
1.0
 76
     1
 77
     6
 78
     2
 67
     7
 79
     5
170
     0
171
     0
290
     0
174
     0
 93
        1
 44
0.0
173
     0
291
     1
 45
0.0
1001
ACAD
1000
AcDbSavedByObjectVersion
1070
     0
  0
VISUALSTYLE
  5
20
102
{ACAD_XDICTIONARY
360
14D2E
102
}
102
{ACAD_REACTORS
330
14
102
}
330
14
100
AcDbVisualStyle
  2

 70
    12
 71
     2
 72
     2
 73
     0
 90
        0
 40
-0.6
 41
-30.0
 62
     5
 63
     7
 74
     1
 91
        4
 64
     7
 65
   257
 75
     1
175
     1
 42
1.0
 92
        8
 66
     7
 43
1.0
 76
     1
 77
     6
 78
     2
 67
     7
 79
     5
170
     0
171
     0
290
     0
174
     0
 93
        1
 44
50.0
173
     0
291
     1
 45
0.0
1001
ACAD
1000
AcDbSavedByObjectVersion
1070
     0
  0
VISUALSTYLE
  5
24
102
{ACAD_XDICTIONARY
360
14D36
102
}
102
{ACAD_REACTORS
330
14
102
}
330
14
100
AcDbVisualStyle
  2

 70
    16
 71
     2
 72
     2
 73
     3
 90
        0
 40
-0.6
 41
-30.0
 62
     5
 63
     8
 74
     1
 91
        4
 64
     7
 65
   257
 75
     1
175
     1
 42
1.0
 92
        8
 66
     8
 43
1.0
 76
     1
 77
     6
 78
     2
 67
     7
 79
     5
170
     0
171
     0
290
     0
174
     0
 93
        1
 44
0.0
173
     0
291
     1
 45
0.0
1001
ACAD
1000
AcDbSavedByObjectVersion
1070
     0
  0
VISUALSTYLE
  5
1D
102
{ACAD_XDICTIONARY
360
14D28
102
}
102
{ACAD_REACTORS
330
14
102
}
330
14
100
AcDbVisualStyle
  2

 70
     9
 71
     3
 72
     2
 73
     0
 90
        0
 40
-0.6
 41
-30.0
 62
     5
 63
     7
 74
     2
 91
        2
 64
     7
 65
   257
 75
     1
175
     1
 42
40.0
 92
        8
 66
     7
 43
1.0
 76
     1
 77
     6
 78
     2
 67
     7
 79
     3
170
     0
171
     0
290
     0
174
     0
 93
        1
 44
0.0
173
     0
291
     0
 45
0.0
1001
ACAD
1000
AcDbSavedByObjectVersion
1070
     0
  0
VISUALSTYLE
  5
1F
102
{ACAD_XDICTIONARY
360
14D2C
102
}
102
{ACAD_REACTORS
330
14
102
}
330
14
100
AcDbVisualStyle
  2

 70
    11
 71
     2
 72
     2
 73
     0
 90
        0
 40
-0.6
 41
-30.0
 62
     5
 63
     7
 74
     1
 91
        4
 64
     7
 65
   257
 75
     1
175
     1
 42
1.0
 92
        8
 66
     7
 43
1.0
 76
     1
 77
     6
 78
     2
 67
     7
 79
     5
170
     0
171
     0
290
     0
174
     0
 93
        1
 44
-50.0
173
     0
291
     1
 45
0.0
1001
ACAD
1000
AcDbSavedByObjectVersion
1070
     0
  0
VISUALSTYLE
  5
12016
102
{ACAD_XDICTIONARY
360
14D4F
102
}
102
{ACAD_REACTORS
330
14
102
}
330
14
100
AcDbVisualStyle
  2

 70
    22
 71
     2
 72
     2
 73
     0
 90
        0
 40
-0.6
 41
-30.0
 62
     5
 63
     7
 74
     1
 91
        4
 64
     7
 65
   257
 75
     1
175
     1
 42
1.0
 92
        8
 66
     7
 43
1.0
 76
     1
 77
     6
 78
     2
 67
     7
 79
     5
170
     0
171
     0
290
     0
174
     0
 93
        1
 44
0.0
173
     0
291
     1
 45
0.0
1001
ACAD
1000
AcDbSavedByObjectVersion
1070
     0
  0
VISUALSTYLE
  5
23
102
{ACAD_XDICTIONARY
360
14D34
102
}
102
{ACAD_REACTORS
330
14
102
}
330
14
100
AcDbVisualStyle
  2

 70
    15
 71
     2
 72
     2
 73
     0
 90
        0
 40
-0.6
 41
-30.0
 62
     5
 63
     7
 74
     1
 91
        4
 64
     7
 65
   257
 75
     1
175
     1
 42
1.0
 92
        8
 66
     7
 43
1.0
 76
     1
 77
     6
 78
     2
 67
     7
 79
     5
170
     0
171
     0
290
     0
174
     0
 93
        1
 44
0.0
173
     0
291
     1
 45
0.0
1001
ACAD
1000
AcDbSavedByObjectVersion
1070
     0
  0
VISUALSTYLE
  5
15
102
{ACAD_XDICTIONARY
360
14D18
102
}
102
{ACAD_REACTORS
330
14
102
}
330
14
100
AcDbVisualStyle
  2

 70
     0
 71
     2
 72
     1
 73
     1
 90
        2
 40
-0.6
 41
30.0
 62
     5
 63
     7
 74
     0
 91
        4
 64
     7
 65
   257
 75
     1
175
     1
 42
1.0
 92
        8
 66
     7
 43
1.0
 76
     1
 77
     6
 78
     2
 67
     7
 79
     5
170
     0
171
     0
290
     0
174
     0
 93
       13
 44
0.0
173
     0
291
     1
 45
0.0
1001
ACAD
1000
AcDbSavedByObjectVersion
1070
     0
  0
VISUALSTYLE
  5
16
102
{ACAD_XDICTIONARY
360
14D1A
102
}
102
{ACAD_REACTORS
330
14
102
}
330
14
100
AcDbVisualStyle
  2

 70
     1
 71
     2
 72
     1
 73
     1
 90
        2
 40
-0.6
 41
30.0
 62
     5
 63
     7
 74
     1
 91
        4
 64
     7
 65
   257
 75
     1
175
     1
 42
1.0
 92
        0
 66
   257
 43
1.0
 76
     1
 77
     6
 78
     2
 67
     7
 79
     5
170
     0
171
     0
290
     0
174
     0
 93
       13
 44
0.0
173
     0
291
     1
 45
0.0
1001
ACAD
1000
AcDbSavedByObjectVersion
1070
     0
  0
VISUALSTYLE
  5
17
102
{ACAD_XDICTIONARY
360
14D1C
102
}
102
{ACAD_REACTORS
330
14
102
}
330
14
100
AcDbVisualStyle
  2

 70
     2
 71
     2
 72
     2
 73
     1
 90
        2
 40
-0.6
 41
30.0
 62
     5
 63
     7
 74
     0
 91
        4
 64
     7
 65
   257
 75
     1
175
     1
 42
1.0
 92
        0
 66
     7
 43
1.0
 76
     1
 77
     6
 78
     2
 67
     7
 79
     5
170
     0
171
     0
290
     0
174
     0
 93
       13
 44
0.0
173
     0
291
     1
 45
0.0
1001
ACAD
1000
AcDbSavedByObjectVersion
1070
     0
  0
VISUALSTYLE
  5
18
102
{ACAD_XDICTIONARY
360
14D1E
102
}
102
{ACAD_REACTORS
330
14
102
}
330
14
100
AcDbVisualStyle
  2

 70
     3
 71
     2
 72
     2
 73
     1
 90
        2
 40
-0.6
 41
30.0
 62
     5
 63
     7
 74
     1
 91
        4
 64
     7
 65
   257
 75
     1
175
     1
 42
1.0
 92
        0
 66
   257
 43
1.0
 76
     1
 77
     6
 78
     2
 67
     7
 79
     5
170
     0
171
     0
290
     0
174
     0
 93
       13
 44
0.0
173
     0
291
     1
 45
0.0
1001
ACAD
1000
AcDbSavedByObjectVersion
1070
     0
  0
VISUALSTYLE
  5
1200E
102
{ACAD_XDICTIONARY
360
14D3F
102
}
102
{ACAD_REACTORS
330
14
102
}
330
14
100
AcDbVisualStyle
  2

 70
     6
 71
     1
 72
     2
 73
     2
 90
        0
 40
-0.6
 41
-30.0
 62
     5
 63
     7
 74
     2
 91
        2
 64
     7
 65
   257
 75
     2
175
     1
 42
40.0
 92
        0
 66
   257
 43
1.0
 76
     1
 77
     6
 78
     2
 67
     7
 79
     3
170
     0
171
     0
290
     0
174
     0
 93
        1
 44
0.0
173
     0
291
     0
 45
0.0
1001
ACAD
1000
AcDbSavedByObjectVersion
1070
     0
  0
VISUALSTYLE
  5
12014
102
{ACAD_XDICTIONARY
360
14D4B
102
}
102
{ACAD_REACTORS
330
14
102
}
330
14
100
AcDbVisualStyle
  2

 70
    20
 71
     2
 72
     2
 73
     0
 90
        0
 40
-0.6
 41
-30.0
 62
     5
 63
     7
 74
     1
 91
        4
 64
     7
 65
   257
 75
     1
175
     1
 42
1.0
 92
       10
 66
     7
 43
1.0
 76
     1
 77
     6
 78
     2
 67
     7
 79
     5
170
     0
171
     0
290
     0
174
     0
 93
        1
 44
0.0
173
     0
291
     1
 45
0.0
1001
ACAD
1000
AcDbSavedByObjectVersion
1070
     0
  0
VISUALSTYLE
  5
22
102
{ACAD_XDICTIONARY
360
14D32
102
}
102
{ACAD_REACTORS
330
14
102
}
330
14
100
AcDbVisualStyle
  2

 70
    14
 71
     2
 72
     2
 73
     0
 90
        0
 40
-0.6
 41
-30.0
 62
     5
 63
     7
 74
     1
 91
        4
 64
     7
 65
   257
 75
     7
175
     7
 42
1.0
 92
        8
 66
     7
 43
1.0
 76
     1
 77
     6
 78
     2
 67
     7
 79
     5
170
     0
171
     0
290
     0
174
     0
 93
        1
 44
0.0
173
     0
291
     1
 45
0.0
1001
ACAD
1000
AcDbSavedByObjectVersion
1070
     0
  0
VISUALSTYLE
  5
12015
102
{ACAD_XDICTIONARY
360
14D4D
102
}
102
{ACAD_REACTORS
330
14
102
}
330
14
100
AcDbVisualStyle
  2

 70
    21
 71
     2
 72
     2
 73
     0
 90
        0
 40
-0.6
 41
-30.0
 62
     5
 63
     7
 74
     1
 91
        4
 64
     7
 65
   257
 75
     1
175
     1
 42
1.0
 92
        9
 66
     7
 43
1.0
 76
     1
 77
     6
 78
     2
 67
     7
 79
     5
170
     0
171
     0
290
     0
174
     0
 93
        1
 44
0.0
173
     0
291
     1
 45
0.0
1001
ACAD
1000
AcDbSavedByObjectVersion
1070
     0
  0
VISUALSTYLE
  5
1E
102
{ACAD_XDICTIONARY
360
14D2A
102
}
102
{ACAD_REACTORS
330
14
102
}
330
14
100
AcDbVisualStyle
  2

 70
     8
 71
     2
 72
     2
 73
     0
 90
        0
 40
-0.6
 41
-30.0
 62
     5
 63
     7
 74
     1
 91
        0
 64
     7
 65
   257
 75
     1
175
     1
 42
1.0
 92
        8
 66
     8
 43
1.0
 76
     1
 77
     6
 78
     2
 67
     7
 79
     5
170
     0
171
     0
290
     0
174
     0
 93
       13
 44
0.0
173
     0
291
     0
 45
0.0
1001
ACAD
1000
AcDbSavedByObjectVersion
1070
     0
  0
VISUALSTYLE
  5
12013
102
{ACAD_XDICTIONARY
360
14D49
102
}
102
{ACAD_REACTORS
330
14
102
}
330
14
100
AcDbVisualStyle
  2

 70
    27
 71
     2
 72
     2
 73
     1
 90
        2
 40
-0.6
 41
30.0
 62
     5
 63
     7
 74
     0
 91
        4
 64
     7
 65
   257
 75
     1
175
     1
 42
1.0
 92
        8
 66
   257
 43
1.0
 76
     1
 77
     6
 78
     2
 67
     8
 79
     3
170
     0
171
     0
290
     0
174
     0
 93
        5
 44
0.0
173
     0
291
     0
 45
0.0
1001
ACAD
1000
AcDbSavedByObjectVersion
1070
     0
  0
VISUALSTYLE
  5
12012
102
{ACAD_XDICTIONARY
360
14D47
102
}
102
{ACAD_REACTORS
330
14
102
}
330
14
100
AcDbVisualStyle
  2

 70
    26
 71
     2
 72
     2
 73
     1
 90
        2
 40
-0.6
 41
30.0
 62
     5
 63
     7
 74
     1
 91
       10
 64
     7
 65
   257
 75
     2
175
     1
 42
1.0
 92
        8
 66
   257
 43
1.0
 76
     1
 77
     6
 78
     2
 67
     7
 79
     3
170
     0
171
     0
290
     0
174
     0
 93
        5
 44
0.0
173
     0
291
     0
 45
0.0
1001
ACAD
1000
AcDbSavedByObjectVersion
1070
     0
  0
VISUALSTYLE
  5
1200F
102
{ACAD_XDICTIONARY
360
14D41
102
}
102
{ACAD_REACTORS
330
14
102
}
330
14
100
AcDbVisualStyle
  2

 70
    23
 71
     2
 72
     2
 73
     3
 90
        0
 40
-0.6
 41
-30.0
 62
     5
 63
     7
 74
     2
 91
        2
 64
     7
 65
     7
 75
     1
175
     1
 42
40.0
 92
        8
 66
     7
 43
1.0
 76
     1
 77
     6
 78
     2
 67
     7
 79
     3
170
     0
171
     0
290
     0
174
     0
 93
        1
 44
0.0
173
     0
291
     0
 45
0.0
1001
ACAD
1000
AcDbSavedByObjectVersion
1070
     0
  0
VISUALSTYLE
  5
12010
102
{ACAD_XDICTIONARY
360
14D43
102
}
102
{ACAD_REACTORS
330
14
102
}
330
14
100
AcDbVisualStyle
  2

 70
    24
 71
     1
 72
     2
 73
     2
 90
        0
 40
-0.6
 41
-30.0
 62
     5
 63
     7
 74
     2
 91
        2
 64
     7
 65
     7
 75
     1
175
     1
 42
40.0
 92
       11
 66
     7
 43
1.0
 76
     1
 77
     6
 78
     2
 67
     7
 79
     6
170
     0
171
     0
290
     0
174
     0
 93
        1
 44
0.0
173
     0
291
     0
 45
0.0
1001
ACAD
1000
AcDbSavedByObjectVersion
1070
     0
  0
VISUALSTYLE
  5
21
102
{ACAD_XDICTIONARY
360
14D30
102
}
102
{ACAD_REACTORS
330
14
102
}
330
14
100
AcDbVisualStyle
  2

 70
    13
 71
     2
 72
     2
 73
     0
 90
        0
 40
-0.6
 41
-30.0
 62
     5
 63
     7
 74
     1
 91
        4
 64
     7
 65
   257
 75
     1
175
     1
 42
1.0
 92
       12
 66
     7
 43
1.0
 76
     1
 77
     6
 78
     2
 67
     7
 79
     5
170
     0
171
     0
290
     0
174
     0
 93
        1
 44
0.0
173
     0
291
     1
 45
0.0
1001
ACAD
1000
AcDbSavedByObjectVersion
1070
     0
  0
VISUALSTYLE
  5
1200D
102
{ACAD_XDICTIONARY
360
14D3D
102
}
102
{ACAD_REACTORS
330
14
102
}
330
14
100
AcDbVisualStyle
  2

 70
     5
 71
     0
 72
     2
 73
     0
 90
        0
 40
-0.6
 41
-30.0
 62
     5
 63
     7
 74
     1
 91
        4
 64
     7
 65
   257
 75
     1
175
     1
 42
1.0
 92
        0
 66
   257
 43
1.0
 76
     1
 77
     6
 78
     2
 67
     7
 79
     3
170
     0
171
     0
290
     0
174
     0
 93
        1
 44
0.0
173
     0
291
     0
 45
0.0
1001
ACAD
1000
AcDbSavedByObjectVersion
1070
     0
  0
VISUALSTYLE
  5
12011
102
{ACAD_XDICTIONARY
360
14D45
102
}
102
{ACAD_REACTORS
330
14
102
}
330
14
100
AcDbVisualStyle
  2

 70
    25
 71
     2
 72
     2
 73
     1
 90
        1
 40
0.5
 41
-30.0
 62
     5
 63
     7
 74
     1
 91
        0
 64
     7
 65
   257
 75
     1
175
     1
 42
1.0
 92
        8
 66
     7
 43
1.0
 76
     1
 77
     6
 78
     2
 67
     7
 79
     3
170
     0
171
     0
290
     0
174
     0
 93
       13
 44
0.0
173
     0
291
     0
 45
0.0
1001
ACAD
1000
AcDbSavedByObjectVersion
1070
     0
  0
DICTIONARYVAR
  5
177F
102
{ACAD_REACTORS
330
454
102
}
330
454
100
DictionaryVariables
280
     0
  1
1:1
  0
DICTIONARYVAR
  5
177D
102
{ACAD_REACTORS
330
454
102
}
330
454
100
DictionaryVariables
280
     0
  1
STANDARD
  0
DICTIONARYVAR
  5
455
102
{ACAD_REACTORS
330
454
102
}
330
454
100
DictionaryVariables
280
     0
  1
STANDARD
  0
DICTIONARYVAR
  5
1226B
102
{ACAD_REACTORS
330
454
102
}
330
454
100
DictionaryVariables
280
     0
  1
Metric50
  0
DICTIONARYVAR
  5
1226C
102
{ACAD_REACTORS
330
454
102
}
330
454
100
DictionaryVariables
280
     0
  1
Metric50
  0
DICTIONARYVAR
  5
14447
102
{ACAD_REACTORS
330
454
102
}
330
454
100
DictionaryVariables
280
     0
  1
2
  0
DICTIONARYVAR
  5
14445
102
{ACAD_REACTORS
330
454
102
}
330
454
100
DictionaryVariables
280
     0
  1
1
  0
DICTIONARYVAR
  5
14444
102
{ACAD_REACTORS
330
454
102
}
330
454
100
DictionaryVariables
280
     0
  1
0
  0
DICTIONARYVAR
  5
1226D
102
{ACAD_REACTORS
330
454
102
}
330
454
100
DictionaryVariables
280
     0
  1
1
  0
DICTIONARYVAR
  5
1226E
102
{ACAD_REACTORS
330
454
102
}
330
454
100
DictionaryVariables
280
     0
  1
15
  0
DICTIONARYVAR
  5
1780
102
{ACAD_REACTORS
330
454
102
}
330
454
100
DictionaryVariables
280
     0
  1
0
  0
DICTIONARYVAR
  5
177E
102
{ACAD_REACTORS
330
454
102
}
330
454
100
DictionaryVariables
280
     0
  1
0
  0
DICTIONARYVAR
  5
14448
102
{ACAD_REACTORS
330
454
102
}
330
454
100
DictionaryVariables
280
     0
  1
1
  0
DICTIONARYVAR
  5
14443
102
{ACAD_REACTORS
330
454
102
}
330
454
100
DictionaryVariables
280
     0
  1
127
  0
DICTIONARYVAR
  5
14D11
102
{ACAD_REACTORS
330
454
102
}
330
454
100
DictionaryVariables
280
     0
  1
2
  0
DICTIONARY
  5
A1
102
{ACAD_REACTORS
330
9F
102
}
330
9F
100
AcDbDictionary
281
     1
  0
XRECORD
  5
C1
102
{ACAD_REACTORS
330
9F
102
}
330
9F
100
AcDbXrecord
280
     1
 90
-1023410169
  0
XRECORD
  5
FACA
102
{ACAD_REACTORS
330
FAC9
102
}
330
FAC9
100
AcDbXrecord
280
     1
330
0
330
0
330
0
330
889F
330
E4C2
330
E4D1
330
E4D9
330
0
330
0
330
0
330
0
330
0
330
0
330
0
330
0
330
0
330
F493
330
F494
330
F495
330
F34E
330
F396
330
0
330
0
330
0
330
0
330
889A
330
889B
330
889C
330
0
330
0
330
0
330
0
330
0
330
C20A
330
C20B
330
C213
330
C214
330
C21C
330
C21D
330
0
330
0
330
C22E
330
C22F
330
E13D
330
E13E
330
C240
330
C241
330
0
330
BBF0
330
BDB9
330
0
330
0
330
0
330
0
330
0
330
0
330
0
330
0
330
0
330
0
330
0
330
0
330
0
330
0
330
0
330
0
330
0
330
0
330
0
330
0
330
0
330
0
330
0
330
0
330
0
330
0
330
0
330
0
330
0
330
0
330
0
330
0
330
E4C0
330
E4C1
330
E4C6
330
E4C7
330
E4D5
330
E4D6
330
0
330
0
330
0
330
0
330
0
330
ECEA
330
ED54
330
0
330
EDF8
330
EDF9
330
EE04
330
EE05
330
0
330
0
330
0
330
0
330
EE28
330
EE29
330
0
330
0
330
EE40
330
EE41
330
0
330
0
330
0
330
0
330
0
330
0
330
F324
330
F33C
330
F340
330
F377
330
0
330
0
330
0
330
0
330
0
330
0
330
0
330
0
330
0
330
0
330
0
330
0
330
0
330
0
330
0
330
0
330
0
330
F760
330
F761
330
F76C
330
F76D
330
F778
330
F779
330
F784
330
F785
330
F790
330
F791
330
F79C
330
F79D
330
F7A8
330
F7A9
330
F7B4
330
F7B5
330
F7C0
330
F7C1
330
F7CC
330
F7CD
330
F7DB
330
F7DC
330
F7E8
330
F7E9
330
F8A6
330
F8A7
330
F801
330
F802
330
F80D
330
F80E
330
F81A
330
F81B
330
F826
330
F827
330
0
330
0
330
0
330
0
330
0
330
0
330
0
330
0
330
0
330
0
330
0
330
0
330
0
330
0
330
0
330
0
330
0
330
0
330
0
330
0
330
0
330
0
330
0
330
0
330
0
  0
XRECORD
  5
4878
102
{ACAD_XDICTIONARY
360
4879
102
}
102
{ACAD_REACTORS
330
105
102
}
330
105
100
AcDbXrecord
280
     1
 91
    33280
301

290
     0
302
0
330
0
 90
        8
 62
     1
370
    25
331
2B
  1
色_1
330
0
 90
        8
 62
    52
370
     9
331
0
  1
色_52
330
0
 90
        9
 62
   253
370
     0
331
2B
  1
色_253
330
0
 90
        8
 62
     3
370
     9
331
2B
  1
色_3
330
0
 90
        8
 62
     7
370
    18
331
2B
  1
色_7
330
0
 90
        8
 62
     4
370
     9
331
A5
  1
色_4
330
0
 90
        0
 62
     2
370
    13
331
A6
  1
色_2
330
0
 90
        0
 62
     1
370
     9
331
A7
  1
色_1
330
0
 90
        8
 62
   133
370
     9
331
2B
  1
色_133
330
0
 90
        8
 62
   253
370
     9
331
0
  1
色_253
330
0
 90
        8
 62
    22
370
     9
331
78
  1
色_22
330
0
 90
        8
 62
   191
370
    15
331
2B
  1
色_191
330
0
 90
        8
 62
     4
370
    15
331
2B
  1
色_4
330
0
 90
        8
 62
     3
370
    13
331
2B
  1
色_3
330
0
 90
        8
 62
     6
370
     5
331
BD
  1
色_6
330
0
 90
        8
 62
   253
370
     5
331
2B
  1
色_253
330
0
 90
        8
 62
    42
370
    13
331
0
  1
色_42
330
0
 90
        8
 62
   101
370
     5
331
0
  1
色_101
330
ED
 90
        0
 62
     7
370
    15
331
2B
  1
色_7
330
0
 90
        0
 62
     1
370
    25
331
2B
  1
色_1
330
0
 90
        8
 62
     3
370
    13
331
2B
  1
色_3
330
25
 90
        8
 62
     7
370
    18
331
2B
  1
色_7
  0
DICTIONARY
  5
14D57
330
123EE
100
AcDbDictionary
280
     1
281
     1
  3
ACAD_XREC_ROUNDTRIP
360
14D58
  0
DICTIONARY
  5
14D53
330
1201A
100
AcDbDictionary
280
     1
281
     1
  3
ACAD_XREC_ROUNDTRIP
360
14D54
  0
DICTIONARY
  5
14D39
330
3A
100
AcDbDictionary
280
     1
281
     1
  3
ACAD_XREC_ROUNDTRIP
360
14D3A
  0
DICTIONARY
  5
14D59
330
1443D
100
AcDbDictionary
280
     1
281
     1
  3
ACAD_XREC_ROUNDTRIP
360
14D5A
  0
DICTIONARY
  5
14458
330
12
100
AcDbDictionary
280
     1
281
     1
  3
ACAD_XREC_ROUNDTRIP
360
14459
  0
DICTIONARY
  5
14456
330
11
100
AcDbDictionary
280
     1
281
     1
  3
ACAD_XREC_ROUNDTRIP
360
14457
  0
DICTIONARY
  5
1362F
330
13
100
AcDbDictionary
280
     1
281
     1
  3
ACAD_XREC_ROUNDTRIP
360
1445A
  3
FBXASSET
360
13630
  0
DICTIONARY
  5
14D3B
330
11308
100
AcDbDictionary
280
     1
281
     1
  3
ACAD_XREC_ROUNDTRIP
360
14D3C
  0
DICTIONARY
  5
14D55
330
123EC
100
AcDbDictionary
280
     1
281
     1
  3
ACAD_XREC_ROUNDTRIP
360
14D56
  0
DICTIONARY
  5
14D51
330
12018
100
AcDbDictionary
280
     1
281
     1
  3
ACAD_XREC_ROUNDTRIP
360
14D52
  0
DICTIONARY
  5
177A
330
32
100
AcDbDictionary
280
     1
281
     1
  3
ACAD_ROUNDTRIP_2008_TABLESTYLE_CELLSTYLEMAP
360
14D12
  3
ACAD_XREC_ROUNDTRIP
360
14D38
  0
DICTIONARY
  5
14D22
330
1A
100
AcDbDictionary
280
     1
281
     1
  3
ACAD_XREC_ROUNDTRIP
360
14D23
  0
DICTIONARY
  5
14D26
330
1C
100
AcDbDictionary
280
     1
281
     1
  3
ACAD_XREC_ROUNDTRIP
360
14D27
  0
DICTIONARY
  5
14D24
330
1B
100
AcDbDictionary
280
     1
281
     1
  3
ACAD_XREC_ROUNDTRIP
360
14D25
  0
DICTIONARY
  5
14D20
330
19
100
AcDbDictionary
280
     1
281
     1
  3
ACAD_XREC_ROUNDTRIP
360
14D21
  0
DICTIONARY
  5
14D2E
330
20
100
AcDbDictionary
280
     1
281
     1
  3
ACAD_XREC_ROUNDTRIP
360
14D2F
  0
DICTIONARY
  5
14D36
330
24
100
AcDbDictionary
280
     1
281
     1
  3
ACAD_XREC_ROUNDTRIP
360
14D37
  0
DICTIONARY
  5
14D28
330
1D
100
AcDbDictionary
280
     1
281
     1
  3
ACAD_XREC_ROUNDTRIP
360
14D29
  0
DICTIONARY
  5
14D2C
330
1F
100
AcDbDictionary
280
     1
281
     1
  3
ACAD_XREC_ROUNDTRIP
360
14D2D
  0
DICTIONARY
  5
14D4F
330
12016
100
AcDbDictionary
280
     1
281
     1
  3
ACAD_XREC_ROUNDTRIP
360
14D50
  0
DICTIONARY
  5
14D34
330
23
100
AcDbDictionary
280
     1
281
     1
  3
ACAD_XREC_ROUNDTRIP
360
14D35
  0
DICTIONARY
  5
14D18
330
15
100
AcDbDictionary
280
     1
281
     1
  3
ACAD_XREC_ROUNDTRIP
360
14D19
  0
DICTIONARY
  5
14D1A
330
16
100
AcDbDictionary
280
     1
281
     1
  3
ACAD_XREC_ROUNDTRIP
360
14D1B
  0
DICTIONARY
  5
14D1C
330
17
100
AcDbDictionary
280
     1
281
     1
  3
ACAD_XREC_ROUNDTRIP
360
14D1D
  0
DICTIONARY
  5
14D1E
330
18
100
AcDbDictionary
280
     1
281
     1
  3
ACAD_XREC_ROUNDTRIP
360
14D1F
  0
DICTIONARY
  5
14D3F
330
1200E
100
AcDbDictionary
280
     1
281
     1
  3
ACAD_XREC_ROUNDTRIP
360
14D40
  0
DICTIONARY
  5
14D4B
330
12014
100
AcDbDictionary
280
     1
281
     1
  3
ACAD_XREC_ROUNDTRIP
360
14D4C
  0
DICTIONARY
  5
14D32
330
22
100
AcDbDictionary
280
     1
281
     1
  3
ACAD_XREC_ROUNDTRIP
360
14D33
  0
DICTIONARY
  5
14D4D
330
12015
100
AcDbDictionary
280
     1
281
     1
  3
ACAD_XREC_ROUNDTRIP
360
14D4E
  0
DICTIONARY
  5
14D2A
330
1E
100
AcDbDictionary
280
     1
281
     1
  3
ACAD_XREC_ROUNDTRIP
360
14D2B
  0
DICTIONARY
  5
14D49
330
12013
100
AcDbDictionary
280
     1
281
     1
  3
ACAD_XREC_ROUNDTRIP
360
14D4A
  0
DICTIONARY
  5
14D47
330
12012
100
AcDbDictionary
280
     1
281
     1
  3
ACAD_XREC_ROUNDTRIP
360
14D48
  0
DICTIONARY
  5
14D41
330
1200F
100
AcDbDictionary
280
     1
281
     1
  3
ACAD_XREC_ROUNDTRIP
360
14D42
  0
DICTIONARY
  5
14D43
330
12010
100
AcDbDictionary
280
     1
281
     1
  3
ACAD_XREC_ROUNDTRIP
360
14D44
  0
DICTIONARY
  5
14D30
330
21
100
AcDbDictionary
280
     1
281
     1
  3
ACAD_XREC_ROUNDTRIP
360
14D31
  0
DICTIONARY
  5
14D3D
330
1200D
100
AcDbDictionary
280
     1
281
     1
  3
ACAD_XREC_ROUNDTRIP
360
14D3E
  0
DICTIONARY
  5
14D45
330
12011
100
AcDbDictionary
280
     1
281
     1
  3
ACAD_XREC_ROUNDTRIP
360
14D46
  0
DICTIONARY
  5
4879
330
4878
100
AcDbDictionary
280
     1
281
     1
  3
AcadLayerStateAnnoScale
360
487A
  0
XRECORD
  5
14D58
102
{ACAD_REACTORS
330
14D57
102
}
330
14D57
100
AcDbXrecord
280
     1
102
DISPLAYNAME
  1
Imperial24
102
FLAGS
 90
        0
  0
XRECORD
  5
14D54
102
{ACAD_REACTORS
330
14D53
102
}
330
14D53
100
AcDbXrecord
280
     1
102
DISPLAYNAME
  1
Metric50
102
FLAGS
 90
        0
  0
XRECORD
  5
14D3A
102
{ACAD_REACTORS
330
14D39
102
}
330
14D39
100
AcDbXrecord
280
     1
102
SHADEPLOT
 70
     0
102
SHADEPLOTRESLEVEL
 70
     2
102
SHADEPLOTCUSTOMDPI
 70
   300
  0
XRECORD
  5
14D5A
102
{ACAD_REACTORS
330
14D59
102
}
330
14D59
100
AcDbXrecord
280
     1
102
SHADEPLOT
 70
     0
102
SHADEPLOTRESLEVEL
 70
     2
102
SHADEPLOTCUSTOMDPI
 70
   300
  0
XRECORD
  5
14459
102
{ACAD_REACTORS
330
14458
102
}
330
14458
100
AcDbXrecord
280
     1
102
MATERIAL
148
0.0
149
0.0
149
0.0
 93
        0
 94
      127
282
     0
 72
     1
 77
     1
171
     1
175
     1
179
     1
273
     0
  0
XRECORD
  5
14457
102
{ACAD_REACTORS
330
14456
102
}
330
14456
100
AcDbXrecord
280
     1
102
MATERIAL
148
0.0
149
0.0
149
0.0
 93
        0
 94
      127
282
     0
 72
     1
 77
     1
171
     1
175
     1
179
     1
273
     0
  0
XRECORD
  5
1445A
102
{ACAD_REACTORS
330
1362F
102
}
330
1362F
100
AcDbXrecord
280
     1
102
MATERIAL
148
0.0
149
0.0
149
0.0
 93
        0
 94
      127
282
     0
 72
     1
 77
     1
171
     1
175
     1
179
     1
273
     0
  0
XRECORD
  5
13630
102
{ACAD_REACTORS
330
1362F
102
}
330
1362F
100
AcDbXrecord
280
     1
 70
     0
 90
2070111275
 71
     1
  1
163AE63E-48DC-440E-9770-2903900A1B76
311
504B030414000608080099961B43C62ABD64D9000000200100004F00000043334531463644362D423342412D343146392D413335422D3439324234463530313045392F4173736574446174612F446566696E6974696F6E4974657261746F7250726F706572746965732E62696E454E3D4FC33010350C200606FE41D5DD3836
311
0971A2B688D68809169858AAAB732D919CA48A138991917F0D776A514F7AF7EEF3DDFD08217E8F46A138237C93BF267EC616FBDABFF94F6C405C7025741B0897A7DE39859C3ADCC21806DE7AA9A3C710A0C56E8C37A7D1490303C941B8E5A52BC27F21B2C2EE708CEFBF12F82566A8F6E503C488C35C6D375F6A659D33ABE2
311
516AED9C4CF37B2B6D6AB534C5327379AA8B65F1A47A8CDDD87B8C2A55C9FAA8BCDEB7BBBA5ACC86BAC1490B0DCEA7BE47FAA99A2E4CA2EF6462A5C9DFB52D335366FA63A678F20F504B030414000608080099961B43D1107D6F23010000300200004500000043334531463644362D423342412D343146392D413335422D34
311
39324234463530313045392F4173736574446174612F496E7374616E636550726F706572746965732E62696EEB606060F80F0540260323103700495E20ED9E9A975A94991C9C9C919A9BA802143034337674353376D535B17071D635313170D5B5343737D035B23430B634307034743237634768046931363471713532B5D4
311
35353131D635313332D475727372D13534373670367376B67474B504D9C9A019D37FE8ABC6157B28CD04146A006218DF1EC806820FF660170259020E0C02201108507180B170D0408D100067E05008B20249253390DD00E13F804AF040B86824280C11327043D0543130A4EC74C0104311C0AE15643C283C41E0833D0B9004
311
851A1F10079727962467E83A1525E6A5A4A680DC0B022F81EA3939FD5D213C08799055DC0D995F9577493AC6B4C67FAD22EF853D97634FC1E4407681D820BA7AED135FAF7C399719EFBA653FFCD87B0400504B030414000608080099961B437D09B9F3790100005E0600003D00000043334531463644362D423342412D3431
311
46392D413335422D3439324234463530313045392F536368656D61732F436F6D6D6F6E536368656D612E786D6CC595D16A83301486EFFB14E20B94B15B2DB42B6C42D9458BBB3F9AD32E2C2692448B6FBF18ADCBA22D0E847927497EBFF39FFFC468AB14EA53FE89056C56817DA234D90735B0387C11452178B71A6E56D1DA
311
ACFCEC3A1E024AE2704B6AE03912B38667CAA9A682874159658CE6717806A6300C2402119C3571A86565DEAD7C27793C0C92272D29BF74AA2DD78166C9FEB6396090A181B2C4DD4A8BD49D9992D881C29EDDC7210369A2518216720F1AC6709EF84E0886C02DE01B2504C785CE50EE2C69D97BBD013EE11A2F28AD7E47FE81
311
52CDF6F3D91ADA8B0CA269DFA765FB9326EF5098467A7D7E5C3E13791B2B3F029ECB694589B5A02FFED590FFF1434EBC8CD86085932F68F3A59B725CC2FDA87A9C8E5A0EA6714236234C604C5C8B8A695A32345415AA5BFD4B58E5201054B9A4E5E4F42DFCA92F6CAE42927F2CD606894F05D0EFDEBCC8393EDA03B382314F
311
DA9D6989359D1C679BD7A787E3AB3FAB22E340D972B63B53E25CC22E707DE7FAB9C71BAD7FFD4FBE01504B030414000608080099961B43317D3058AB040000AB1500003E00000043334531463644362D423342412D343146392D413335422D3439324234463530313045392F536368656D61732F47656E6572696353636865
311
6D612E786D6CDD586D4FE33810FECEAFB0F27D4BE18ED5AD4491DA4570FD807A82E5B3E53A6EEB3B3B891CA7D0FBF537633B6ED27437A170D26A2B21F232F1BC3DCFCCD8D7D3B214F6896F84663767C4FDAE9FE7B764CBD424B917993092FBD7C9CDD9F539BC8A6233560A2FF728B254980766419AA986388A4479BB2B82BC
311
0E92AC2804332CE3C22D8E0251BA9244A693649A6EF17D0A8AC54A66D2CA3C4B48512D95E49364C554291262044BF34CED26893515DC3BE3C19CF23C7850FFDFAF367AD5CA29AD64542975A184169965A8C5A99FB71E3DE03BF5C8762758E0BF9D6BB61651775BE1703B16F74F2758005FBD5BF35F466CA57839417BF8F26B
311
AE72D36746C8FDC7E4FC791ED535723DCB7325984F32479BE87247F3E5DF82DB809F802DC59602A8E0EC26B31D59781924435823E6ADB9E6DA5387B29CA6C232A9CAB0AC476858F51918E457BE33B9260BBB1186D43C2A1D3E0F95DCA99C5987CDA60A595A47230FFDDF1312143CB057725BBF449BDDE77D1623C51C87DA31
311
98EAA504069005E7AA2A9188C7A230CFAC58831BC8DE868925432AD551B8F81C4D7C0A2F6ECE42FD21E47A9657595A9242188E945B8B48759971E3385ACA7FE1E945423454055DE9497219AF65096268E216447CC0357B0D5257A03ADC75E5BC43A83CC6E83C38141F1C4BF392F17F568C0BCA2BA58E066F1624C857943816
311
B86E6697952E28D3100C0025532A7FE17996014445CAB06E9793043C5DABBAE48D47975F0E7E31CC53BFCCBBA3FCE9623C1E0F8A7410F4811F16EA363A3D339A387201D1AC18108DC7490266028AEFEB8B597D3175B8090C99418C5D3A9CB698E46E327865F3CAD2BC605C5AE80003F201E8ACCB87FBD833BACFC954AE5615
311
B6B55E0DE8E3E8B78BABE867BC415FE34DCB5FE7E62087831D5462CFA22B96D630DBBBE5DA19B9C3573DC0F22CFC017B0762EA8DDC6DC7BA9BD4B5CA4BA09028A130F5861B630AB10E29BDDF7F3AACB0CA926A6805C7CBC39F72BD51F0678F57FD6345D5889582E652D84D283810C260DB23BC823281530C76806F064A13B9
311
75A23D790A15FFDD89BAC47CBE85FA8755F67B1E7BB7A84BDC8E1E74156801DD08B844EDC887F5998148BDFCE39D11E8A215338EFE6FA1005166E93815EB61B8EDC405977055A08F21873ABF7CBCD2EFA4DAB4C0FD695F75165B618C4C05019803B21DCC3F08DCA8250C14DD8E55031A468DFF09DDC19B21E8AE1DFFA5D05D
311
FB2F613FF91AAADAC5E8AA45EB20D3D7700614B2D17858B6A1E6BFA9940DA054EDA885DD6FA92A9872F98EBE086C006F2434D4F6B8425F4C7E8A267C6C7C3638EFF3DCC07143495D1FA6387D0803D33FAD4F0BEABD437B53325370F8405EA4DD9CB87D6AE9362C95D5C059605F53D17AD8C739F30715D552A815954A559A72
311
B7F9B442C36687D9CAD443D6E72B1CB3EBF11185C8B7865077E4E84ECB0D2D2BA9E0700642590C80178C95400C3F3AFB0B1827FD456B94BC738BFA0DAC73BB6F846E1804AECBACB165DDFBFA04B121738C0D08B8E39EAEAFDDD6E8885430000C1F369BEF153A06D59FF68C473F05837EECFD2F34AF3F5903DB5B7792A072CE
311
54C634D0A3E7F0CF49D6DB7E00713CC67410F54BC66DDEA1063C823C41C3B47D9079A0A439DFE83C6EA31AA734F81051DE1A82AFCF5B87B3FF01504B030414000608080099961B4379B77F2750010000C20300004500000043334531463644362D423342412D343146392D413335422D3439324234463530313045392F5363
311
68656D61732F52656E6465724D6174657269616C536368656D612E786D6CAD93516BC23010C7DFFD14211F602A636FADA00E445036DAB95739D39B0DA489A451F1DBAFB9A4B5E2C660D8B7CBFDEF77C9DDBFC9B4AED1E5A2C40A2603465FB259BEB213A89467A80BB46B706825A8A0E29341326C149D7A063506F9DC5495D1
311
3D994F75BA4DB662B248F9B23A28AC503B70D2E805EA062E383B1C774A8A947F81AA91338B5018AD2E2977F6D8C4749FD03B5BFDC15C7BB8CAE0F250EADB227F28EFDDE249E2F99FCC7969A4401AA8A0B16FF3122C165B5A689C57CCD494E14CC10E9BAD7AA1D4FB669871E18C2501F709EA78C36C2B69FAA31B0216B48D5E
311
61BB95DF71B2B1D3C17B4ABB78C371C75CF672DE623F80DBC3B6513237CAD8FE0C3EA4765BE14F899FA57CF4F43C7EA160D10F66FD609AF2EB3D3C821138BCCFC3BA8633631482BE6BE9CC7EAF5A974607C7697B1E91626DC7CA9DDF02A1EA333851DE39E1EAF9A00DA5C9F0E69FFD06504B030414000608080099961B432C
311
A12B8D51000000570000004700000043334531463644362D423342412D343146392D413335422D3439324234463530313045392F4173736574446174612F41737365745461626C654F66436F6E74656E74732E62696E536160603034337674353376D535B17071D635313170D5B5343737D035B23430B63430703474323713
311
02AACB4D2C492DCA4CCC492C28484D2C4ACC4B4E050A82012F90744FCD03CA26072767A4E6260200504B030414000608080099961B43F865834058000000680000004500000043334531463644362D423342412D343146392D413335422D3439324234463530313045392F4173736574446174612F53747265616D56657273
311
696F6E5461626C652E696E66558CBD0A80300C06F73E4B117FB66E451741D041DC5BF98480A492E4FDD18EAEC7DD4555D89EF28DF51A0B1BD8340C4DE7DD848B988C0ACF0649566493F2408C508DDEBB99D5129FF8F1AF8CF5B9503E20FAE5A16B5AF702504B030414000608080099961B439DF00243350100009A04000036
311
00000043334531463644362D423342412D343146392D413335422D3439324234463530313045392F4173736574446174612F636E782E786D6CCD94314FC3301085FF4AE43D76125451558E2B044B2790A818D8AECEA5B5EAD8917D41F0EFB1DB0CA022A60E5DCFEFCECF9FFC4EAE3F075B7C6088C6BB96D5BC62053AED3BE3
311
F62D9BA82F97AC582B19BCA71F32563818B065B9CC94DC073F8D73A9C31E269BABD6B8E35C7C8811690B3B8BCFFDA377848E222BB485185B16F50107E03091EF301E790704BCE601A39F82C63489CC80F3241D10083BA69AAABE2BAB65D9DC6FEBE56AD1AC16F5BB1459A9E4CE7B3BEB4DBA2CF8B1D0E75B99AAA4C8C74A4E
311
C1CC9AFC16A6FEF2C877C64991944A460A89C9DC415F63EA8071B446032574C26B422A93086190E22C56526406BF483C616F9CC92D9B640CC88797640F0319BC3922FF79BD3E998D8B044EE3EDF2B874787D0AAFA71FF4760EE42931B796934B87DCB8FE0A2911A735924293B78AFA06504B030414000608080099961B43B6
311
96424F090100004F0300003400000043334531463644362D423342412D343146392D413335422D3439324234463530313045392F536368656D61732F636E782E786D6CCD93BD6EC32014855FC5620FD8AEA25A112643874E5DDA4EDD28DC2428C0B5F8A9DAB72FB80C89D4AD1DB2C1E1133AE770E1FB4F67BB0F08D1A09FC9
311
407BD28157A88D3FCE24A7C36622DD5EF080982E30D279E960265526821F03E6A5491A0E32DBAA5AE3CF4D7C40E7D0BFA81338493A65658C3389EB96CA9C50433C532D93A4030D10310705E586641CB41B540099401331F6C3DDA69F36E3FDEB30EDB6E36E3BBC715649C1DF116DE38D4F1070E91496852F767ACEEAB1E039
311
98C6D40C445C7AA3A50DCE0A21784CA174D0C8F4B514522E8B354AA652155BC11F467056A35E057E040FC1A8DB4C7C65EEDF223F83D7109ECA2B0523ED6D26FFCDE3DF0A60EBEC9711A85F417C03504B030414000608080099961B43410A3D5871000000A40000002C00000043334531463644362D423342412D343146392D
311
413335422D3439324234463530313045392F636E782E786D6C55CC4D0E82301086E1AB34B31774E7A22D31F1069E60020334B633A63FC6E34B0909B07DDE2F9FEE7EC1AB2FC5E4840DDC9A2B28E25E06C7938192C7CB1D54677514C9871928C640062A83D55394F2D968A0118BAFEA1DBF377CA444F98919176EAB9FEAAB9F
311
2960DA5BBB1E2ED3FA6FFF504B030414000608080099961B432891CE8E7F000000A300000007000000636E782E786D6C4D8CD10E822018465F85FDF79404BAD80027A5EFE1121D13A191B41E3F685E74F56D67DF39A2FD6C0EBD4D7CD9E025905305C8F84798AC5F24A47DC65740AD123184FDEF06C88F9B91503028B1C490
311
9E079ACC3C2657A8B37E3DE08DF66468EE0DD65477989181E38ED61A337ED16CA82B52F53C1BE7A2E4F9F5F296BCFA02504B030414000608080099961B4316E99B5DA600000035010000130000005B436F6E74656E745F54797065735D2E786D6C9590410E82301045AFD2740F4517C6180A0BF5065E60AC53688469D30E06
311
6F6F91AD9AB89CF9FFFD3F99BA9DC7413C3026E749CB4D59498164FCCD51A7E5C4B6D84BD136F5E5193089ECA5A465CF1C0E4A25D3E308A9F401292BD6C711388FB15301CC1D3A54DBAADA29E38991B8E0254336F5092D4C038BF39CD76B6FC6A538AEBEA54A4B08617006389FA516557DE4AE8E7E70DE30729138228C5F02
311
1CD93F02D4FB0DCD0B504B030414000608080099961B433DEE336E64000000790000001B0000006175746F6465736B2D64657369676E2D7061636B6167652E786D6C35CBC10E83200C00D05F21DCA56CA76D41FC96062B120735B69A7DBE268BB7777961F8D5AF396893C2ADB70FE7ADA196782C2DF776D7A97B5933C430F1
311
5651E5469C55D70F80A4992A3ADC954792C525AE70A1E4D6AD9816CC044FEFDF01FE3FDE907802504B030414000608080099961B4347E7540DFA000000960100003700000043334531463644362D423342412D343146392D413335422D3439324234463530313045392F4173736574446174612F636F72652E786D6C8550CB
311
6EC23010FC9568EF4E6C071A821C2320F0053DF566392658103BF2A3EAE7D726A9D49E7ADAD5ECCCECEEB0C3D7F42C3E95F3DA9A0E4889A15046DA419BB183186E6807C58133676DF84583C28849759061E06C7436CE2B24AD09CA64D4D841ADA0F05E0528E433351D7879579328450C89E11FE52CE4438CAA24E5C2E32C46
311
3DAC523D24377DD3CA017FC36D5FE3E68C9AB6A16853D32B3AB6A7169113BD6CCE17DAB7F8CAAA2CE62CE8E967BB744A043500A798D408EF106DDEC96EBFA5FB2DF960556672E6834B3FAF4BF377C08FF9EA5E04C1AA65FAC735CEC3FFAE519B50D3D5755178E0241DF91A7056E594527945986A4E947F03504B0304140006
311
08080099961B434A4865C6F8000000940100003500000043334531463644362D423342412D343146392D413335422D3439324234463530313045392F536368656D61732F636F72652E786D6C8550CB6EC32010FC156BEFD880933A8E3051F3FA81F6D41B32C44189C1E251F5F30BB62BB5A79E76353B33BB3BECF0353E8B4F
311
E5BCB6A60352622894E9ADD466E820861BDA4171E0CC591B7ED1A03062541D6418381B9C8DD30AF5D60465326AAC542B28BC57018AFE999A0E7C7F57A328450C89E11FE524FA87185449CA85C7598C5AAE522D939BBE69E580BFE0F65CE3E6849AB6A16853D32B7A6D8F2D22477AD99C2EF4DCE22BABB298B3A0C79FEDBD53
311
2228099C625223BC43B47927BBFD96EEB7E4835599C9990F2EFDBC2ECDDF017F9BEFF4AC5A667F3CE324FFF78CDA849AAE9E8BC20327E9C479C05995334A650E30D59C27FF06504B030414000608080099961B434217276103010000D70100002D00000043334531463644362D423342412D343146392D413335422D343932
311
4234463530313045392F636F72652E786D6C95914D6EC3201085AF82668F6DFC933A11268ADBF8045D754761E2A0C460195CF5F8C5B5ABB6BB76057A7C6F8637C38FEFC39DBCE1E48DB30DB024038256396D6CDFC01C2EB40672147C722EFCC080583960038B0C82F7939BC74D52CE06B48B6A9DC64D94DE6300A2EEF1D280
311
57571C6422E710097F4B46A96EB2C784252B277830C397554D28036A1079C60A9AD5347F7866F5A1CA0F157BE1E9420A3E1B1B8A7C6B86C32B6AE2C6102381A878BABE466A367A638C8E7F3417831388C7E2CCBADDD38EB6457BA225EBF6F454542D2DF7795B7655C6B2F33E168966C17D98E264B622CB0CFE6A5F8DBF92CD
311
A3FE67B2D5E141B0EF50E93266C1D3CF1DC4735989F800504B030414000608080099961B43FB6881CB08010000B201000008000000636F72652E786D6C8D50CB6EC32010FC15B4776CC0496D4798A8797D414FBD51431C141B2C83A3F6EF0BB12BB5B79E16CDCCEE0CC3F79F438F1E7AF2C6D90668460069DB3A656CD7C01C
311
AEB802B4177C722EFC9201B272D00D241804EF26378F2BD43A1BB44DA8754AAFA0F45E07406D1F1F0DF8F6A60799C9394485BF67A36CEFB2D319CD169DE0C10C3FABEDA465D00A0423B4C0A4C2AC7CA3D56ECB765BFACEF3A4147C9E8D5AAD8C8AEEE66AF404E285D4A78294475CD625C39B825DF06B7DA8313DB0F3E67866
311
A79A5C789E9605F7618A7F5E8FC49C0179F948BE3C5F28C13F9CEB57410CA590B3FD1708C2F344FC093D8FEA1FA18D0D055B0F2E1B1E048D819E44344E0DC6F1AC37CED4B6F806504B0102140014000608080099961B43C62ABD64D9000000200100004F000000000000000000000000000000000043334531463644362D42
311
3342412D343146392D413335422D3439324234463530313045392F4173736574446174612F446566696E6974696F6E4974657261746F7250726F706572746965732E62696E504B0102140014000608080099961B43D1107D6F230100003002000045000000000000000000000000004601000043334531463644362D423342
311
412D343146392D413335422D3439324234463530313045392F4173736574446174612F496E7374616E636550726F706572746965732E62696E504B0102140014000608080099961B437D09B9F3790100005E0600003D00000000000000000000000000CC02000043334531463644362D423342412D343146392D413335422D
311
3439324234463530313045392F536368656D61732F436F6D6D6F6E536368656D612E786D6C504B0102140014000608080099961B43317D3058AB040000AB1500003E00000000000000000000000000A004000043334531463644362D423342412D343146392D413335422D3439324234463530313045392F536368656D6173
311
2F47656E65726963536368656D612E786D6C504B0102140014000608080099961B4379B77F2750010000C20300004500000000000000000000000000A709000043334531463644362D423342412D343146392D413335422D3439324234463530313045392F536368656D61732F52656E6465724D6174657269616C53636865
311
6D612E786D6C504B0102140014000608080099961B432CA12B8D510000005700000047000000000000000000000000005A0B000043334531463644362D423342412D343146392D413335422D3439324234463530313045392F4173736574446174612F41737365745461626C654F66436F6E74656E74732E62696E504B0102
311
140014000608080099961B43F865834058000000680000004500000000000000000000000000100C000043334531463644362D423342412D343146392D413335422D3439324234463530313045392F4173736574446174612F53747265616D56657273696F6E5461626C652E696E66504B0102140014000608080099961B43
311
9DF00243350100009A0400003600000000000000000000000000CB0C000043334531463644362D423342412D343146392D413335422D3439324234463530313045392F4173736574446174612F636E782E786D6C504B0102140014000608080099961B43B696424F090100004F030000340000000000000000000000000054
311
0E000043334531463644362D423342412D343146392D413335422D3439324234463530313045392F536368656D61732F636E782E786D6C504B0102140014000608080099961B43410A3D5871000000A40000002C00000000000000000000000000AF0F000043334531463644362D423342412D343146392D413335422D3439
311
324234463530313045392F636E782E786D6C504B0102140014000608080099961B432891CE8E7F000000A300000007000000000000000000000000006A100000636E782E786D6C504B0102140014000608080099961B4316E99B5DA60000003501000013000000000000000000000000000E1100005B436F6E74656E745F54
311
797065735D2E786D6C504B0102140014000608080099961B433DEE336E64000000790000001B00000000000000000000000000E51100006175746F6465736B2D64657369676E2D7061636B6167652E786D6C504B0102140014000608080099961B4347E7540DFA000000960100003700000000000000000000000000821200
311
0043334531463644362D423342412D343146392D413335422D3439324234463530313045392F4173736574446174612F636F72652E786D6C504B0102140014000608080099961B434A4865C6F8000000940100003500000000000000000000000000D113000043334531463644362D423342412D343146392D413335422D34
311
39324234463530313045392F536368656D61732F636F72652E786D6C504B0102140014000608080099961B434217276103010000D70100002D000000000000000000000000001C15000043334531463644362D423342412D343146392D413335422D3439324234463530313045392F636F72652E786D6C504B010214001400
311
0608080099961B43FB6881CB08010000B201000008000000000000000000000000006A160000636F72652E786D6C504B050600000000110011005A060000981700000000
310
504B030414000608080099961B43000000000000000000000000370000006662782F44343236334144442D374546372D344436452D423045342D3839374145433738314643302F617474726962757465732E62696E504B030414000608080099961B43000000000000000000000000350000006662782F4434323633414444
310
2D374546372D344436452D423045342D3839374145433738314643302F76657274696365732E62696E504B030414000608080099961B43F270F1330600000004000000360000006662782F44343236334144442D374546372D344436452D423045342D3839374145433738314643302F747269616E676C65732E62696E6366
310
60600000504B030414000608080099961B4351464CB48900000043010000360000006662782F44343236334144442D374546372D344436452D423045342D3839374145433738314643302F6469726563746F72792E786D6C9D8F310EC2300C45AF127987122606C71DD918B841D4B851A43646695A717C52A85029031293A5
310
A76FBF6FACEF7DA7264E43906840EF0FA03836E242F406C6DCEE4EA06AC22492573150D1F66C60C640E8938CB705396EEDD86DE9B5042FE27813D640EA63BB001C722AF6E55CB61E4863F58284D5D3F53DD715CE1C3985E63FD7F1B7EBDD617E9F1E504B030414000608080099961B43D1CCC16938070000201C0000340000
310
006662782F44343236334144442D374546372D344436452D423045342D3839374145433738314643302F6F626A656374732E786D6CDD595B6FDB3614FE2B84F6B23DE866CB8E5D282E123B2D8C226D51A3C3DE045AA61D2EBA81941267BF7E8714294BB26C2B590B144B8058A1C9C373BE733FF2DFEFE3083D11C6699A5C1B
310
AEE518882461BAA1C9EEDA28F2AD3931D0FB19F2599AE6B57D064A704CAE0DB16CCCFC1D4B8B4C2D6DC81617517BF5C3ED5F88872421060A23CCF9B5C1C30712630B1779BA21FCD1DAE01C5BBBEDDE72AD726393EC8EE1ECA17555861949726015D613A0A238709BFF8248F6CCB7C586C6B641BF6DC333DB6C297893519AF0
310
1C27E111572D3A837E5C0D5D6F7137184DCD91E70D4D6F3C70CDDB0FB70BD3BD1A3AF3F17C3EBDB99B1A68E6AFD334AA14909164035A7C3166AE6F8B6F2AF1150A5D7C8769929050A1D9B56143145D4A781B9306B0AE14ADA69052D6DAC2B0A7F027B6F502A5C152036D2D9CFEAC5B6FBAFE1B40E07DAC947122AC9CE70C74
310
ADB02FFDC1F1ED72B5A117CA518C73C2288E5044D70C3350106C2D15D42023BC4590420233A9454DAFCE2B18F6655FEAE2725B4491F05F63263D2D007F2439979CD17F083B705FBF0D7802690B9AE413256CFE920189A96FCBC5F2BBE1407D590289B611DE81B5809862D370D0C26B2E62C17261CC3E7D58EF57223E745F9E
310
B134232C1796279D59F99DD660CDB4C0F87A8052E2DAD4DD01956F00FD6740BEE205F9A03946F7DEDED3B2339CF06DCA62D00E7290E9C01F0789C7A327DFAE0ECF106AC4CA539882DBFE204C1B6234EEAE413AF39FC0E8533654C2AD421C814DDFD344F839180A8A52588278BF5DEF8DD91282292CC2291C81F4F0EBDBE211
310
C1474907E24D4B435DE1B787A2B4C3B4FDECA0AB8F60338C8695AA1A329EC277F443F0BD59AC3EAD0AB6C521B9578EBD205B9AD01C926937430DD01B2EFF7DF9597AE4913C8D5D21DCB34B45E0E8D0CB4AE90549C5002B220F97AA912BF714DC3D8A7042D282ABF5AE4015A651CA82F54B50FA70E75D7F6A23282F03FF1616
310
D019CC20BB878C66021463A6C4AB22A175C049C4416580BB52A9C11A878F02DE208488F5163EC06A316B132DE22CC0715A24227C1F9B775B346BE8C81FD79D0E9CE960321D6B61B924AFBD4787868A79714F8CB31397CC1BDA525143532EFDC88368D9254108355391076986439A77DB424B08E5A100F659963774BB2D3804
310
F54E585A1C5B4377849CDADFEA92F3DCAB4B021AE31D09B65864B8CEFB1A0055C4B5049DC8ECA294739A102E2B94A3C8D542C5B120109476ABA9761821E5414C72FC16FB9329AF657E8C6CA3006AA95C54B397AD4F33A8B2E7298AA2724B9340CAFF12701C675159A55DC2C01DB46EE8C455302DAE78027B0B701E381B228B
310
EE4BD4ABB8A0F1ED457DFA66F227E061F8A7C3A3AFA0507A438EBCAC59D71AB953F13381A0321EB9C32BAD884B58E9AB7251834405544DE14BF04CE8EEA15F40EB750F27D136A05154C441990F7212430986F382F5F2D7F1C83952BE8A0B2D87A8DDB4A51114C8BD83A6AC3D74F50152C9E2E354D0AC5D0342D1047AB45E82
310
1C49D169C25217B21F156DD765EDBF9EEA7F8E97F53EE591BC3CA76CD3C969B38CD015982E1844B85419AEB2234979E6D79D2F968DCB651C3C4D44C5B7B24B5016C2C813158309D90175F60FFC19E72104D295FC346FC123366473A8291AE4D498C3980D0FDD88AE53EB9D0E043B913E1A85D75204D418A60D58C4D97BF110
310
7DC3A06AA8FCB8ADAA1ABB5C5F8AC466C160E5C0C7195A5F3EAE5A5460A5F7E9AF0223F2DCA2A056E7A2903B43EAFBF250AFB6282889BE2FCF1CCF1F8A789D602A32A3300BBCC9DEBD97BDE4B50D8D823D9F2C1603985098AEBB5898DED578624EBC896B0EA6B7A3C595E74E6FA77736233C2D5848B8EDD94EA06BA72CD969
310
C328A1EBD351C054E172EBA7EDB9ADE0FF714711A56B7CCA167FD586A22AF74441D6F2C5BE0D4567A05EBFAEFA778F027577127B55E55CCE0AB4819F4F5B108C74BEEF5F5A68D2BA92E8E6B996115F99784F762B3F3DC734027A677E68ECE80AF9CD580CB3A78E2CA5BBDB72C4311EDEDC8D8777A63759CC4DCF73EECCE9D5
310
950371CC194E1DE7C6BDBD3AB4842A17F6CD2BBF440CD5CCD6C668300DE6694461284F36684752E88060EAD023BEB29870D9D94001A0D2B87E23D0E3F4533953CDF13AD2A7C3070C83E94865E42284A128741DD7865A47BFC118544C22E570CA7A84C4A3ACDD4005A3D70698404E21BF586B1867C9E1A1A4DE1A5782DA70B2
310
133D5379AAFAFF704CA003B67290ABDAD307172559C33A613890C9F70410EDCA2F66FEDB45D7EC209CC3E3BAC82B610E0B07691408FA8540291C4CFD1E15BC7B083CE7E5722DB9A70149AFC9FC593B28A99A39663B395EAFE17DB3F86A8BC9F8F20BCAA26227D4792EDF372899A2CE888A7208E583612831332CFAF0F93BFB
310
2B4BE115538C3E503002F4FB7E32FEC39EA7719C26E5927DA35E54A1D503BC76DAD87AE4C7ED81E37AB6AC7BD4581FE6569C5878C31F610154CBA8988D9610370CA00A4F3503D01A11BA80638DFDCB05524900EA666D31F5D255C02367FA081C49BCCB116E53DF501B40822F0057E59CB67AD00BBECD60083EFB17504B0304
310
14000608080099961B43483572283E01000046050000300000006662782F44343236334144442D374546372D344436452D423045342D3839374145433738314643302F636E782E786D6CCD94C14A033110865F25E4BEC96EA5584A36050F3E8107F196CD4ED7D86CB224B362DFDEA4A655918A8742BD85C93FF07F333F2336
310
6FA325AF10A2F1AEA50DAB2901A77D6FDCD0D219B7D58A928D14C17BFC22A3C4A9115A9ACB548A21F8792AA51EB66AB6B96A8DDB95A2420CA69B112225DAAA185B1AF5338C8AA9197D0F71C77A858A352C40F473D090FAD18C50FA750085D053B9A89B9BAA5E558BDB8766B55E2ED6CBE649F0AC94A2F3DE16BD7108C14F44
310
FBF470C94C2D78FE96620EA6683201959FCE58679CE0E95F8A98DCBAA1E8703F65DD3459A315A63171AF11B04A2250A3E01F622978E6FD467D7FF77874407A1340A30FFB2B0DA039378093319692F037FE83F0776CDFBD24DC6B6DFB2C6CB17531D4635A638AEBCFFDA7142937D8FF17FA93B1CB673E9D1234FAFF211F7D5D
310
88981F4E5E5A7ABE80F21D504B030414000608080099961B43A724ADCB7F000000A30000000B0000006662782F636E782E786D6C4D8CD10E822018465F85FDF7141613DA006782EFE1129D13A191B41E3F685E74F56D67DF39A2F96C0EBD6D7C2DC14BA84E0490F58F302E7E9690F60973408D123184FDEF06C80F9B955030
310
2831C7909E071AED342457A85BFC7A404D2FF5B5D51A33D3334C756DF09D188AF98DB5A663BCEA3B928D7351F2FC7A794B5E7D01504B030414000608080099961B43A6D797065F0000008200000007000000636E782E786D6C4DCB3B0E80201045D1AD90E9FD7516806B51190811670C8A61F982B1B0BAC9C97B72CA7B1037
310
C6D3332918DA1E04D2CAC69353902EDB8C20262D23F3F59B81A079470595414B17391D1F19B4730A5583A7ED43BBE4025D9592775E5ADFFA01504B030414000608080099961B434FEB6A7CA0000000F4000000130000005B436F6E74656E745F54797065735D2E786D6C7D8F4B0EC2300C44AF1279DFA6B0400835ED02B801
310
1730C16D239A8F121795DB93D02D6269CFBC19BBED573B8B17C564BC53B0AB1B10E4B47F18372A5878A88E20FAAEBDBD032591BD2E299898C349CAA427B2986A1FC86565F0D122E7318E32A07EE24872DF3407A9BD63725C71C980AEBDD080CBCCE2BAE6F5D69B7110E7CD57AA146008B3D1C8F92C5954F993BB1BF787F39A
310
89ABC491D09600F9FDA2FB00504B030414000608080099961B433DEE336E64000000790000001B0000006175746F6465736B2D64657369676E2D7061636B6167652E786D6C35CBC10E83200C00D05F21DCA56CA76D41FC96062B120735B69A7DBE268BB7777961F8D5AF396893C2ADB70FE7ADA196782C2DF776D7A97B5933
310
C430F15651E5469C55D70F80A4992A3ADC954792C525AE70A1E4D6AD9816CC044FEFDF01FE3FDE907802504B030414000608080099961B4360AA70D8F9000000960100003B0000006662782F44343236334144442D374546372D344436452D423045342D3839374145433738314643302F7265736F75726365732F636F7265
310
2E786D6C8550CB6E833010FC15B4770306D2D0C83882927E414FBD596643AD041BF951F5F36B072AB5A79E76353B33BB3BECFCB5DCB34FB44E19DD01CD4BC8504B33293D7710FC95B4909D39B3C6F85F34C8B458B083040367B33561DD2169B4479D506D26DC41E11C7AC8E43D361D38F9818BC845F091E16EF92AE44DCC98
310
D37CE37116829A76A99AA29BBA2AB4C0FBB169C6FAB5272F356D4833F60319CA634BC6A76A78BED0A6BD1C7B562431675E2D3FDBA545E171025E95B426654BAAE31B6D4F87EA74A0EFAC484CCE9CB7F1E77D69FA0EB845678295E858B14DFFB88675FADF3528EDEB6A77DD140E388D473E069C1529A5581E11C69A12E5DF50
310
4B030414000608080099961B43762A3FFEF4000000B1010000310000006662782F44343236334144442D374546372D344436452D423045342D3839374145433738314643302F636F72652E786D6C8D50CB6E833010FC15B47703061268641CA5817C414FBD59B643AC041BF951F5F36B072AB5B79CD69A9DF1CC0E397ECF8F
310
EC4B5AA78CEE01E72564527323949E7A08FE8A3AC88E945863FC1F1A649ACDB287040325933561D9206EB4973AA1DA08B981CC39E921E38FF8E8C1F19B9C59CE828F0C77CF17C6EF6C9239CE571E255ECDBF526E25F35200AD4A5CA3B24355FB81BBC3AE3AECF027291293921094D8AC9488EEEAAAA4053A34D5BE3E0D036A
310
C74B8B9A613FA2F7726C50F7D69EC673DBE1CBB924451253E2BC8D376F9FA4EB5E95AFC27F99C3225EC8ACB4AFABCD705538A038E6792E28295281713CDB8D33954D7F00504B030414000608080099961B4342341D2255010000DD0200000C0000006662782F636F72652E786D6C8D525D6F832014FD2B867754D4AEAE411A
310
3BBB5FB0A7BD51A48E54C12098FEFC811F717D58B7982039F7DE73EE39011FEF5D1B8C5C0F42C902A0300601974CD5423605B0E60A73101C09D64A991F6D2090B4E305F03020B8D1CAF60BC494345C7A54AA9A2F201D066E40C05A7729C0C0BE7847436A8DEB186E614FD98D363C44E1DC47B0B5A25E4645EDD8C455700D48
310
59655995BE97F02D4519CCAAF2044FF13E87D54B727A3DA32C3FEF4B1CF961828DE85675A63935BC062489510AE31C26FB0F941F76C961873E71E43B091E8C769E1751EF0E90EBE58EA3197FE0B37DFD379F15D2A4C9C2374F0C8020B7DE542038F2F9B8DF14DE63864ED8E567E8A55D2DDC1C34726694CE5CA556762B8DB4
310
B5DC51C7C1F4E168AE3AE689E0379EE409CF730E1714958D5B8D1A77BD58E3D51F77EAB986A3B90752E98EB6DB72F38ADBB9093D585AC7996A95FECFF46A750D33F20F937C03504B030414000608080099961B4340B469F508010000B201000008000000636F72652E786D6C8D50C16E842014FC15F2EEA8A85BED06D968DD
310
7E414FBD51615DB20A0670D3FE7D61B5497BEBE99199796F86A1A7CF794277699D32BA01926480A41E8C507A6C60F5175C033A316A8DF1BF6480349F6503110646476BD6658706A3BDD411D546C81DE4CE490F6898C2A301375CE5CC13BEFAA070B764E1C38D8F3221C9A663D4ABF96775B0927B2980E519297056E3BC7A23
310
F5F1901F0FE49DA651C9E8BA2AB15B2911DCD545490BACEDCBB22F5E5BFC529012977DDBE12EAB6ADC3FE5DDF39994F5B96A691A971975DE863FEF47424E8F1CBF475F9A6E14A31FC64CBB208412C8E8E90B5846D348FC09BD2EE21FA195F645BE1FDC361C3012023D88601C1B0CE3516F98B16DF60D504B01021400140006
310
08080099961B430000000000000000000000003700000000000000000000000000000000006662782F44343236334144442D374546372D344436452D423045342D3839374145433738314643302F617474726962757465732E62696E504B0102140014000608080099961B4300000000000000000000000035000000000000
310
00000000000000550000006662782F44343236334144442D374546372D344436452D423045342D3839374145433738314643302F76657274696365732E62696E504B0102140014000608080099961B43F270F13306000000040000003600000000000000000000000000A80000006662782F44343236334144442D37454637
310
2D344436452D423045342D3839374145433738314643302F747269616E676C65732E62696E504B0102140014000608080099961B4351464CB489000000430100003600000000000000000000000000020100006662782F44343236334144442D374546372D344436452D423045342D3839374145433738314643302F646972
310
6563746F72792E786D6C504B0102140014000608080099961B43D1CCC16938070000201C00003400000000000000000000000000DF0100006662782F44343236334144442D374546372D344436452D423045342D3839374145433738314643302F6F626A656374732E786D6C504B0102140014000608080099961B43483572
310
283E010000460500003000000000000000000000000000690900006662782F44343236334144442D374546372D344436452D423045342D3839374145433738314643302F636E782E786D6C504B0102140014000608080099961B43A724ADCB7F000000A30000000B00000000000000000000000000F50A00006662782F636E
310
782E786D6C504B0102140014000608080099961B43A6D797065F0000008200000007000000000000000000000000009D0B0000636E782E786D6C504B0102140014000608080099961B434FEB6A7CA0000000F40000001300000000000000000000000000210C00005B436F6E74656E745F54797065735D2E786D6C504B0102
310
140014000608080099961B433DEE336E64000000790000001B00000000000000000000000000F20C00006175746F6465736B2D64657369676E2D7061636B6167652E786D6C504B0102140014000608080099961B4360AA70D8F9000000960100003B000000000000000000000000008F0D00006662782F4434323633414444
310
2D374546372D344436452D423045342D3839374145433738314643302F7265736F75726365732F636F72652E786D6C504B0102140014000608080099961B43762A3FFEF4000000B10100003100000000000000000000000000E10E00006662782F44343236334144442D374546372D344436452D423045342D383937414543
310
3738314643302F636F72652E786D6C504B0102140014000608080099961B4342341D2255010000DD0200000C00000000000000000000000000241000006662782F636F72652E786D6C504B0102140014000608080099961B4340B469F508010000B20100000800000000000000000000000000A3110000636F72652E786D6C
310
504B0506000000000E000E0080040000D11200000000
  0
XRECORD
  5
14D3C
102
{ACAD_REACTORS
330
14D3B
102
}
330
14D3B
100
AcDbXrecord
280
     1
102
SHADEPLOT
 70
     1
102
SHADEPLOTRESLEVEL
 70
     4
102
SHADEPLOTCUSTOMDPI
 70
   300
  0
XRECORD
  5
14D56
102
{ACAD_REACTORS
330
14D55
102
}
330
14D55
100
AcDbXrecord
280
     1
102
DISPLAYNAME
  1
Imperial24
102
FLAGS
 90
        0
  0
XRECORD
  5
14D52
102
{ACAD_REACTORS
330
14D51
102
}
330
14D51
100
AcDbXrecord
280
     1
102
DISPLAYNAME
  1
Metric50
102
FLAGS
 90
        0
  0
CELLSTYLEMAP
  5
14D12
102
{ACAD_REACTORS
330
177A
102
}
330
177A
100
AcDbCellStyleMap
 90
        3
300
CELLSTYLE
  1
TABLEFORMAT_BEGIN
 90
        5
170
     1
 91
        0
 92
    32768
 62
   257
 93
        1
300
CONTENTFORMAT
  1
CONTENTFORMAT_BEGIN
 90
        0
 91
        0
 92
      512
 93
        0
300

 40
0.0
140
1.0
 94
        5
 62
     0
340
26
144
6.0
309
CONTENTFORMAT_END
171
     1
301
MARGIN
  1
CELLMARGIN_BEGIN
 40
1.5
 40
1.5
 40
1.5
 40
1.5
 40
0.18
 40
0.18
309
CELLMARGIN_END
 94
        6
 95
        1
302
GRIDFORMAT
  1
GRIDFORMAT_BEGIN
 90
        0
 91
        1
 62
     0
 92
       -2
340
0
 93
        0
 40
0.045
309
GRIDFORMAT_END
 95
        2
302
GRIDFORMAT
  1
GRIDFORMAT_BEGIN
 90
        0
 91
        1
 62
     0
 92
       -2
340
0
 93
        0
 40
0.045
309
GRIDFORMAT_END
 95
        4
302
GRIDFORMAT
  1
GRIDFORMAT_BEGIN
 90
        0
 91
        1
 62
     0
 92
       -2
340
0
 93
        0
 40
0.045
309
GRIDFORMAT_END
 95
        8
302
GRIDFORMAT
  1
GRIDFORMAT_BEGIN
 90
        0
 91
        1
 62
     0
 92
       -2
340
0
 93
        0
 40
0.045
309
GRIDFORMAT_END
 95
       16
302
GRIDFORMAT
  1
GRIDFORMAT_BEGIN
 90
        0
 91
        1
 62
     0
 92
       -2
340
0
 93
        0
 40
0.045
309
GRIDFORMAT_END
 95
       32
302
GRIDFORMAT
  1
GRIDFORMAT_BEGIN
 90
        0
 91
        1
 62
     0
 92
       -2
340
0
 93
        0
 40
0.045
309
GRIDFORMAT_END
309
TABLEFORMAT_END
  1
CELLSTYLE_BEGIN
 90
        1
 91
        1
300
_TITLE
309
CELLSTYLE_END
300
CELLSTYLE
  1
TABLEFORMAT_BEGIN
 90
        5
170
     1
 91
        0
 92
        0
 62
   257
 93
        1
300
CONTENTFORMAT
  1
CONTENTFORMAT_BEGIN
 90
        0
 91
        0
 92
      512
 93
        0
300

 40
0.0
140
1.0
 94
        5
 62
     0
340
26
144
4.5
309
CONTENTFORMAT_END
171
     1
301
MARGIN
  1
CELLMARGIN_BEGIN
 40
1.5
 40
1.5
 40
1.5
 40
1.5
 40
0.18
 40
0.18
309
CELLMARGIN_END
 94
        6
 95
        1
302
GRIDFORMAT
  1
GRIDFORMAT_BEGIN
 90
        0
 91
        1
 62
     0
 92
       -2
340
0
 93
        0
 40
0.045
309
GRIDFORMAT_END
 95
        2
302
GRIDFORMAT
  1
GRIDFORMAT_BEGIN
 90
        0
 91
        1
 62
     0
 92
       -2
340
0
 93
        0
 40
0.045
309
GRIDFORMAT_END
 95
        4
302
GRIDFORMAT
  1
GRIDFORMAT_BEGIN
 90
        0
 91
        1
 62
     0
 92
       -2
340
0
 93
        0
 40
0.045
309
GRIDFORMAT_END
 95
        8
302
GRIDFORMAT
  1
GRIDFORMAT_BEGIN
 90
        0
 91
        1
 62
     0
 92
       -2
340
0
 93
        0
 40
0.045
309
GRIDFORMAT_END
 95
       16
302
GRIDFORMAT
  1
GRIDFORMAT_BEGIN
 90
        0
 91
        1
 62
     0
 92
       -2
340
0
 93
        0
 40
0.045
309
GRIDFORMAT_END
 95
       32
302
GRIDFORMAT
  1
GRIDFORMAT_BEGIN
 90
        0
 91
        1
 62
     0
 92
       -2
340
0
 93
        0
 40
0.045
309
GRIDFORMAT_END
309
TABLEFORMAT_END
  1
CELLSTYLE_BEGIN
 90
        2
 91
        1
300
_HEADER
309
CELLSTYLE_END
300
CELLSTYLE
  1
TABLEFORMAT_BEGIN
 90
        5
170
     1
 91
        0
 92
        0
 62
   257
 93
        1
300
CONTENTFORMAT
  1
CONTENTFORMAT_BEGIN
 90
        0
 91
        0
 92
      512
 93
        0
300

 40
0.0
140
1.0
 94
        2
 62
     0
340
26
144
4.5
309
CONTENTFORMAT_END
171
     1
301
MARGIN
  1
CELLMARGIN_BEGIN
 40
1.5
 40
1.5
 40
1.5
 40
1.5
 40
0.18
 40
0.18
309
CELLMARGIN_END
 94
        6
 95
        1
302
GRIDFORMAT
  1
GRIDFORMAT_BEGIN
 90
        0
 91
        1
 62
     0
 92
       -2
340
0
 93
        0
 40
0.045
309
GRIDFORMAT_END
 95
        2
302
GRIDFORMAT
  1
GRIDFORMAT_BEGIN
 90
        0
 91
        1
 62
     0
 92
       -2
340
0
 93
        0
 40
0.045
309
GRIDFORMAT_END
 95
        4
302
GRIDFORMAT
  1
GRIDFORMAT_BEGIN
 90
        0
 91
        1
 62
     0
 92
       -2
340
0
 93
        0
 40
0.045
309
GRIDFORMAT_END
 95
        8
302
GRIDFORMAT
  1
GRIDFORMAT_BEGIN
 90
        0
 91
        1
 62
     0
 92
       -2
340
0
 93
        0
 40
0.045
309
GRIDFORMAT_END
 95
       16
302
GRIDFORMAT
  1
GRIDFORMAT_BEGIN
 90
        0
 91
        1
 62
     0
 92
       -2
340
0
 93
        0
 40
0.045
309
GRIDFORMAT_END
 95
       32
302
GRIDFORMAT
  1
GRIDFORMAT_BEGIN
 90
        0
 91
        1
 62
     0
 92
       -2
340
0
 93
        0
 40
0.045
309
GRIDFORMAT_END
309
TABLEFORMAT_END
  1
CELLSTYLE_BEGIN
 90
        3
 91
        2
300
_DATA
309
CELLSTYLE_END
  0
XRECORD
  5
14D38
102
{ACAD_REACTORS
330
177A
102
}
330
177A
100
AcDbXrecord
280
     1
102
ACAD_ROUNDTRIP_PRE2007_TABLESTYLE
 90
      512
 91
        0
  1

 92
      512
 93
        0
  2

 94
      512
 95
        0
  3

  0
XRECORD
  5
14D23
102
{ACAD_REACTORS
330
14D22
102
}
330
14D22
100
AcDbXrecord
280
     1
102
RTVSPost2010Prop28
280
     1
102
RTVSPost2010PropOp28
 70
     1
102
RTVSPost2010Prop29
280
     1
102
RTVSPost2010PropOp29
 70
     1
102
RTVSPost2010Prop30
280
     0
102
RTVSPost2010PropOp30
 70
     1
102
RTVSPost2010Prop31
280
     0
102
RTVSPost2010PropOp31
 70
     1
102
RTVSPost2010Prop32
280
     0
102
RTVSPost2010PropOp32
 70
     1
102
RTVSPost2010Prop33
280
     0
102
RTVSPost2010PropOp33
 70
     1
102
RTVSPost2010Prop34
280
     0
102
RTVSPost2010PropOp34
 70
     1
102
RTVSPost2010Prop35
280
     0
102
RTVSPost2010PropOp35
 70
     1
102
RTVSPost2010Prop36
280
     0
102
RTVSPost2010PropOp36
 70
     1
102
RTVSPost2010Prop37
 90
       50
102
RTVSPost2010PropOp37
 70
     1
102
RTVSPost2010Prop38
140
0.0
102
RTVSPost2010PropOp38
 70
     1
102
RTVSPost2010Prop39
140
1.0
102
RTVSPost2010PropOp39
 70
     1
102
RTVSPost2010Prop40
 90
        0
102
RTVSPost2010PropOp40
 70
     1
102
RTVSPost2010Prop41ColorIndex
 90
       18
102
RTVSPost2010Prop41ColorRGB
 90
        0
102
RTVSPost2010PropOp41
 70
     1
102
RTVSPost2010Prop42
 90
       50
102
RTVSPost2010PropOp42
 70
     1
102
RTVSPost2010Prop43
 90
        3
102
RTVSPost2010PropOp43
 70
     1
102
RTVSPost2010Prop44ColorIndex
 90
        5
102
RTVSPost2010Prop44ColorRGB
 90
      255
102
RTVSPost2010PropOp44
 70
     1
102
RTVSPost2010Prop45
280
     0
102
RTVSPost2010PropOp45
 70
     1
102
RTVSPost2010Prop46
 90
       50
102
RTVSPost2010PropOp46
 70
     1
102
RTVSPost2010Prop47
 90
       50
102
RTVSPost2010PropOp47
 70
     1
102
RTVSPost2010Prop48
 90
       50
102
RTVSPost2010PropOp48
 70
     1
102
RTVSPost2010Prop49
280
     0
102
RTVSPost2010PropOp49
 70
     1
102
RTVSPost2010Prop50
 90
       50
102
RTVSPost2010PropOp50
 70
     1
102
RTVSPost2010Prop51ColorIndex
 90
      256
102
RTVSPost2010Prop51ColorRGB
 90
-16777216
102
RTVSPost2010PropOp51
 70
     0
102
RTVSPost2010Prop52
140
1.0
102
RTVSPost2010PropOp52
 70
     0
102
RTVSPost2010Prop53
 90
        2
102
RTVSPost2010PropOp53
 70
     1
102
RTVSPost2010Prop54
  1
strokes_ogs.tif
102
RTVSPost2010PropOp54
 70
     1
102
RTVSPost2010Prop55
280
     0
102
RTVSPost2010PropOp55
 70
     1
102
RTVSPost2010Prop56
140
1.0
102
RTVSPost2010PropOp56
 70
     1
102
RTVSPost2010Prop57
140
1.0
102
RTVSPost2010PropOp57
 70
     1
102
RTVSPropertyOp0
 70
     1
102
RTVSPropertyOp1
 70
     1
102
RTVSPropertyOp2
 70
     1
102
RTVSPropertyOp3
 70
     1
102
RTVSPropertyOp4
 70
     1
102
RTVSPropertyOp5
 70
     1
102
RTVSPropertyOp6
 70
     1
102
RTVSPropertyOp7
 70
     1
102
RTVSPropertyOp8
 70
     1
102
RTVSPropertyOp9
 70
     1
102
RTVSPropertyOp10
 70
     1
102
RTVSPropertyOp11
 70
     1
102
RTVSPropertyOp12
 70
     1
102
RTVSPropertyOp13
 70
     1
102
RTVSPropertyOp14
 70
     1
102
RTVSPropertyOp15
 70
     1
102
RTVSPropertyOp16
 70
     1
102
RTVSPropertyOp17
 70
     1
102
RTVSPropertyOp18
 70
     1
102
RTVSPropertyOp19
 70
     1
102
RTVSPropertyOp20
 70
     1
102
RTVSPropertyOp21
 70
     1
102
RTVSPropertyOp22
 70
     1
102
RTVSPropertyOp23
 70
     1
102
RTVSPropertyOp24
 70
     1
102
RTVSPropertyOp25
 70
     1
102
RTVSPropertyOp26
 70
     1
102
RTVSPropertyOp27
 70
     1
102
RTVSPropertyOp28
 70
     1
102
RTVSPropertyOp29
 70
     1
102
RTVSPropertyOp30
 70
     1
102
RTVSPropertyOp31
 70
     1
102
RTVSPropertyOp32
 70
     1
102
RTVSPropertyOp33
 70
     1
102
RTVSPropertyOp34
 70
     1
102
RTVSPropertyOp35
 70
     1
102
RTVSPropertyOp36
 70
     1
102
RTVSPropertyOp37
 70
     1
102
RTVSPropertyOp38
 70
     1
102
RTVSPropertyOp39
 70
     1
102
RTVSPropertyOp40
 70
     1
102
RTVSPropertyOp41
 70
     1
102
RTVSPropertyOp42
 70
     1
102
RTVSPropertyOp43
 70
     1
102
RTVSPropertyOp44
 70
     1
102
RTVSPropertyOp45
 70
     1
102
RTVSPropertyOp46
 70
     1
102
RTVSPropertyOp47
 70
     1
102
RTVSPropertyOp48
 70
     1
102
RTVSPropertyOp49
 70
     1
102
RTVSPropertyOp50
 70
     1
102
RTVSPropertyOp51
 70
     0
102
RTVSPropertyOp52
 70
     0
102
RTVSPropertyOp53
 70
     1
102
RTVSPropertyOp54
 70
     1
102
RTVSPropertyOp55
 70
     1
102
RTVSPropertyOp56
 70
     1
102
RTVSPropertyOp57
 70
     1
102
RTVSPropertyOp58
 70
     1
102
RTVSPropertyOp59
 70
     1
102
RTVSPropertyOp60
 70
     1
102
RTVSPropertyOp61
 70
     1
102
RTVSPropertyOp62
 70
     1
  0
XRECORD
  5
14D27
102
{ACAD_REACTORS
330
14D26
102
}
330
14D26
100
AcDbXrecord
280
     1
102
RTVSPost2010Prop28
280
     0
102
RTVSPost2010PropOp28
 70
     1
102
RTVSPost2010Prop29
280
     1
102
RTVSPost2010PropOp29
 70
     1
102
RTVSPost2010Prop30
280
     1
102
RTVSPost2010PropOp30
 70
     1
102
RTVSPost2010Prop31
280
     0
102
RTVSPost2010PropOp31
 70
     1
102
RTVSPost2010Prop32
280
     0
102
RTVSPost2010PropOp32
 70
     1
102
RTVSPost2010Prop33
280
     0
102
RTVSPost2010PropOp33
 70
     1
102
RTVSPost2010Prop34
280
     0
102
RTVSPost2010PropOp34
 70
     1
102
RTVSPost2010Prop35
280
     0
102
RTVSPost2010PropOp35
 70
     1
102
RTVSPost2010Prop36
280
     0
102
RTVSPost2010PropOp36
 70
     1
102
RTVSPost2010Prop37
 90
       50
102
RTVSPost2010PropOp37
 70
     1
102
RTVSPost2010Prop38
140
0.0
102
RTVSPost2010PropOp38
 70
     1
102
RTVSPost2010Prop39
140
1.0
102
RTVSPost2010PropOp39
 70
     1
102
RTVSPost2010Prop40
 90
        0
102
RTVSPost2010PropOp40
 70
     1
102
RTVSPost2010Prop41ColorIndex
 90
       18
102
RTVSPost2010Prop41ColorRGB
 90
        0
102
RTVSPost2010PropOp41
 70
     1
102
RTVSPost2010Prop42
 90
       50
102
RTVSPost2010PropOp42
 70
     1
102
RTVSPost2010Prop43
 90
        3
102
RTVSPost2010PropOp43
 70
     1
102
RTVSPost2010Prop44ColorIndex
 90
        5
102
RTVSPost2010Prop44ColorRGB
 90
      255
102
RTVSPost2010PropOp44
 70
     1
102
RTVSPost2010Prop45
280
     0
102
RTVSPost2010PropOp45
 70
     1
102
RTVSPost2010Prop46
 90
       50
102
RTVSPost2010PropOp46
 70
     1
102
RTVSPost2010Prop47
 90
       50
102
RTVSPost2010PropOp47
 70
     1
102
RTVSPost2010Prop48
 90
       50
102
RTVSPost2010PropOp48
 70
     1
102
RTVSPost2010Prop49
280
     0
102
RTVSPost2010PropOp49
 70
     1
102
RTVSPost2010Prop50
 90
       50
102
RTVSPost2010PropOp50
 70
     1
102
RTVSPost2010Prop51ColorIndex
 90
      256
102
RTVSPost2010Prop51ColorRGB
 90
-16777216
102
RTVSPost2010PropOp51
 70
     0
102
RTVSPost2010Prop52
140
1.0
102
RTVSPost2010PropOp52
 70
     0
102
RTVSPost2010Prop53
 90
        2
102
RTVSPost2010PropOp53
 70
     1
102
RTVSPost2010Prop54
  1
strokes_ogs.tif
102
RTVSPost2010PropOp54
 70
     1
102
RTVSPost2010Prop55
280
     0
102
RTVSPost2010PropOp55
 70
     1
102
RTVSPost2010Prop56
140
1.0
102
RTVSPost2010PropOp56
 70
     1
102
RTVSPost2010Prop57
140
1.0
102
RTVSPost2010PropOp57
 70
     1
102
RTVSPropertyOp0
 70
     1
102
RTVSPropertyOp1
 70
     1
102
RTVSPropertyOp2
 70
     1
102
RTVSPropertyOp3
 70
     1
102
RTVSPropertyOp4
 70
     1
102
RTVSPropertyOp5
 70
     1
102
RTVSPropertyOp6
 70
     1
102
RTVSPropertyOp7
 70
     1
102
RTVSPropertyOp8
 70
     1
102
RTVSPropertyOp9
 70
     1
102
RTVSPropertyOp10
 70
     1
102
RTVSPropertyOp11
 70
     1
102
RTVSPropertyOp12
 70
     1
102
RTVSPropertyOp13
 70
     1
102
RTVSPropertyOp14
 70
     1
102
RTVSPropertyOp15
 70
     1
102
RTVSPropertyOp16
 70
     1
102
RTVSPropertyOp17
 70
     1
102
RTVSPropertyOp18
 70
     1
102
RTVSPropertyOp19
 70
     1
102
RTVSPropertyOp20
 70
     1
102
RTVSPropertyOp21
 70
     1
102
RTVSPropertyOp22
 70
     1
102
RTVSPropertyOp23
 70
     1
102
RTVSPropertyOp24
 70
     1
102
RTVSPropertyOp25
 70
     1
102
RTVSPropertyOp26
 70
     1
102
RTVSPropertyOp27
 70
     1
102
RTVSPropertyOp28
 70
     1
102
RTVSPropertyOp29
 70
     1
102
RTVSPropertyOp30
 70
     1
102
RTVSPropertyOp31
 70
     1
102
RTVSPropertyOp32
 70
     1
102
RTVSPropertyOp33
 70
     1
102
RTVSPropertyOp34
 70
     1
102
RTVSPropertyOp35
 70
     1
102
RTVSPropertyOp36
 70
     1
102
RTVSPropertyOp37
 70
     1
102
RTVSPropertyOp38
 70
     1
102
RTVSPropertyOp39
 70
     1
102
RTVSPropertyOp40
 70
     1
102
RTVSPropertyOp41
 70
     1
102
RTVSPropertyOp42
 70
     1
102
RTVSPropertyOp43
 70
     1
102
RTVSPropertyOp44
 70
     1
102
RTVSPropertyOp45
 70
     1
102
RTVSPropertyOp46
 70
     1
102
RTVSPropertyOp47
 70
     1
102
RTVSPropertyOp48
 70
     1
102
RTVSPropertyOp49
 70
     1
102
RTVSPropertyOp50
 70
     1
102
RTVSPropertyOp51
 70
     0
102
RTVSPropertyOp52
 70
     0
102
RTVSPropertyOp53
 70
     1
102
RTVSPropertyOp54
 70
     1
102
RTVSPropertyOp55
 70
     1
102
RTVSPropertyOp56
 70
     1
102
RTVSPropertyOp57
 70
     1
102
RTVSPropertyOp58
 70
     1
102
RTVSPropertyOp59
 70
     1
102
RTVSPropertyOp60
 70
     1
102
RTVSPropertyOp61
 70
     1
102
RTVSPropertyOp62
 70
     1
  0
XRECORD
  5
14D25
102
{ACAD_REACTORS
330
14D24
102
}
330
14D24
100
AcDbXrecord
280
     1
102
RTVSPost2010Prop28
280
     0
102
RTVSPost2010PropOp28
 70
     1
102
RTVSPost2010Prop29
280
     1
102
RTVSPost2010PropOp29
 70
     1
102
RTVSPost2010Prop30
280
     1
102
RTVSPost2010PropOp30
 70
     1
102
RTVSPost2010Prop31
280
     0
102
RTVSPost2010PropOp31
 70
     1
102
RTVSPost2010Prop32
280
     0
102
RTVSPost2010PropOp32
 70
     1
102
RTVSPost2010Prop33
280
     0
102
RTVSPost2010PropOp33
 70
     1
102
RTVSPost2010Prop34
280
     0
102
RTVSPost2010PropOp34
 70
     1
102
RTVSPost2010Prop35
280
     0
102
RTVSPost2010PropOp35
 70
     1
102
RTVSPost2010Prop36
280
     0
102
RTVSPost2010PropOp36
 70
     1
102
RTVSPost2010Prop37
 90
       50
102
RTVSPost2010PropOp37
 70
     1
102
RTVSPost2010Prop38
140
0.0
102
RTVSPost2010PropOp38
 70
     1
102
RTVSPost2010Prop39
140
1.0
102
RTVSPost2010PropOp39
 70
     1
102
RTVSPost2010Prop40
 90
        0
102
RTVSPost2010PropOp40
 70
     1
102
RTVSPost2010Prop41ColorIndex
 90
       18
102
RTVSPost2010Prop41ColorRGB
 90
        0
102
RTVSPost2010PropOp41
 70
     1
102
RTVSPost2010Prop42
 90
       50
102
RTVSPost2010PropOp42
 70
     1
102
RTVSPost2010Prop43
 90
        3
102
RTVSPost2010PropOp43
 70
     1
102
RTVSPost2010Prop44ColorIndex
 90
        5
102
RTVSPost2010Prop44ColorRGB
 90
      255
102
RTVSPost2010PropOp44
 70
     1
102
RTVSPost2010Prop45
280
     0
102
RTVSPost2010PropOp45
 70
     1
102
RTVSPost2010Prop46
 90
       50
102
RTVSPost2010PropOp46
 70
     1
102
RTVSPost2010Prop47
 90
       50
102
RTVSPost2010PropOp47
 70
     1
102
RTVSPost2010Prop48
 90
       50
102
RTVSPost2010PropOp48
 70
     1
102
RTVSPost2010Prop49
280
     0
102
RTVSPost2010PropOp49
 70
     1
102
RTVSPost2010Prop50
 90
       50
102
RTVSPost2010PropOp50
 70
     1
102
RTVSPost2010Prop51ColorIndex
 90
      256
102
RTVSPost2010Prop51ColorRGB
 90
-16777216
102
RTVSPost2010PropOp51
 70
     0
102
RTVSPost2010Prop52
140
1.0
102
RTVSPost2010PropOp52
 70
     0
102
RTVSPost2010Prop53
 90
        2
102
RTVSPost2010PropOp53
 70
     1
102
RTVSPost2010Prop54
  1
strokes_ogs.tif
102
RTVSPost2010PropOp54
 70
     1
102
RTVSPost2010Prop55
280
     0
102
RTVSPost2010PropOp55
 70
     1
102
RTVSPost2010Prop56
140
1.0
102
RTVSPost2010PropOp56
 70
     1
102
RTVSPost2010Prop57
140
1.0
102
RTVSPost2010PropOp57
 70
     1
102
RTVSPropertyOp0
 70
     1
102
RTVSPropertyOp1
 70
     1
102
RTVSPropertyOp2
 70
     1
102
RTVSPropertyOp3
 70
     1
102
RTVSPropertyOp4
 70
     1
102
RTVSPropertyOp5
 70
     1
102
RTVSPropertyOp6
 70
     1
102
RTVSPropertyOp7
 70
     1
102
RTVSPropertyOp8
 70
     1
102
RTVSPropertyOp9
 70
     1
102
RTVSPropertyOp10
 70
     1
102
RTVSPropertyOp11
 70
     1
102
RTVSPropertyOp12
 70
     1
102
RTVSPropertyOp13
 70
     1
102
RTVSPropertyOp14
 70
     1
102
RTVSPropertyOp15
 70
     1
102
RTVSPropertyOp16
 70
     1
102
RTVSPropertyOp17
 70
     1
102
RTVSPropertyOp18
 70
     1
102
RTVSPropertyOp19
 70
     1
102
RTVSPropertyOp20
 70
     1
102
RTVSPropertyOp21
 70
     1
102
RTVSPropertyOp22
 70
     1
102
RTVSPropertyOp23
 70
     1
102
RTVSPropertyOp24
 70
     1
102
RTVSPropertyOp25
 70
     1
102
RTVSPropertyOp26
 70
     1
102
RTVSPropertyOp27
 70
     1
102
RTVSPropertyOp28
 70
     1
102
RTVSPropertyOp29
 70
     1
102
RTVSPropertyOp30
 70
     1
102
RTVSPropertyOp31
 70
     1
102
RTVSPropertyOp32
 70
     1
102
RTVSPropertyOp33
 70
     1
102
RTVSPropertyOp34
 70
     1
102
RTVSPropertyOp35
 70
     1
102
RTVSPropertyOp36
 70
     1
102
RTVSPropertyOp37
 70
     1
102
RTVSPropertyOp38
 70
     1
102
RTVSPropertyOp39
 70
     1
102
RTVSPropertyOp40
 70
     1
102
RTVSPropertyOp41
 70
     1
102
RTVSPropertyOp42
 70
     1
102
RTVSPropertyOp43
 70
     1
102
RTVSPropertyOp44
 70
     1
102
RTVSPropertyOp45
 70
     1
102
RTVSPropertyOp46
 70
     1
102
RTVSPropertyOp47
 70
     1
102
RTVSPropertyOp48
 70
     1
102
RTVSPropertyOp49
 70
     1
102
RTVSPropertyOp50
 70
     1
102
RTVSPropertyOp51
 70
     0
102
RTVSPropertyOp52
 70
     0
102
RTVSPropertyOp53
 70
     1
102
RTVSPropertyOp54
 70
     1
102
RTVSPropertyOp55
 70
     1
102
RTVSPropertyOp56
 70
     1
102
RTVSPropertyOp57
 70
     1
102
RTVSPropertyOp58
 70
     1
102
RTVSPropertyOp59
 70
     1
102
RTVSPropertyOp60
 70
     1
102
RTVSPropertyOp61
 70
     1
102
RTVSPropertyOp62
 70
     1
  0
XRECORD
  5
14D21
102
{ACAD_REACTORS
330
14D20
102
}
330
14D20
100
AcDbXrecord
280
     1
102
RTVSPost2010Prop28
280
     0
102
RTVSPost2010PropOp28
 70
     1
102
RTVSPost2010Prop29
280
     1
102
RTVSPost2010PropOp29
 70
     1
102
RTVSPost2010Prop30
280
     1
102
RTVSPost2010PropOp30
 70
     1
102
RTVSPost2010Prop31
280
     0
102
RTVSPost2010PropOp31
 70
     1
102
RTVSPost2010Prop32
280
     0
102
RTVSPost2010PropOp32
 70
     1
102
RTVSPost2010Prop33
280
     0
102
RTVSPost2010PropOp33
 70
     1
102
RTVSPost2010Prop34
280
     0
102
RTVSPost2010PropOp34
 70
     1
102
RTVSPost2010Prop35
280
     0
102
RTVSPost2010PropOp35
 70
     1
102
RTVSPost2010Prop36
280
     0
102
RTVSPost2010PropOp36
 70
     1
102
RTVSPost2010Prop37
 90
       50
102
RTVSPost2010PropOp37
 70
     1
102
RTVSPost2010Prop38
140
0.0
102
RTVSPost2010PropOp38
 70
     1
102
RTVSPost2010Prop39
140
1.0
102
RTVSPost2010PropOp39
 70
     1
102
RTVSPost2010Prop40
 90
        0
102
RTVSPost2010PropOp40
 70
     1
102
RTVSPost2010Prop41ColorIndex
 90
       18
102
RTVSPost2010Prop41ColorRGB
 90
        0
102
RTVSPost2010PropOp41
 70
     1
102
RTVSPost2010Prop42
 90
       50
102
RTVSPost2010PropOp42
 70
     1
102
RTVSPost2010Prop43
 90
        3
102
RTVSPost2010PropOp43
 70
     1
102
RTVSPost2010Prop44ColorIndex
 90
        5
102
RTVSPost2010Prop44ColorRGB
 90
      255
102
RTVSPost2010PropOp44
 70
     1
102
RTVSPost2010Prop45
280
     0
102
RTVSPost2010PropOp45
 70
     1
102
RTVSPost2010Prop46
 90
       50
102
RTVSPost2010PropOp46
 70
     1
102
RTVSPost2010Prop47
 90
       50
102
RTVSPost2010PropOp47
 70
     1
102
RTVSPost2010Prop48
 90
       50
102
RTVSPost2010PropOp48
 70
     1
102
RTVSPost2010Prop49
280
     0
102
RTVSPost2010PropOp49
 70
     1
102
RTVSPost2010Prop50
 90
       50
102
RTVSPost2010PropOp50
 70
     1
102
RTVSPost2010Prop51ColorIndex
 90
      256
102
RTVSPost2010Prop51ColorRGB
 90
-16777216
102
RTVSPost2010PropOp51
 70
     0
102
RTVSPost2010Prop52
140
1.0
102
RTVSPost2010PropOp52
 70
     0
102
RTVSPost2010Prop53
 90
        2
102
RTVSPost2010PropOp53
 70
     1
102
RTVSPost2010Prop54
  1
strokes_ogs.tif
102
RTVSPost2010PropOp54
 70
     1
102
RTVSPost2010Prop55
280
     0
102
RTVSPost2010PropOp55
 70
     1
102
RTVSPost2010Prop56
140
1.0
102
RTVSPost2010PropOp56
 70
     1
102
RTVSPost2010Prop57
140
1.0
102
RTVSPost2010PropOp57
 70
     1
102
RTVSPropertyOp0
 70
     1
102
RTVSPropertyOp1
 70
     1
102
RTVSPropertyOp2
 70
     1
102
RTVSPropertyOp3
 70
     1
102
RTVSPropertyOp4
 70
     1
102
RTVSPropertyOp5
 70
     1
102
RTVSPropertyOp6
 70
     1
102
RTVSPropertyOp7
 70
     1
102
RTVSPropertyOp8
 70
     1
102
RTVSPropertyOp9
 70
     1
102
RTVSPropertyOp10
 70
     1
102
RTVSPropertyOp11
 70
     1
102
RTVSPropertyOp12
 70
     1
102
RTVSPropertyOp13
 70
     1
102
RTVSPropertyOp14
 70
     1
102
RTVSPropertyOp15
 70
     1
102
RTVSPropertyOp16
 70
     1
102
RTVSPropertyOp17
 70
     1
102
RTVSPropertyOp18
 70
     1
102
RTVSPropertyOp19
 70
     1
102
RTVSPropertyOp20
 70
     1
102
RTVSPropertyOp21
 70
     1
102
RTVSPropertyOp22
 70
     1
102
RTVSPropertyOp23
 70
     1
102
RTVSPropertyOp24
 70
     1
102
RTVSPropertyOp25
 70
     1
102
RTVSPropertyOp26
 70
     1
102
RTVSPropertyOp27
 70
     1
102
RTVSPropertyOp28
 70
     1
102
RTVSPropertyOp29
 70
     1
102
RTVSPropertyOp30
 70
     1
102
RTVSPropertyOp31
 70
     1
102
RTVSPropertyOp32
 70
     1
102
RTVSPropertyOp33
 70
     1
102
RTVSPropertyOp34
 70
     1
102
RTVSPropertyOp35
 70
     1
102
RTVSPropertyOp36
 70
     1
102
RTVSPropertyOp37
 70
     1
102
RTVSPropertyOp38
 70
     1
102
RTVSPropertyOp39
 70
     1
102
RTVSPropertyOp40
 70
     1
102
RTVSPropertyOp41
 70
     1
102
RTVSPropertyOp42
 70
     1
102
RTVSPropertyOp43
 70
     1
102
RTVSPropertyOp44
 70
     1
102
RTVSPropertyOp45
 70
     1
102
RTVSPropertyOp46
 70
     1
102
RTVSPropertyOp47
 70
     1
102
RTVSPropertyOp48
 70
     1
102
RTVSPropertyOp49
 70
     1
102
RTVSPropertyOp50
 70
     1
102
RTVSPropertyOp51
 70
     0
102
RTVSPropertyOp52
 70
     0
102
RTVSPropertyOp53
 70
     1
102
RTVSPropertyOp54
 70
     1
102
RTVSPropertyOp55
 70
     1
102
RTVSPropertyOp56
 70
     1
102
RTVSPropertyOp57
 70
     1
102
RTVSPropertyOp58
 70
     1
102
RTVSPropertyOp59
 70
     1
102
RTVSPropertyOp60
 70
     1
102
RTVSPropertyOp61
 70
     1
102
RTVSPropertyOp62
 70
     1
  0
XRECORD
  5
14D2F
102
{ACAD_REACTORS
330
14D2E
102
}
330
14D2E
100
AcDbXrecord
280
     1
102
RTVSPost2010Prop28
280
     0
102
RTVSPost2010PropOp28
 70
     1
102
RTVSPost2010Prop29
280
     1
102
RTVSPost2010PropOp29
 70
     1
102
RTVSPost2010Prop30
280
     1
102
RTVSPost2010PropOp30
 70
     1
102
RTVSPost2010Prop31
280
     0
102
RTVSPost2010PropOp31
 70
     1
102
RTVSPost2010Prop32
280
     0
102
RTVSPost2010PropOp32
 70
     1
102
RTVSPost2010Prop33
280
     0
102
RTVSPost2010PropOp33
 70
     1
102
RTVSPost2010Prop34
280
     0
102
RTVSPost2010PropOp34
 70
     1
102
RTVSPost2010Prop35
280
     0
102
RTVSPost2010PropOp35
 70
     1
102
RTVSPost2010Prop36
280
     0
102
RTVSPost2010PropOp36
 70
     1
102
RTVSPost2010Prop37
 90
       50
102
RTVSPost2010PropOp37
 70
     1
102
RTVSPost2010Prop38
140
0.0
102
RTVSPost2010PropOp38
 70
     1
102
RTVSPost2010Prop39
140
1.0
102
RTVSPost2010PropOp39
 70
     1
102
RTVSPost2010Prop40
 90
        0
102
RTVSPost2010PropOp40
 70
     1
102
RTVSPost2010Prop41ColorIndex
 90
       18
102
RTVSPost2010Prop41ColorRGB
 90
        0
102
RTVSPost2010PropOp41
 70
     1
102
RTVSPost2010Prop42
 90
       50
102
RTVSPost2010PropOp42
 70
     1
102
RTVSPost2010Prop43
 90
        3
102
RTVSPost2010PropOp43
 70
     1
102
RTVSPost2010Prop44ColorIndex
 90
        5
102
RTVSPost2010Prop44ColorRGB
 90
      255
102
RTVSPost2010PropOp44
 70
     1
102
RTVSPost2010Prop45
280
     0
102
RTVSPost2010PropOp45
 70
     1
102
RTVSPost2010Prop46
 90
       50
102
RTVSPost2010PropOp46
 70
     1
102
RTVSPost2010Prop47
 90
       50
102
RTVSPost2010PropOp47
 70
     1
102
RTVSPost2010Prop48
 90
       50
102
RTVSPost2010PropOp48
 70
     1
102
RTVSPost2010Prop49
280
     0
102
RTVSPost2010PropOp49
 70
     1
102
RTVSPost2010Prop50
 90
       50
102
RTVSPost2010PropOp50
 70
     1
102
RTVSPost2010Prop51ColorIndex
 90
      256
102
RTVSPost2010Prop51ColorRGB
 90
-16777216
102
RTVSPost2010PropOp51
 70
     0
102
RTVSPost2010Prop52
140
1.0
102
RTVSPost2010PropOp52
 70
     0
102
RTVSPost2010Prop53
 90
        2
102
RTVSPost2010PropOp53
 70
     1
102
RTVSPost2010Prop54
  1
strokes_ogs.tif
102
RTVSPost2010PropOp54
 70
     1
102
RTVSPost2010Prop55
280
     0
102
RTVSPost2010PropOp55
 70
     1
102
RTVSPost2010Prop56
140
1.0
102
RTVSPost2010PropOp56
 70
     1
102
RTVSPost2010Prop57
140
1.0
102
RTVSPost2010PropOp57
 70
     1
102
RTVSPropertyOp0
 70
     1
102
RTVSPropertyOp1
 70
     1
102
RTVSPropertyOp2
 70
     1
102
RTVSPropertyOp3
 70
     1
102
RTVSPropertyOp4
 70
     1
102
RTVSPropertyOp5
 70
     1
102
RTVSPropertyOp6
 70
     1
102
RTVSPropertyOp7
 70
     1
102
RTVSPropertyOp8
 70
     1
102
RTVSPropertyOp9
 70
     1
102
RTVSPropertyOp10
 70
     1
102
RTVSPropertyOp11
 70
     1
102
RTVSPropertyOp12
 70
     1
102
RTVSPropertyOp13
 70
     1
102
RTVSPropertyOp14
 70
     1
102
RTVSPropertyOp15
 70
     1
102
RTVSPropertyOp16
 70
     1
102
RTVSPropertyOp17
 70
     1
102
RTVSPropertyOp18
 70
     1
102
RTVSPropertyOp19
 70
     1
102
RTVSPropertyOp20
 70
     1
102
RTVSPropertyOp21
 70
     1
102
RTVSPropertyOp22
 70
     1
102
RTVSPropertyOp23
 70
     1
102
RTVSPropertyOp24
 70
     1
102
RTVSPropertyOp25
 70
     1
102
RTVSPropertyOp26
 70
     1
102
RTVSPropertyOp27
 70
     1
102
RTVSPropertyOp28
 70
     1
102
RTVSPropertyOp29
 70
     1
102
RTVSPropertyOp30
 70
     1
102
RTVSPropertyOp31
 70
     1
102
RTVSPropertyOp32
 70
     1
102
RTVSPropertyOp33
 70
     1
102
RTVSPropertyOp34
 70
     1
102
RTVSPropertyOp35
 70
     1
102
RTVSPropertyOp36
 70
     1
102
RTVSPropertyOp37
 70
     1
102
RTVSPropertyOp38
 70
     1
102
RTVSPropertyOp39
 70
     1
102
RTVSPropertyOp40
 70
     1
102
RTVSPropertyOp41
 70
     1
102
RTVSPropertyOp42
 70
     1
102
RTVSPropertyOp43
 70
     1
102
RTVSPropertyOp44
 70
     1
102
RTVSPropertyOp45
 70
     1
102
RTVSPropertyOp46
 70
     1
102
RTVSPropertyOp47
 70
     1
102
RTVSPropertyOp48
 70
     1
102
RTVSPropertyOp49
 70
     1
102
RTVSPropertyOp50
 70
     1
102
RTVSPropertyOp51
 70
     0
102
RTVSPropertyOp52
 70
     0
102
RTVSPropertyOp53
 70
     1
102
RTVSPropertyOp54
 70
     1
102
RTVSPropertyOp55
 70
     1
102
RTVSPropertyOp56
 70
     1
102
RTVSPropertyOp57
 70
     1
102
RTVSPropertyOp58
 70
     1
102
RTVSPropertyOp59
 70
     1
102
RTVSPropertyOp60
 70
     1
102
RTVSPropertyOp61
 70
     1
102
RTVSPropertyOp62
 70
     1
  0
XRECORD
  5
14D37
102
{ACAD_REACTORS
330
14D36
102
}
330
14D36
100
AcDbXrecord
280
     1
102
RTVSPost2010Prop28
280
     0
102
RTVSPost2010PropOp28
 70
     1
102
RTVSPost2010Prop29
280
     1
102
RTVSPost2010PropOp29
 70
     1
102
RTVSPost2010Prop30
280
     1
102
RTVSPost2010PropOp30
 70
     1
102
RTVSPost2010Prop31
280
     0
102
RTVSPost2010PropOp31
 70
     1
102
RTVSPost2010Prop32
280
     0
102
RTVSPost2010PropOp32
 70
     1
102
RTVSPost2010Prop33
280
     0
102
RTVSPost2010PropOp33
 70
     1
102
RTVSPost2010Prop34
280
     0
102
RTVSPost2010PropOp34
 70
     1
102
RTVSPost2010Prop35
280
     0
102
RTVSPost2010PropOp35
 70
     1
102
RTVSPost2010Prop36
280
     0
102
RTVSPost2010PropOp36
 70
     1
102
RTVSPost2010Prop37
 90
       50
102
RTVSPost2010PropOp37
 70
     1
102
RTVSPost2010Prop38
140
0.0
102
RTVSPost2010PropOp38
 70
     1
102
RTVSPost2010Prop39
140
1.0
102
RTVSPost2010PropOp39
 70
     1
102
RTVSPost2010Prop40
 90
        0
102
RTVSPost2010PropOp40
 70
     1
102
RTVSPost2010Prop41ColorIndex
 90
       18
102
RTVSPost2010Prop41ColorRGB
 90
        0
102
RTVSPost2010PropOp41
 70
     1
102
RTVSPost2010Prop42
 90
       50
102
RTVSPost2010PropOp42
 70
     1
102
RTVSPost2010Prop43
 90
        3
102
RTVSPost2010PropOp43
 70
     1
102
RTVSPost2010Prop44ColorIndex
 90
        5
102
RTVSPost2010Prop44ColorRGB
 90
      255
102
RTVSPost2010PropOp44
 70
     1
102
RTVSPost2010Prop45
280
     0
102
RTVSPost2010PropOp45
 70
     1
102
RTVSPost2010Prop46
 90
       50
102
RTVSPost2010PropOp46
 70
     1
102
RTVSPost2010Prop47
 90
       50
102
RTVSPost2010PropOp47
 70
     1
102
RTVSPost2010Prop48
 90
       50
102
RTVSPost2010PropOp48
 70
     1
102
RTVSPost2010Prop49
280
     0
102
RTVSPost2010PropOp49
 70
     1
102
RTVSPost2010Prop50
 90
       50
102
RTVSPost2010PropOp50
 70
     1
102
RTVSPost2010Prop51ColorIndex
 90
      256
102
RTVSPost2010Prop51ColorRGB
 90
-16777216
102
RTVSPost2010PropOp51
 70
     0
102
RTVSPost2010Prop52
140
1.0
102
RTVSPost2010PropOp52
 70
     0
102
RTVSPost2010Prop53
 90
        2
102
RTVSPost2010PropOp53
 70
     1
102
RTVSPost2010Prop54
  1
strokes_ogs.tif
102
RTVSPost2010PropOp54
 70
     1
102
RTVSPost2010Prop55
280
     0
102
RTVSPost2010PropOp55
 70
     1
102
RTVSPost2010Prop56
140
1.0
102
RTVSPost2010PropOp56
 70
     1
102
RTVSPost2010Prop57
140
1.0
102
RTVSPost2010PropOp57
 70
     1
102
RTVSPropertyOp0
 70
     1
102
RTVSPropertyOp1
 70
     1
102
RTVSPropertyOp2
 70
     1
102
RTVSPropertyOp3
 70
     1
102
RTVSPropertyOp4
 70
     1
102
RTVSPropertyOp5
 70
     1
102
RTVSPropertyOp6
 70
     1
102
RTVSPropertyOp7
 70
     1
102
RTVSPropertyOp8
 70
     1
102
RTVSPropertyOp9
 70
     1
102
RTVSPropertyOp10
 70
     1
102
RTVSPropertyOp11
 70
     1
102
RTVSPropertyOp12
 70
     1
102
RTVSPropertyOp13
 70
     1
102
RTVSPropertyOp14
 70
     1
102
RTVSPropertyOp15
 70
     1
102
RTVSPropertyOp16
 70
     1
102
RTVSPropertyOp17
 70
     1
102
RTVSPropertyOp18
 70
     1
102
RTVSPropertyOp19
 70
     1
102
RTVSPropertyOp20
 70
     1
102
RTVSPropertyOp21
 70
     1
102
RTVSPropertyOp22
 70
     1
102
RTVSPropertyOp23
 70
     1
102
RTVSPropertyOp24
 70
     1
102
RTVSPropertyOp25
 70
     1
102
RTVSPropertyOp26
 70
     1
102
RTVSPropertyOp27
 70
     1
102
RTVSPropertyOp28
 70
     1
102
RTVSPropertyOp29
 70
     1
102
RTVSPropertyOp30
 70
     1
102
RTVSPropertyOp31
 70
     1
102
RTVSPropertyOp32
 70
     1
102
RTVSPropertyOp33
 70
     1
102
RTVSPropertyOp34
 70
     1
102
RTVSPropertyOp35
 70
     1
102
RTVSPropertyOp36
 70
     1
102
RTVSPropertyOp37
 70
     1
102
RTVSPropertyOp38
 70
     1
102
RTVSPropertyOp39
 70
     1
102
RTVSPropertyOp40
 70
     1
102
RTVSPropertyOp41
 70
     1
102
RTVSPropertyOp42
 70
     1
102
RTVSPropertyOp43
 70
     1
102
RTVSPropertyOp44
 70
     1
102
RTVSPropertyOp45
 70
     1
102
RTVSPropertyOp46
 70
     1
102
RTVSPropertyOp47
 70
     1
102
RTVSPropertyOp48
 70
     1
102
RTVSPropertyOp49
 70
     1
102
RTVSPropertyOp50
 70
     1
102
RTVSPropertyOp51
 70
     0
102
RTVSPropertyOp52
 70
     0
102
RTVSPropertyOp53
 70
     1
102
RTVSPropertyOp54
 70
     1
102
RTVSPropertyOp55
 70
     1
102
RTVSPropertyOp56
 70
     1
102
RTVSPropertyOp57
 70
     1
102
RTVSPropertyOp58
 70
     1
102
RTVSPropertyOp59
 70
     1
102
RTVSPropertyOp60
 70
     1
102
RTVSPropertyOp61
 70
     1
102
RTVSPropertyOp62
 70
     1
  0
XRECORD
  5
14D29
102
{ACAD_REACTORS
330
14D28
102
}
330
14D28
100
AcDbXrecord
280
     1
102
RTVSPost2010Prop28
280
     0
102
RTVSPost2010PropOp28
 70
     1
102
RTVSPost2010Prop29
280
     1
102
RTVSPost2010PropOp29
 70
     1
102
RTVSPost2010Prop30
280
     1
102
RTVSPost2010PropOp30
 70
     1
102
RTVSPost2010Prop31
280
     0
102
RTVSPost2010PropOp31
 70
     1
102
RTVSPost2010Prop32
280
     0
102
RTVSPost2010PropOp32
 70
     1
102
RTVSPost2010Prop33
280
     0
102
RTVSPost2010PropOp33
 70
     1
102
RTVSPost2010Prop34
280
     0
102
RTVSPost2010PropOp34
 70
     1
102
RTVSPost2010Prop35
280
     0
102
RTVSPost2010PropOp35
 70
     1
102
RTVSPost2010Prop36
280
     0
102
RTVSPost2010PropOp36
 70
     1
102
RTVSPost2010Prop37
 90
       50
102
RTVSPost2010PropOp37
 70
     1
102
RTVSPost2010Prop38
140
0.0
102
RTVSPost2010PropOp38
 70
     1
102
RTVSPost2010Prop39
140
1.0
102
RTVSPost2010PropOp39
 70
     1
102
RTVSPost2010Prop40
 90
        0
102
RTVSPost2010PropOp40
 70
     1
102
RTVSPost2010Prop41ColorIndex
 90
       18
102
RTVSPost2010Prop41ColorRGB
 90
        0
102
RTVSPost2010PropOp41
 70
     1
102
RTVSPost2010Prop42
 90
       50
102
RTVSPost2010PropOp42
 70
     1
102
RTVSPost2010Prop43
 90
        3
102
RTVSPost2010PropOp43
 70
     1
102
RTVSPost2010Prop44ColorIndex
 90
        5
102
RTVSPost2010Prop44ColorRGB
 90
      255
102
RTVSPost2010PropOp44
 70
     1
102
RTVSPost2010Prop45
280
     0
102
RTVSPost2010PropOp45
 70
     1
102
RTVSPost2010Prop46
 90
       50
102
RTVSPost2010PropOp46
 70
     1
102
RTVSPost2010Prop47
 90
       50
102
RTVSPost2010PropOp47
 70
     1
102
RTVSPost2010Prop48
 90
       50
102
RTVSPost2010PropOp48
 70
     1
102
RTVSPost2010Prop49
280
     0
102
RTVSPost2010PropOp49
 70
     1
102
RTVSPost2010Prop50
 90
       50
102
RTVSPost2010PropOp50
 70
     1
102
RTVSPost2010Prop51ColorIndex
 90
      256
102
RTVSPost2010Prop51ColorRGB
 90
-16777216
102
RTVSPost2010PropOp51
 70
     0
102
RTVSPost2010Prop52
140
1.0
102
RTVSPost2010PropOp52
 70
     0
102
RTVSPost2010Prop53
 90
        2
102
RTVSPost2010PropOp53
 70
     1
102
RTVSPost2010Prop54
  1
strokes_ogs.tif
102
RTVSPost2010PropOp54
 70
     1
102
RTVSPost2010Prop55
280
     0
102
RTVSPost2010PropOp55
 70
     1
102
RTVSPost2010Prop56
140
1.0
102
RTVSPost2010PropOp56
 70
     1
102
RTVSPost2010Prop57
140
1.0
102
RTVSPost2010PropOp57
 70
     1
102
RTVSPropertyOp0
 70
     1
102
RTVSPropertyOp1
 70
     1
102
RTVSPropertyOp2
 70
     1
102
RTVSPropertyOp3
 70
     1
102
RTVSPropertyOp4
 70
     1
102
RTVSPropertyOp5
 70
     1
102
RTVSPropertyOp6
 70
     1
102
RTVSPropertyOp7
 70
     1
102
RTVSPropertyOp8
 70
     1
102
RTVSPropertyOp9
 70
     1
102
RTVSPropertyOp10
 70
     1
102
RTVSPropertyOp11
 70
     1
102
RTVSPropertyOp12
 70
     1
102
RTVSPropertyOp13
 70
     1
102
RTVSPropertyOp14
 70
     1
102
RTVSPropertyOp15
 70
     1
102
RTVSPropertyOp16
 70
     1
102
RTVSPropertyOp17
 70
     1
102
RTVSPropertyOp18
 70
     1
102
RTVSPropertyOp19
 70
     1
102
RTVSPropertyOp20
 70
     1
102
RTVSPropertyOp21
 70
     1
102
RTVSPropertyOp22
 70
     1
102
RTVSPropertyOp23
 70
     1
102
RTVSPropertyOp24
 70
     1
102
RTVSPropertyOp25
 70
     1
102
RTVSPropertyOp26
 70
     1
102
RTVSPropertyOp27
 70
     1
102
RTVSPropertyOp28
 70
     1
102
RTVSPropertyOp29
 70
     1
102
RTVSPropertyOp30
 70
     1
102
RTVSPropertyOp31
 70
     1
102
RTVSPropertyOp32
 70
     1
102
RTVSPropertyOp33
 70
     1
102
RTVSPropertyOp34
 70
     1
102
RTVSPropertyOp35
 70
     1
102
RTVSPropertyOp36
 70
     1
102
RTVSPropertyOp37
 70
     1
102
RTVSPropertyOp38
 70
     1
102
RTVSPropertyOp39
 70
     1
102
RTVSPropertyOp40
 70
     1
102
RTVSPropertyOp41
 70
     1
102
RTVSPropertyOp42
 70
     1
102
RTVSPropertyOp43
 70
     1
102
RTVSPropertyOp44
 70
     1
102
RTVSPropertyOp45
 70
     1
102
RTVSPropertyOp46
 70
     1
102
RTVSPropertyOp47
 70
     1
102
RTVSPropertyOp48
 70
     1
102
RTVSPropertyOp49
 70
     1
102
RTVSPropertyOp50
 70
     1
102
RTVSPropertyOp51
 70
     0
102
RTVSPropertyOp52
 70
     0
102
RTVSPropertyOp53
 70
     1
102
RTVSPropertyOp54
 70
     1
102
RTVSPropertyOp55
 70
     1
102
RTVSPropertyOp56
 70
     1
102
RTVSPropertyOp57
 70
     1
102
RTVSPropertyOp58
 70
     1
102
RTVSPropertyOp59
 70
     1
102
RTVSPropertyOp60
 70
     1
102
RTVSPropertyOp61
 70
     1
102
RTVSPropertyOp62
 70
     1
  0
XRECORD
  5
14D2D
102
{ACAD_REACTORS
330
14D2C
102
}
330
14D2C
100
AcDbXrecord
280
     1
102
RTVSPost2010Prop28
280
     0
102
RTVSPost2010PropOp28
 70
     1
102
RTVSPost2010Prop29
280
     1
102
RTVSPost2010PropOp29
 70
     1
102
RTVSPost2010Prop30
280
     1
102
RTVSPost2010PropOp30
 70
     1
102
RTVSPost2010Prop31
280
     0
102
RTVSPost2010PropOp31
 70
     1
102
RTVSPost2010Prop32
280
     0
102
RTVSPost2010PropOp32
 70
     1
102
RTVSPost2010Prop33
280
     0
102
RTVSPost2010PropOp33
 70
     1
102
RTVSPost2010Prop34
280
     0
102
RTVSPost2010PropOp34
 70
     1
102
RTVSPost2010Prop35
280
     0
102
RTVSPost2010PropOp35
 70
     1
102
RTVSPost2010Prop36
280
     0
102
RTVSPost2010PropOp36
 70
     1
102
RTVSPost2010Prop37
 90
       50
102
RTVSPost2010PropOp37
 70
     1
102
RTVSPost2010Prop38
140
0.0
102
RTVSPost2010PropOp38
 70
     1
102
RTVSPost2010Prop39
140
1.0
102
RTVSPost2010PropOp39
 70
     1
102
RTVSPost2010Prop40
 90
        0
102
RTVSPost2010PropOp40
 70
     1
102
RTVSPost2010Prop41ColorIndex
 90
       18
102
RTVSPost2010Prop41ColorRGB
 90
        0
102
RTVSPost2010PropOp41
 70
     1
102
RTVSPost2010Prop42
 90
       50
102
RTVSPost2010PropOp42
 70
     1
102
RTVSPost2010Prop43
 90
        3
102
RTVSPost2010PropOp43
 70
     1
102
RTVSPost2010Prop44ColorIndex
 90
        5
102
RTVSPost2010Prop44ColorRGB
 90
      255
102
RTVSPost2010PropOp44
 70
     1
102
RTVSPost2010Prop45
280
     0
102
RTVSPost2010PropOp45
 70
     1
102
RTVSPost2010Prop46
 90
       50
102
RTVSPost2010PropOp46
 70
     1
102
RTVSPost2010Prop47
 90
       50
102
RTVSPost2010PropOp47
 70
     1
102
RTVSPost2010Prop48
 90
       50
102
RTVSPost2010PropOp48
 70
     1
102
RTVSPost2010Prop49
280
     0
102
RTVSPost2010PropOp49
 70
     1
102
RTVSPost2010Prop50
 90
       50
102
RTVSPost2010PropOp50
 70
     1
102
RTVSPost2010Prop51ColorIndex
 90
      256
102
RTVSPost2010Prop51ColorRGB
 90
-16777216
102
RTVSPost2010PropOp51
 70
     0
102
RTVSPost2010Prop52
140
1.0
102
RTVSPost2010PropOp52
 70
     0
102
RTVSPost2010Prop53
 90
        2
102
RTVSPost2010PropOp53
 70
     1
102
RTVSPost2010Prop54
  1
strokes_ogs.tif
102
RTVSPost2010PropOp54
 70
     1
102
RTVSPost2010Prop55
280
     0
102
RTVSPost2010PropOp55
 70
     1
102
RTVSPost2010Prop56
140
1.0
102
RTVSPost2010PropOp56
 70
     1
102
RTVSPost2010Prop57
140
1.0
102
RTVSPost2010PropOp57
 70
     1
102
RTVSPropertyOp0
 70
     1
102
RTVSPropertyOp1
 70
     1
102
RTVSPropertyOp2
 70
     1
102
RTVSPropertyOp3
 70
     1
102
RTVSPropertyOp4
 70
     1
102
RTVSPropertyOp5
 70
     1
102
RTVSPropertyOp6
 70
     1
102
RTVSPropertyOp7
 70
     1
102
RTVSPropertyOp8
 70
     1
102
RTVSPropertyOp9
 70
     1
102
RTVSPropertyOp10
 70
     1
102
RTVSPropertyOp11
 70
     1
102
RTVSPropertyOp12
 70
     1
102
RTVSPropertyOp13
 70
     1
102
RTVSPropertyOp14
 70
     1
102
RTVSPropertyOp15
 70
     1
102
RTVSPropertyOp16
 70
     1
102
RTVSPropertyOp17
 70
     1
102
RTVSPropertyOp18
 70
     1
102
RTVSPropertyOp19
 70
     1
102
RTVSPropertyOp20
 70
     1
102
RTVSPropertyOp21
 70
     1
102
RTVSPropertyOp22
 70
     1
102
RTVSPropertyOp23
 70
     1
102
RTVSPropertyOp24
 70
     1
102
RTVSPropertyOp25
 70
     1
102
RTVSPropertyOp26
 70
     1
102
RTVSPropertyOp27
 70
     1
102
RTVSPropertyOp28
 70
     1
102
RTVSPropertyOp29
 70
     1
102
RTVSPropertyOp30
 70
     1
102
RTVSPropertyOp31
 70
     1
102
RTVSPropertyOp32
 70
     1
102
RTVSPropertyOp33
 70
     1
102
RTVSPropertyOp34
 70
     1
102
RTVSPropertyOp35
 70
     1
102
RTVSPropertyOp36
 70
     1
102
RTVSPropertyOp37
 70
     1
102
RTVSPropertyOp38
 70
     1
102
RTVSPropertyOp39
 70
     1
102
RTVSPropertyOp40
 70
     1
102
RTVSPropertyOp41
 70
     1
102
RTVSPropertyOp42
 70
     1
102
RTVSPropertyOp43
 70
     1
102
RTVSPropertyOp44
 70
     1
102
RTVSPropertyOp45
 70
     1
102
RTVSPropertyOp46
 70
     1
102
RTVSPropertyOp47
 70
     1
102
RTVSPropertyOp48
 70
     1
102
RTVSPropertyOp49
 70
     1
102
RTVSPropertyOp50
 70
     1
102
RTVSPropertyOp51
 70
     0
102
RTVSPropertyOp52
 70
     0
102
RTVSPropertyOp53
 70
     1
102
RTVSPropertyOp54
 70
     1
102
RTVSPropertyOp55
 70
     1
102
RTVSPropertyOp56
 70
     1
102
RTVSPropertyOp57
 70
     1
102
RTVSPropertyOp58
 70
     1
102
RTVSPropertyOp59
 70
     1
102
RTVSPropertyOp60
 70
     1
102
RTVSPropertyOp61
 70
     1
102
RTVSPropertyOp62
 70
     1
  0
XRECORD
  5
14D50
102
{ACAD_REACTORS
330
14D4F
102
}
330
14D4F
100
AcDbXrecord
280
     1
102
RTVSPost2010Prop28
280
     0
102
RTVSPost2010PropOp28
 70
     0
102
RTVSPost2010Prop29
280
     1
102
RTVSPost2010PropOp29
 70
     0
102
RTVSPost2010Prop30
280
     1
102
RTVSPost2010PropOp30
 70
     0
102
RTVSPost2010Prop31
280
     0
102
RTVSPost2010PropOp31
 70
     0
102
RTVSPost2010Prop32
280
     0
102
RTVSPost2010PropOp32
 70
     0
102
RTVSPost2010Prop33
280
     0
102
RTVSPost2010PropOp33
 70
     0
102
RTVSPost2010Prop34
280
     0
102
RTVSPost2010PropOp34
 70
     0
102
RTVSPost2010Prop35
280
     0
102
RTVSPost2010PropOp35
 70
     0
102
RTVSPost2010Prop36
280
     0
102
RTVSPost2010PropOp36
 70
     0
102
RTVSPost2010Prop37
 90
       50
102
RTVSPost2010PropOp37
 70
     0
102
RTVSPost2010Prop38
140
0.0
102
RTVSPost2010PropOp38
 70
     0
102
RTVSPost2010Prop39
140
1.0
102
RTVSPost2010PropOp39
 70
     0
102
RTVSPost2010Prop40
 90
        0
102
RTVSPost2010PropOp40
 70
     0
102
RTVSPost2010Prop41ColorIndex
 90
       18
102
RTVSPost2010Prop41ColorRGB
 90
        0
102
RTVSPost2010PropOp41
 70
     0
102
RTVSPost2010Prop42
 90
       50
102
RTVSPost2010PropOp42
 70
     0
102
RTVSPost2010Prop43
 90
        3
102
RTVSPost2010PropOp43
 70
     0
102
RTVSPost2010Prop44ColorIndex
 90
        5
102
RTVSPost2010Prop44ColorRGB
 90
      255
102
RTVSPost2010PropOp44
 70
     0
102
RTVSPost2010Prop45
280
     0
102
RTVSPost2010PropOp45
 70
     0
102
RTVSPost2010Prop46
 90
       50
102
RTVSPost2010PropOp46
 70
     0
102
RTVSPost2010Prop47
 90
       50
102
RTVSPost2010PropOp47
 70
     0
102
RTVSPost2010Prop48
 90
       50
102
RTVSPost2010PropOp48
 70
     0
102
RTVSPost2010Prop49
280
     0
102
RTVSPost2010PropOp49
 70
     0
102
RTVSPost2010Prop50
 90
       50
102
RTVSPost2010PropOp50
 70
     0
102
RTVSPost2010Prop51ColorIndex
 90
      256
102
RTVSPost2010Prop51ColorRGB
 90
-16777216
102
RTVSPost2010PropOp51
 70
     0
102
RTVSPost2010Prop52
140
1.0
102
RTVSPost2010PropOp52
 70
     0
102
RTVSPost2010Prop53
 90
        2
102
RTVSPost2010PropOp53
 70
     0
102
RTVSPost2010Prop54
  1
strokes_ogs.tif
102
RTVSPost2010PropOp54
 70
     0
102
RTVSPost2010Prop55
280
     0
102
RTVSPost2010PropOp55
 70
     0
102
RTVSPost2010Prop56
140
1.0
102
RTVSPost2010PropOp56
 70
     0
102
RTVSPost2010Prop57
140
1.0
102
RTVSPost2010PropOp57
 70
     0
102
RTVSPropertyOp0
 70
     0
102
RTVSPropertyOp1
 70
     0
102
RTVSPropertyOp2
 70
     0
102
RTVSPropertyOp3
 70
     0
102
RTVSPropertyOp4
 70
     0
102
RTVSPropertyOp5
 70
     0
102
RTVSPropertyOp6
 70
     0
102
RTVSPropertyOp7
 70
     0
102
RTVSPropertyOp8
 70
     0
102
RTVSPropertyOp9
 70
     0
102
RTVSPropertyOp10
 70
     0
102
RTVSPropertyOp11
 70
     0
102
RTVSPropertyOp12
 70
     0
102
RTVSPropertyOp13
 70
     0
102
RTVSPropertyOp14
 70
     2
102
RTVSPropertyOp15
 70
     0
102
RTVSPropertyOp16
 70
     0
102
RTVSPropertyOp17
 70
     0
102
RTVSPropertyOp18
 70
     0
102
RTVSPropertyOp19
 70
     0
102
RTVSPropertyOp20
 70
     0
102
RTVSPropertyOp21
 70
     0
102
RTVSPropertyOp22
 70
     0
102
RTVSPropertyOp23
 70
     0
102
RTVSPropertyOp24
 70
     0
102
RTVSPropertyOp25
 70
     0
102
RTVSPropertyOp26
 70
     0
102
RTVSPropertyOp27
 70
     0
102
RTVSPropertyOp28
 70
     0
102
RTVSPropertyOp29
 70
     0
102
RTVSPropertyOp30
 70
     0
102
RTVSPropertyOp31
 70
     0
102
RTVSPropertyOp32
 70
     0
102
RTVSPropertyOp33
 70
     0
102
RTVSPropertyOp34
 70
     0
102
RTVSPropertyOp35
 70
     0
102
RTVSPropertyOp36
 70
     0
102
RTVSPropertyOp37
 70
     0
102
RTVSPropertyOp38
 70
     0
102
RTVSPropertyOp39
 70
     0
102
RTVSPropertyOp40
 70
     0
102
RTVSPropertyOp41
 70
     0
102
RTVSPropertyOp42
 70
     0
102
RTVSPropertyOp43
 70
     0
102
RTVSPropertyOp44
 70
     0
102
RTVSPropertyOp45
 70
     0
102
RTVSPropertyOp46
 70
     0
102
RTVSPropertyOp47
 70
     0
102
RTVSPropertyOp48
 70
     0
102
RTVSPropertyOp49
 70
     0
102
RTVSPropertyOp50
 70
     0
102
RTVSPropertyOp51
 70
     0
102
RTVSPropertyOp52
 70
     0
102
RTVSPropertyOp53
 70
     0
102
RTVSPropertyOp54
 70
     0
102
RTVSPropertyOp55
 70
     0
102
RTVSPropertyOp56
 70
     0
102
RTVSPropertyOp57
 70
     0
102
RTVSPropertyOp58
 70
     1
102
RTVSPropertyOp59
 70
     1
102
RTVSPropertyOp60
 70
     1
102
RTVSPropertyOp61
 70
     1
102
RTVSPropertyOp62
 70
     1
  0
XRECORD
  5
14D35
102
{ACAD_REACTORS
330
14D34
102
}
330
14D34
100
AcDbXrecord
280
     1
102
RTVSPost2010Prop28
280
     0
102
RTVSPost2010PropOp28
 70
     1
102
RTVSPost2010Prop29
280
     1
102
RTVSPost2010PropOp29
 70
     1
102
RTVSPost2010Prop30
280
     1
102
RTVSPost2010PropOp30
 70
     1
102
RTVSPost2010Prop31
280
     0
102
RTVSPost2010PropOp31
 70
     1
102
RTVSPost2010Prop32
280
     0
102
RTVSPost2010PropOp32
 70
     1
102
RTVSPost2010Prop33
280
     0
102
RTVSPost2010PropOp33
 70
     1
102
RTVSPost2010Prop34
280
     0
102
RTVSPost2010PropOp34
 70
     1
102
RTVSPost2010Prop35
280
     0
102
RTVSPost2010PropOp35
 70
     1
102
RTVSPost2010Prop36
280
     0
102
RTVSPost2010PropOp36
 70
     1
102
RTVSPost2010Prop37
 90
       50
102
RTVSPost2010PropOp37
 70
     1
102
RTVSPost2010Prop38
140
0.0
102
RTVSPost2010PropOp38
 70
     1
102
RTVSPost2010Prop39
140
1.0
102
RTVSPost2010PropOp39
 70
     1
102
RTVSPost2010Prop40
 90
        0
102
RTVSPost2010PropOp40
 70
     1
102
RTVSPost2010Prop41ColorIndex
 90
       18
102
RTVSPost2010Prop41ColorRGB
 90
        0
102
RTVSPost2010PropOp41
 70
     1
102
RTVSPost2010Prop42
 90
       50
102
RTVSPost2010PropOp42
 70
     1
102
RTVSPost2010Prop43
 90
        3
102
RTVSPost2010PropOp43
 70
     1
102
RTVSPost2010Prop44ColorIndex
 90
        5
102
RTVSPost2010Prop44ColorRGB
 90
      255
102
RTVSPost2010PropOp44
 70
     1
102
RTVSPost2010Prop45
280
     0
102
RTVSPost2010PropOp45
 70
     1
102
RTVSPost2010Prop46
 90
       50
102
RTVSPost2010PropOp46
 70
     1
102
RTVSPost2010Prop47
 90
       50
102
RTVSPost2010PropOp47
 70
     1
102
RTVSPost2010Prop48
 90
       50
102
RTVSPost2010PropOp48
 70
     1
102
RTVSPost2010Prop49
280
     0
102
RTVSPost2010PropOp49
 70
     1
102
RTVSPost2010Prop50
 90
       50
102
RTVSPost2010PropOp50
 70
     1
102
RTVSPost2010Prop51ColorIndex
 90
      256
102
RTVSPost2010Prop51ColorRGB
 90
-16777216
102
RTVSPost2010PropOp51
 70
     0
102
RTVSPost2010Prop52
140
1.0
102
RTVSPost2010PropOp52
 70
     0
102
RTVSPost2010Prop53
 90
        2
102
RTVSPost2010PropOp53
 70
     1
102
RTVSPost2010Prop54
  1
strokes_ogs.tif
102
RTVSPost2010PropOp54
 70
     1
102
RTVSPost2010Prop55
280
     0
102
RTVSPost2010PropOp55
 70
     1
102
RTVSPost2010Prop56
140
1.0
102
RTVSPost2010PropOp56
 70
     1
102
RTVSPost2010Prop57
140
1.0
102
RTVSPost2010PropOp57
 70
     1
102
RTVSPropertyOp0
 70
     1
102
RTVSPropertyOp1
 70
     1
102
RTVSPropertyOp2
 70
     1
102
RTVSPropertyOp3
 70
     1
102
RTVSPropertyOp4
 70
     1
102
RTVSPropertyOp5
 70
     1
102
RTVSPropertyOp6
 70
     1
102
RTVSPropertyOp7
 70
     1
102
RTVSPropertyOp8
 70
     1
102
RTVSPropertyOp9
 70
     1
102
RTVSPropertyOp10
 70
     1
102
RTVSPropertyOp11
 70
     1
102
RTVSPropertyOp12
 70
     1
102
RTVSPropertyOp13
 70
     1
102
RTVSPropertyOp14
 70
     1
102
RTVSPropertyOp15
 70
     1
102
RTVSPropertyOp16
 70
     1
102
RTVSPropertyOp17
 70
     1
102
RTVSPropertyOp18
 70
     1
102
RTVSPropertyOp19
 70
     1
102
RTVSPropertyOp20
 70
     1
102
RTVSPropertyOp21
 70
     1
102
RTVSPropertyOp22
 70
     1
102
RTVSPropertyOp23
 70
     1
102
RTVSPropertyOp24
 70
     1
102
RTVSPropertyOp25
 70
     1
102
RTVSPropertyOp26
 70
     1
102
RTVSPropertyOp27
 70
     1
102
RTVSPropertyOp28
 70
     1
102
RTVSPropertyOp29
 70
     1
102
RTVSPropertyOp30
 70
     1
102
RTVSPropertyOp31
 70
     1
102
RTVSPropertyOp32
 70
     1
102
RTVSPropertyOp33
 70
     1
102
RTVSPropertyOp34
 70
     1
102
RTVSPropertyOp35
 70
     1
102
RTVSPropertyOp36
 70
     1
102
RTVSPropertyOp37
 70
     1
102
RTVSPropertyOp38
 70
     1
102
RTVSPropertyOp39
 70
     1
102
RTVSPropertyOp40
 70
     1
102
RTVSPropertyOp41
 70
     1
102
RTVSPropertyOp42
 70
     1
102
RTVSPropertyOp43
 70
     1
102
RTVSPropertyOp44
 70
     1
102
RTVSPropertyOp45
 70
     1
102
RTVSPropertyOp46
 70
     1
102
RTVSPropertyOp47
 70
     1
102
RTVSPropertyOp48
 70
     1
102
RTVSPropertyOp49
 70
     1
102
RTVSPropertyOp50
 70
     1
102
RTVSPropertyOp51
 70
     0
102
RTVSPropertyOp52
 70
     0
102
RTVSPropertyOp53
 70
     1
102
RTVSPropertyOp54
 70
     1
102
RTVSPropertyOp55
 70
     1
102
RTVSPropertyOp56
 70
     1
102
RTVSPropertyOp57
 70
     1
102
RTVSPropertyOp58
 70
     1
102
RTVSPropertyOp59
 70
     1
102
RTVSPropertyOp60
 70
     1
102
RTVSPropertyOp61
 70
     1
102
RTVSPropertyOp62
 70
     1
  0
XRECORD
  5
14D19
102
{ACAD_REACTORS
330
14D18
102
}
330
14D18
100
AcDbXrecord
280
     1
102
RTVSPost2010Prop28
280
     0
102
RTVSPost2010PropOp28
 70
     1
102
RTVSPost2010Prop29
280
     1
102
RTVSPost2010PropOp29
 70
     1
102
RTVSPost2010Prop30
280
     1
102
RTVSPost2010PropOp30
 70
     1
102
RTVSPost2010Prop31
280
     0
102
RTVSPost2010PropOp31
 70
     1
102
RTVSPost2010Prop32
280
     0
102
RTVSPost2010PropOp32
 70
     1
102
RTVSPost2010Prop33
280
     0
102
RTVSPost2010PropOp33
 70
     1
102
RTVSPost2010Prop34
280
     0
102
RTVSPost2010PropOp34
 70
     1
102
RTVSPost2010Prop35
280
     0
102
RTVSPost2010PropOp35
 70
     1
102
RTVSPost2010Prop36
280
     0
102
RTVSPost2010PropOp36
 70
     1
102
RTVSPost2010Prop37
 90
       50
102
RTVSPost2010PropOp37
 70
     1
102
RTVSPost2010Prop38
140
0.0
102
RTVSPost2010PropOp38
 70
     1
102
RTVSPost2010Prop39
140
1.0
102
RTVSPost2010PropOp39
 70
     1
102
RTVSPost2010Prop40
 90
        0
102
RTVSPost2010PropOp40
 70
     1
102
RTVSPost2010Prop41ColorIndex
 90
       18
102
RTVSPost2010Prop41ColorRGB
 90
        0
102
RTVSPost2010PropOp41
 70
     1
102
RTVSPost2010Prop42
 90
       50
102
RTVSPost2010PropOp42
 70
     1
102
RTVSPost2010Prop43
 90
        3
102
RTVSPost2010PropOp43
 70
     1
102
RTVSPost2010Prop44ColorIndex
 90
        5
102
RTVSPost2010Prop44ColorRGB
 90
      255
102
RTVSPost2010PropOp44
 70
     1
102
RTVSPost2010Prop45
280
     0
102
RTVSPost2010PropOp45
 70
     1
102
RTVSPost2010Prop46
 90
       50
102
RTVSPost2010PropOp46
 70
     1
102
RTVSPost2010Prop47
 90
       50
102
RTVSPost2010PropOp47
 70
     1
102
RTVSPost2010Prop48
 90
       50
102
RTVSPost2010PropOp48
 70
     1
102
RTVSPost2010Prop49
280
     0
102
RTVSPost2010PropOp49
 70
     1
102
RTVSPost2010Prop50
 90
       50
102
RTVSPost2010PropOp50
 70
     1
102
RTVSPost2010Prop51ColorIndex
 90
      256
102
RTVSPost2010Prop51ColorRGB
 90
-16777216
102
RTVSPost2010PropOp51
 70
     0
102
RTVSPost2010Prop52
140
1.0
102
RTVSPost2010PropOp52
 70
     0
102
RTVSPost2010Prop53
 90
        2
102
RTVSPost2010PropOp53
 70
     1
102
RTVSPost2010Prop54
  1
strokes_ogs.tif
102
RTVSPost2010PropOp54
 70
     1
102
RTVSPost2010Prop55
280
     0
102
RTVSPost2010PropOp55
 70
     1
102
RTVSPost2010Prop56
140
1.0
102
RTVSPost2010PropOp56
 70
     1
102
RTVSPost2010Prop57
140
1.0
102
RTVSPost2010PropOp57
 70
     1
102
RTVSPropertyOp0
 70
     1
102
RTVSPropertyOp1
 70
     1
102
RTVSPropertyOp2
 70
     1
102
RTVSPropertyOp3
 70
     1
102
RTVSPropertyOp4
 70
     1
102
RTVSPropertyOp5
 70
     1
102
RTVSPropertyOp6
 70
     1
102
RTVSPropertyOp7
 70
     1
102
RTVSPropertyOp8
 70
     1
102
RTVSPropertyOp9
 70
     1
102
RTVSPropertyOp10
 70
     1
102
RTVSPropertyOp11
 70
     1
102
RTVSPropertyOp12
 70
     1
102
RTVSPropertyOp13
 70
     1
102
RTVSPropertyOp14
 70
     1
102
RTVSPropertyOp15
 70
     1
102
RTVSPropertyOp16
 70
     1
102
RTVSPropertyOp17
 70
     1
102
RTVSPropertyOp18
 70
     1
102
RTVSPropertyOp19
 70
     1
102
RTVSPropertyOp20
 70
     1
102
RTVSPropertyOp21
 70
     1
102
RTVSPropertyOp22
 70
     1
102
RTVSPropertyOp23
 70
     1
102
RTVSPropertyOp24
 70
     1
102
RTVSPropertyOp25
 70
     1
102
RTVSPropertyOp26
 70
     1
102
RTVSPropertyOp27
 70
     1
102
RTVSPropertyOp28
 70
     1
102
RTVSPropertyOp29
 70
     1
102
RTVSPropertyOp30
 70
     1
102
RTVSPropertyOp31
 70
     1
102
RTVSPropertyOp32
 70
     1
102
RTVSPropertyOp33
 70
     1
102
RTVSPropertyOp34
 70
     1
102
RTVSPropertyOp35
 70
     1
102
RTVSPropertyOp36
 70
     1
102
RTVSPropertyOp37
 70
     1
102
RTVSPropertyOp38
 70
     1
102
RTVSPropertyOp39
 70
     1
102
RTVSPropertyOp40
 70
     1
102
RTVSPropertyOp41
 70
     1
102
RTVSPropertyOp42
 70
     1
102
RTVSPropertyOp43
 70
     1
102
RTVSPropertyOp44
 70
     1
102
RTVSPropertyOp45
 70
     1
102
RTVSPropertyOp46
 70
     1
102
RTVSPropertyOp47
 70
     1
102
RTVSPropertyOp48
 70
     1
102
RTVSPropertyOp49
 70
     1
102
RTVSPropertyOp50
 70
     1
102
RTVSPropertyOp51
 70
     0
102
RTVSPropertyOp52
 70
     0
102
RTVSPropertyOp53
 70
     1
102
RTVSPropertyOp54
 70
     1
102
RTVSPropertyOp55
 70
     1
102
RTVSPropertyOp56
 70
     1
102
RTVSPropertyOp57
 70
     1
102
RTVSPropertyOp58
 70
     1
102
RTVSPropertyOp59
 70
     1
102
RTVSPropertyOp60
 70
     1
102
RTVSPropertyOp61
 70
     1
102
RTVSPropertyOp62
 70
     1
  0
XRECORD
  5
14D1B
102
{ACAD_REACTORS
330
14D1A
102
}
330
14D1A
100
AcDbXrecord
280
     1
102
RTVSPost2010Prop28
280
     0
102
RTVSPost2010PropOp28
 70
     1
102
RTVSPost2010Prop29
280
     1
102
RTVSPost2010PropOp29
 70
     1
102
RTVSPost2010Prop30
280
     1
102
RTVSPost2010PropOp30
 70
     1
102
RTVSPost2010Prop31
280
     0
102
RTVSPost2010PropOp31
 70
     1
102
RTVSPost2010Prop32
280
     0
102
RTVSPost2010PropOp32
 70
     1
102
RTVSPost2010Prop33
280
     0
102
RTVSPost2010PropOp33
 70
     1
102
RTVSPost2010Prop34
280
     0
102
RTVSPost2010PropOp34
 70
     1
102
RTVSPost2010Prop35
280
     0
102
RTVSPost2010PropOp35
 70
     1
102
RTVSPost2010Prop36
280
     0
102
RTVSPost2010PropOp36
 70
     1
102
RTVSPost2010Prop37
 90
       50
102
RTVSPost2010PropOp37
 70
     1
102
RTVSPost2010Prop38
140
0.0
102
RTVSPost2010PropOp38
 70
     1
102
RTVSPost2010Prop39
140
1.0
102
RTVSPost2010PropOp39
 70
     1
102
RTVSPost2010Prop40
 90
        0
102
RTVSPost2010PropOp40
 70
     1
102
RTVSPost2010Prop41ColorIndex
 90
       18
102
RTVSPost2010Prop41ColorRGB
 90
        0
102
RTVSPost2010PropOp41
 70
     1
102
RTVSPost2010Prop42
 90
       50
102
RTVSPost2010PropOp42
 70
     1
102
RTVSPost2010Prop43
 90
        3
102
RTVSPost2010PropOp43
 70
     1
102
RTVSPost2010Prop44ColorIndex
 90
        5
102
RTVSPost2010Prop44ColorRGB
 90
      255
102
RTVSPost2010PropOp44
 70
     1
102
RTVSPost2010Prop45
280
     0
102
RTVSPost2010PropOp45
 70
     1
102
RTVSPost2010Prop46
 90
       50
102
RTVSPost2010PropOp46
 70
     1
102
RTVSPost2010Prop47
 90
       50
102
RTVSPost2010PropOp47
 70
     1
102
RTVSPost2010Prop48
 90
       50
102
RTVSPost2010PropOp48
 70
     1
102
RTVSPost2010Prop49
280
     0
102
RTVSPost2010PropOp49
 70
     1
102
RTVSPost2010Prop50
 90
       50
102
RTVSPost2010PropOp50
 70
     1
102
RTVSPost2010Prop51ColorIndex
 90
      256
102
RTVSPost2010Prop51ColorRGB
 90
-16777216
102
RTVSPost2010PropOp51
 70
     0
102
RTVSPost2010Prop52
140
1.0
102
RTVSPost2010PropOp52
 70
     0
102
RTVSPost2010Prop53
 90
        2
102
RTVSPost2010PropOp53
 70
     1
102
RTVSPost2010Prop54
  1
strokes_ogs.tif
102
RTVSPost2010PropOp54
 70
     1
102
RTVSPost2010Prop55
280
     0
102
RTVSPost2010PropOp55
 70
     1
102
RTVSPost2010Prop56
140
1.0
102
RTVSPost2010PropOp56
 70
     1
102
RTVSPost2010Prop57
140
1.0
102
RTVSPost2010PropOp57
 70
     1
102
RTVSPropertyOp0
 70
     1
102
RTVSPropertyOp1
 70
     1
102
RTVSPropertyOp2
 70
     1
102
RTVSPropertyOp3
 70
     1
102
RTVSPropertyOp4
 70
     1
102
RTVSPropertyOp5
 70
     1
102
RTVSPropertyOp6
 70
     1
102
RTVSPropertyOp7
 70
     1
102
RTVSPropertyOp8
 70
     1
102
RTVSPropertyOp9
 70
     1
102
RTVSPropertyOp10
 70
     1
102
RTVSPropertyOp11
 70
     1
102
RTVSPropertyOp12
 70
     1
102
RTVSPropertyOp13
 70
     1
102
RTVSPropertyOp14
 70
     1
102
RTVSPropertyOp15
 70
     1
102
RTVSPropertyOp16
 70
     1
102
RTVSPropertyOp17
 70
     1
102
RTVSPropertyOp18
 70
     1
102
RTVSPropertyOp19
 70
     1
102
RTVSPropertyOp20
 70
     1
102
RTVSPropertyOp21
 70
     1
102
RTVSPropertyOp22
 70
     1
102
RTVSPropertyOp23
 70
     1
102
RTVSPropertyOp24
 70
     1
102
RTVSPropertyOp25
 70
     1
102
RTVSPropertyOp26
 70
     1
102
RTVSPropertyOp27
 70
     1
102
RTVSPropertyOp28
 70
     1
102
RTVSPropertyOp29
 70
     1
102
RTVSPropertyOp30
 70
     1
102
RTVSPropertyOp31
 70
     1
102
RTVSPropertyOp32
 70
     1
102
RTVSPropertyOp33
 70
     1
102
RTVSPropertyOp34
 70
     1
102
RTVSPropertyOp35
 70
     1
102
RTVSPropertyOp36
 70
     1
102
RTVSPropertyOp37
 70
     1
102
RTVSPropertyOp38
 70
     1
102
RTVSPropertyOp39
 70
     1
102
RTVSPropertyOp40
 70
     1
102
RTVSPropertyOp41
 70
     1
102
RTVSPropertyOp42
 70
     1
102
RTVSPropertyOp43
 70
     1
102
RTVSPropertyOp44
 70
     1
102
RTVSPropertyOp45
 70
     1
102
RTVSPropertyOp46
 70
     1
102
RTVSPropertyOp47
 70
     1
102
RTVSPropertyOp48
 70
     1
102
RTVSPropertyOp49
 70
     1
102
RTVSPropertyOp50
 70
     1
102
RTVSPropertyOp51
 70
     0
102
RTVSPropertyOp52
 70
     0
102
RTVSPropertyOp53
 70
     1
102
RTVSPropertyOp54
 70
     1
102
RTVSPropertyOp55
 70
     1
102
RTVSPropertyOp56
 70
     1
102
RTVSPropertyOp57
 70
     1
102
RTVSPropertyOp58
 70
     1
102
RTVSPropertyOp59
 70
     1
102
RTVSPropertyOp60
 70
     1
102
RTVSPropertyOp61
 70
     1
102
RTVSPropertyOp62
 70
     1
  0
XRECORD
  5
14D1D
102
{ACAD_REACTORS
330
14D1C
102
}
330
14D1C
100
AcDbXrecord
280
     1
102
RTVSPost2010Prop28
280
     0
102
RTVSPost2010PropOp28
 70
     1
102
RTVSPost2010Prop29
280
     1
102
RTVSPost2010PropOp29
 70
     1
102
RTVSPost2010Prop30
280
     1
102
RTVSPost2010PropOp30
 70
     1
102
RTVSPost2010Prop31
280
     0
102
RTVSPost2010PropOp31
 70
     1
102
RTVSPost2010Prop32
280
     0
102
RTVSPost2010PropOp32
 70
     1
102
RTVSPost2010Prop33
280
     0
102
RTVSPost2010PropOp33
 70
     1
102
RTVSPost2010Prop34
280
     0
102
RTVSPost2010PropOp34
 70
     1
102
RTVSPost2010Prop35
280
     0
102
RTVSPost2010PropOp35
 70
     1
102
RTVSPost2010Prop36
280
     0
102
RTVSPost2010PropOp36
 70
     1
102
RTVSPost2010Prop37
 90
       50
102
RTVSPost2010PropOp37
 70
     1
102
RTVSPost2010Prop38
140
0.0
102
RTVSPost2010PropOp38
 70
     1
102
RTVSPost2010Prop39
140
1.0
102
RTVSPost2010PropOp39
 70
     1
102
RTVSPost2010Prop40
 90
        0
102
RTVSPost2010PropOp40
 70
     1
102
RTVSPost2010Prop41ColorIndex
 90
       18
102
RTVSPost2010Prop41ColorRGB
 90
        0
102
RTVSPost2010PropOp41
 70
     1
102
RTVSPost2010Prop42
 90
       50
102
RTVSPost2010PropOp42
 70
     1
102
RTVSPost2010Prop43
 90
        3
102
RTVSPost2010PropOp43
 70
     1
102
RTVSPost2010Prop44ColorIndex
 90
        5
102
RTVSPost2010Prop44ColorRGB
 90
      255
102
RTVSPost2010PropOp44
 70
     1
102
RTVSPost2010Prop45
280
     0
102
RTVSPost2010PropOp45
 70
     1
102
RTVSPost2010Prop46
 90
       50
102
RTVSPost2010PropOp46
 70
     1
102
RTVSPost2010Prop47
 90
       50
102
RTVSPost2010PropOp47
 70
     1
102
RTVSPost2010Prop48
 90
       50
102
RTVSPost2010PropOp48
 70
     1
102
RTVSPost2010Prop49
280
     0
102
RTVSPost2010PropOp49
 70
     1
102
RTVSPost2010Prop50
 90
       50
102
RTVSPost2010PropOp50
 70
     1
102
RTVSPost2010Prop51ColorIndex
 90
      256
102
RTVSPost2010Prop51ColorRGB
 90
-16777216
102
RTVSPost2010PropOp51
 70
     0
102
RTVSPost2010Prop52
140
1.0
102
RTVSPost2010PropOp52
 70
     0
102
RTVSPost2010Prop53
 90
        2
102
RTVSPost2010PropOp53
 70
     1
102
RTVSPost2010Prop54
  1
strokes_ogs.tif
102
RTVSPost2010PropOp54
 70
     1
102
RTVSPost2010Prop55
280
     0
102
RTVSPost2010PropOp55
 70
     1
102
RTVSPost2010Prop56
140
1.0
102
RTVSPost2010PropOp56
 70
     1
102
RTVSPost2010Prop57
140
1.0
102
RTVSPost2010PropOp57
 70
     1
102
RTVSPropertyOp0
 70
     1
102
RTVSPropertyOp1
 70
     1
102
RTVSPropertyOp2
 70
     1
102
RTVSPropertyOp3
 70
     1
102
RTVSPropertyOp4
 70
     1
102
RTVSPropertyOp5
 70
     1
102
RTVSPropertyOp6
 70
     1
102
RTVSPropertyOp7
 70
     1
102
RTVSPropertyOp8
 70
     1
102
RTVSPropertyOp9
 70
     1
102
RTVSPropertyOp10
 70
     1
102
RTVSPropertyOp11
 70
     1
102
RTVSPropertyOp12
 70
     1
102
RTVSPropertyOp13
 70
     1
102
RTVSPropertyOp14
 70
     1
102
RTVSPropertyOp15
 70
     1
102
RTVSPropertyOp16
 70
     1
102
RTVSPropertyOp17
 70
     1
102
RTVSPropertyOp18
 70
     1
102
RTVSPropertyOp19
 70
     1
102
RTVSPropertyOp20
 70
     1
102
RTVSPropertyOp21
 70
     1
102
RTVSPropertyOp22
 70
     1
102
RTVSPropertyOp23
 70
     1
102
RTVSPropertyOp24
 70
     1
102
RTVSPropertyOp25
 70
     1
102
RTVSPropertyOp26
 70
     1
102
RTVSPropertyOp27
 70
     1
102
RTVSPropertyOp28
 70
     1
102
RTVSPropertyOp29
 70
     1
102
RTVSPropertyOp30
 70
     1
102
RTVSPropertyOp31
 70
     1
102
RTVSPropertyOp32
 70
     1
102
RTVSPropertyOp33
 70
     1
102
RTVSPropertyOp34
 70
     1
102
RTVSPropertyOp35
 70
     1
102
RTVSPropertyOp36
 70
     1
102
RTVSPropertyOp37
 70
     1
102
RTVSPropertyOp38
 70
     1
102
RTVSPropertyOp39
 70
     1
102
RTVSPropertyOp40
 70
     1
102
RTVSPropertyOp41
 70
     1
102
RTVSPropertyOp42
 70
     1
102
RTVSPropertyOp43
 70
     1
102
RTVSPropertyOp44
 70
     1
102
RTVSPropertyOp45
 70
     1
102
RTVSPropertyOp46
 70
     1
102
RTVSPropertyOp47
 70
     1
102
RTVSPropertyOp48
 70
     1
102
RTVSPropertyOp49
 70
     1
102
RTVSPropertyOp50
 70
     1
102
RTVSPropertyOp51
 70
     0
102
RTVSPropertyOp52
 70
     0
102
RTVSPropertyOp53
 70
     1
102
RTVSPropertyOp54
 70
     1
102
RTVSPropertyOp55
 70
     1
102
RTVSPropertyOp56
 70
     1
102
RTVSPropertyOp57
 70
     1
102
RTVSPropertyOp58
 70
     1
102
RTVSPropertyOp59
 70
     1
102
RTVSPropertyOp60
 70
     1
102
RTVSPropertyOp61
 70
     1
102
RTVSPropertyOp62
 70
     1
  0
XRECORD
  5
14D1F
102
{ACAD_REACTORS
330
14D1E
102
}
330
14D1E
100
AcDbXrecord
280
     1
102
RTVSPost2010Prop28
280
     0
102
RTVSPost2010PropOp28
 70
     1
102
RTVSPost2010Prop29
280
     1
102
RTVSPost2010PropOp29
 70
     1
102
RTVSPost2010Prop30
280
     1
102
RTVSPost2010PropOp30
 70
     1
102
RTVSPost2010Prop31
280
     0
102
RTVSPost2010PropOp31
 70
     1
102
RTVSPost2010Prop32
280
     0
102
RTVSPost2010PropOp32
 70
     1
102
RTVSPost2010Prop33
280
     0
102
RTVSPost2010PropOp33
 70
     1
102
RTVSPost2010Prop34
280
     0
102
RTVSPost2010PropOp34
 70
     1
102
RTVSPost2010Prop35
280
     0
102
RTVSPost2010PropOp35
 70
     1
102
RTVSPost2010Prop36
280
     0
102
RTVSPost2010PropOp36
 70
     1
102
RTVSPost2010Prop37
 90
       50
102
RTVSPost2010PropOp37
 70
     1
102
RTVSPost2010Prop38
140
0.0
102
RTVSPost2010PropOp38
 70
     1
102
RTVSPost2010Prop39
140
1.0
102
RTVSPost2010PropOp39
 70
     1
102
RTVSPost2010Prop40
 90
        0
102
RTVSPost2010PropOp40
 70
     1
102
RTVSPost2010Prop41ColorIndex
 90
       18
102
RTVSPost2010Prop41ColorRGB
 90
        0
102
RTVSPost2010PropOp41
 70
     1
102
RTVSPost2010Prop42
 90
       50
102
RTVSPost2010PropOp42
 70
     1
102
RTVSPost2010Prop43
 90
        3
102
RTVSPost2010PropOp43
 70
     1
102
RTVSPost2010Prop44ColorIndex
 90
        5
102
RTVSPost2010Prop44ColorRGB
 90
      255
102
RTVSPost2010PropOp44
 70
     1
102
RTVSPost2010Prop45
280
     0
102
RTVSPost2010PropOp45
 70
     1
102
RTVSPost2010Prop46
 90
       50
102
RTVSPost2010PropOp46
 70
     1
102
RTVSPost2010Prop47
 90
       50
102
RTVSPost2010PropOp47
 70
     1
102
RTVSPost2010Prop48
 90
       50
102
RTVSPost2010PropOp48
 70
     1
102
RTVSPost2010Prop49
280
     0
102
RTVSPost2010PropOp49
 70
     1
102
RTVSPost2010Prop50
 90
       50
102
RTVSPost2010PropOp50
 70
     1
102
RTVSPost2010Prop51ColorIndex
 90
      256
102
RTVSPost2010Prop51ColorRGB
 90
-16777216
102
RTVSPost2010PropOp51
 70
     0
102
RTVSPost2010Prop52
140
1.0
102
RTVSPost2010PropOp52
 70
     0
102
RTVSPost2010Prop53
 90
        2
102
RTVSPost2010PropOp53
 70
     1
102
RTVSPost2010Prop54
  1
strokes_ogs.tif
102
RTVSPost2010PropOp54
 70
     1
102
RTVSPost2010Prop55
280
     0
102
RTVSPost2010PropOp55
 70
     1
102
RTVSPost2010Prop56
140
1.0
102
RTVSPost2010PropOp56
 70
     1
102
RTVSPost2010Prop57
140
1.0
102
RTVSPost2010PropOp57
 70
     1
102
RTVSPropertyOp0
 70
     1
102
RTVSPropertyOp1
 70
     1
102
RTVSPropertyOp2
 70
     1
102
RTVSPropertyOp3
 70
     1
102
RTVSPropertyOp4
 70
     1
102
RTVSPropertyOp5
 70
     1
102
RTVSPropertyOp6
 70
     1
102
RTVSPropertyOp7
 70
     1
102
RTVSPropertyOp8
 70
     1
102
RTVSPropertyOp9
 70
     1
102
RTVSPropertyOp10
 70
     1
102
RTVSPropertyOp11
 70
     1
102
RTVSPropertyOp12
 70
     1
102
RTVSPropertyOp13
 70
     1
102
RTVSPropertyOp14
 70
     1
102
RTVSPropertyOp15
 70
     1
102
RTVSPropertyOp16
 70
     1
102
RTVSPropertyOp17
 70
     1
102
RTVSPropertyOp18
 70
     1
102
RTVSPropertyOp19
 70
     1
102
RTVSPropertyOp20
 70
     1
102
RTVSPropertyOp21
 70
     1
102
RTVSPropertyOp22
 70
     1
102
RTVSPropertyOp23
 70
     1
102
RTVSPropertyOp24
 70
     1
102
RTVSPropertyOp25
 70
     1
102
RTVSPropertyOp26
 70
     1
102
RTVSPropertyOp27
 70
     1
102
RTVSPropertyOp28
 70
     1
102
RTVSPropertyOp29
 70
     1
102
RTVSPropertyOp30
 70
     1
102
RTVSPropertyOp31
 70
     1
102
RTVSPropertyOp32
 70
     1
102
RTVSPropertyOp33
 70
     1
102
RTVSPropertyOp34
 70
     1
102
RTVSPropertyOp35
 70
     1
102
RTVSPropertyOp36
 70
     1
102
RTVSPropertyOp37
 70
     1
102
RTVSPropertyOp38
 70
     1
102
RTVSPropertyOp39
 70
     1
102
RTVSPropertyOp40
 70
     1
102
RTVSPropertyOp41
 70
     1
102
RTVSPropertyOp42
 70
     1
102
RTVSPropertyOp43
 70
     1
102
RTVSPropertyOp44
 70
     1
102
RTVSPropertyOp45
 70
     1
102
RTVSPropertyOp46
 70
     1
102
RTVSPropertyOp47
 70
     1
102
RTVSPropertyOp48
 70
     1
102
RTVSPropertyOp49
 70
     1
102
RTVSPropertyOp50
 70
     1
102
RTVSPropertyOp51
 70
     0
102
RTVSPropertyOp52
 70
     0
102
RTVSPropertyOp53
 70
     1
102
RTVSPropertyOp54
 70
     1
102
RTVSPropertyOp55
 70
     1
102
RTVSPropertyOp56
 70
     1
102
RTVSPropertyOp57
 70
     1
102
RTVSPropertyOp58
 70
     1
102
RTVSPropertyOp59
 70
     1
102
RTVSPropertyOp60
 70
     1
102
RTVSPropertyOp61
 70
     1
102
RTVSPropertyOp62
 70
     1
  0
XRECORD
  5
14D40
102
{ACAD_REACTORS
330
14D3F
102
}
330
14D3F
100
AcDbXrecord
280
     1
102
RTVSPost2010Prop28
280
     0
102
RTVSPost2010PropOp28
 70
     1
102
RTVSPost2010Prop29
280
     1
102
RTVSPost2010PropOp29
 70
     1
102
RTVSPost2010Prop30
280
     1
102
RTVSPost2010PropOp30
 70
     1
102
RTVSPost2010Prop31
280
     0
102
RTVSPost2010PropOp31
 70
     1
102
RTVSPost2010Prop32
280
     0
102
RTVSPost2010PropOp32
 70
     1
102
RTVSPost2010Prop33
280
     0
102
RTVSPost2010PropOp33
 70
     1
102
RTVSPost2010Prop34
280
     0
102
RTVSPost2010PropOp34
 70
     1
102
RTVSPost2010Prop35
280
     0
102
RTVSPost2010PropOp35
 70
     1
102
RTVSPost2010Prop36
280
     0
102
RTVSPost2010PropOp36
 70
     1
102
RTVSPost2010Prop37
 90
       50
102
RTVSPost2010PropOp37
 70
     1
102
RTVSPost2010Prop38
140
0.0
102
RTVSPost2010PropOp38
 70
     1
102
RTVSPost2010Prop39
140
1.0
102
RTVSPost2010PropOp39
 70
     1
102
RTVSPost2010Prop40
 90
        0
102
RTVSPost2010PropOp40
 70
     1
102
RTVSPost2010Prop41ColorIndex
 90
       18
102
RTVSPost2010Prop41ColorRGB
 90
        0
102
RTVSPost2010PropOp41
 70
     1
102
RTVSPost2010Prop42
 90
       50
102
RTVSPost2010PropOp42
 70
     1
102
RTVSPost2010Prop43
 90
        3
102
RTVSPost2010PropOp43
 70
     1
102
RTVSPost2010Prop44ColorIndex
 90
        5
102
RTVSPost2010Prop44ColorRGB
 90
      255
102
RTVSPost2010PropOp44
 70
     1
102
RTVSPost2010Prop45
280
     0
102
RTVSPost2010PropOp45
 70
     1
102
RTVSPost2010Prop46
 90
       50
102
RTVSPost2010PropOp46
 70
     1
102
RTVSPost2010Prop47
 90
       50
102
RTVSPost2010PropOp47
 70
     1
102
RTVSPost2010Prop48
 90
       50
102
RTVSPost2010PropOp48
 70
     1
102
RTVSPost2010Prop49
280
     0
102
RTVSPost2010PropOp49
 70
     1
102
RTVSPost2010Prop50
 90
       50
102
RTVSPost2010PropOp50
 70
     1
102
RTVSPost2010Prop51ColorIndex
 90
      256
102
RTVSPost2010Prop51ColorRGB
 90
-16777216
102
RTVSPost2010PropOp51
 70
     0
102
RTVSPost2010Prop52
140
1.0
102
RTVSPost2010PropOp52
 70
     0
102
RTVSPost2010Prop53
 90
        2
102
RTVSPost2010PropOp53
 70
     1
102
RTVSPost2010Prop54
  1
strokes_ogs.tif
102
RTVSPost2010PropOp54
 70
     1
102
RTVSPost2010Prop55
280
     0
102
RTVSPost2010PropOp55
 70
     1
102
RTVSPost2010Prop56
140
1.0
102
RTVSPost2010PropOp56
 70
     1
102
RTVSPost2010Prop57
140
1.0
102
RTVSPost2010PropOp57
 70
     1
102
RTVSPropertyOp0
 70
     1
102
RTVSPropertyOp1
 70
     1
102
RTVSPropertyOp2
 70
     1
102
RTVSPropertyOp3
 70
     1
102
RTVSPropertyOp4
 70
     1
102
RTVSPropertyOp5
 70
     1
102
RTVSPropertyOp6
 70
     1
102
RTVSPropertyOp7
 70
     1
102
RTVSPropertyOp8
 70
     1
102
RTVSPropertyOp9
 70
     1
102
RTVSPropertyOp10
 70
     1
102
RTVSPropertyOp11
 70
     1
102
RTVSPropertyOp12
 70
     1
102
RTVSPropertyOp13
 70
     1
102
RTVSPropertyOp14
 70
     1
102
RTVSPropertyOp15
 70
     1
102
RTVSPropertyOp16
 70
     1
102
RTVSPropertyOp17
 70
     1
102
RTVSPropertyOp18
 70
     1
102
RTVSPropertyOp19
 70
     1
102
RTVSPropertyOp20
 70
     1
102
RTVSPropertyOp21
 70
     1
102
RTVSPropertyOp22
 70
     1
102
RTVSPropertyOp23
 70
     1
102
RTVSPropertyOp24
 70
     1
102
RTVSPropertyOp25
 70
     1
102
RTVSPropertyOp26
 70
     1
102
RTVSPropertyOp27
 70
     1
102
RTVSPropertyOp28
 70
     1
102
RTVSPropertyOp29
 70
     1
102
RTVSPropertyOp30
 70
     1
102
RTVSPropertyOp31
 70
     1
102
RTVSPropertyOp32
 70
     1
102
RTVSPropertyOp33
 70
     1
102
RTVSPropertyOp34
 70
     1
102
RTVSPropertyOp35
 70
     1
102
RTVSPropertyOp36
 70
     1
102
RTVSPropertyOp37
 70
     1
102
RTVSPropertyOp38
 70
     1
102
RTVSPropertyOp39
 70
     1
102
RTVSPropertyOp40
 70
     1
102
RTVSPropertyOp41
 70
     1
102
RTVSPropertyOp42
 70
     1
102
RTVSPropertyOp43
 70
     1
102
RTVSPropertyOp44
 70
     1
102
RTVSPropertyOp45
 70
     1
102
RTVSPropertyOp46
 70
     1
102
RTVSPropertyOp47
 70
     1
102
RTVSPropertyOp48
 70
     1
102
RTVSPropertyOp49
 70
     1
102
RTVSPropertyOp50
 70
     1
102
RTVSPropertyOp51
 70
     0
102
RTVSPropertyOp52
 70
     0
102
RTVSPropertyOp53
 70
     1
102
RTVSPropertyOp54
 70
     1
102
RTVSPropertyOp55
 70
     1
102
RTVSPropertyOp56
 70
     1
102
RTVSPropertyOp57
 70
     1
102
RTVSPropertyOp58
 70
     1
102
RTVSPropertyOp59
 70
     1
102
RTVSPropertyOp60
 70
     1
102
RTVSPropertyOp61
 70
     1
102
RTVSPropertyOp62
 70
     1
  0
XRECORD
  5
14D4C
102
{ACAD_REACTORS
330
14D4B
102
}
330
14D4B
100
AcDbXrecord
280
     1
102
RTVSPost2010Prop28
280
     0
102
RTVSPost2010PropOp28
 70
     0
102
RTVSPost2010Prop29
280
     1
102
RTVSPost2010PropOp29
 70
     0
102
RTVSPost2010Prop30
280
     1
102
RTVSPost2010PropOp30
 70
     0
102
RTVSPost2010Prop31
280
     0
102
RTVSPost2010PropOp31
 70
     0
102
RTVSPost2010Prop32
280
     0
102
RTVSPost2010PropOp32
 70
     0
102
RTVSPost2010Prop33
280
     0
102
RTVSPost2010PropOp33
 70
     0
102
RTVSPost2010Prop34
280
     0
102
RTVSPost2010PropOp34
 70
     0
102
RTVSPost2010Prop35
280
     0
102
RTVSPost2010PropOp35
 70
     0
102
RTVSPost2010Prop36
280
     0
102
RTVSPost2010PropOp36
 70
     0
102
RTVSPost2010Prop37
 90
       50
102
RTVSPost2010PropOp37
 70
     0
102
RTVSPost2010Prop38
140
0.0
102
RTVSPost2010PropOp38
 70
     0
102
RTVSPost2010Prop39
140
1.0
102
RTVSPost2010PropOp39
 70
     0
102
RTVSPost2010Prop40
 90
        0
102
RTVSPost2010PropOp40
 70
     0
102
RTVSPost2010Prop41ColorIndex
 90
       18
102
RTVSPost2010Prop41ColorRGB
 90
        0
102
RTVSPost2010PropOp41
 70
     0
102
RTVSPost2010Prop42
 90
       50
102
RTVSPost2010PropOp42
 70
     0
102
RTVSPost2010Prop43
 90
        3
102
RTVSPost2010PropOp43
 70
     0
102
RTVSPost2010Prop44ColorIndex
 90
        5
102
RTVSPost2010Prop44ColorRGB
 90
      255
102
RTVSPost2010PropOp44
 70
     0
102
RTVSPost2010Prop45
280
     0
102
RTVSPost2010PropOp45
 70
     0
102
RTVSPost2010Prop46
 90
       50
102
RTVSPost2010PropOp46
 70
     0
102
RTVSPost2010Prop47
 90
       50
102
RTVSPost2010PropOp47
 70
     0
102
RTVSPost2010Prop48
 90
       50
102
RTVSPost2010PropOp48
 70
     0
102
RTVSPost2010Prop49
280
     0
102
RTVSPost2010PropOp49
 70
     0
102
RTVSPost2010Prop50
 90
       50
102
RTVSPost2010PropOp50
 70
     0
102
RTVSPost2010Prop51ColorIndex
 90
      256
102
RTVSPost2010Prop51ColorRGB
 90
-16777216
102
RTVSPost2010PropOp51
 70
     0
102
RTVSPost2010Prop52
140
1.0
102
RTVSPost2010PropOp52
 70
     0
102
RTVSPost2010Prop53
 90
        2
102
RTVSPost2010PropOp53
 70
     0
102
RTVSPost2010Prop54
  1
strokes_ogs.tif
102
RTVSPost2010PropOp54
 70
     0
102
RTVSPost2010Prop55
280
     0
102
RTVSPost2010PropOp55
 70
     0
102
RTVSPost2010Prop56
140
1.0
102
RTVSPost2010PropOp56
 70
     0
102
RTVSPost2010Prop57
140
1.0
102
RTVSPost2010PropOp57
 70
     0
102
RTVSPropertyOp0
 70
     0
102
RTVSPropertyOp1
 70
     0
102
RTVSPropertyOp2
 70
     0
102
RTVSPropertyOp3
 70
     0
102
RTVSPropertyOp4
 70
     0
102
RTVSPropertyOp5
 70
     0
102
RTVSPropertyOp6
 70
     0
102
RTVSPropertyOp7
 70
     0
102
RTVSPropertyOp8
 70
     0
102
RTVSPropertyOp9
 70
     0
102
RTVSPropertyOp10
 70
     0
102
RTVSPropertyOp11
 70
     0
102
RTVSPropertyOp12
 70
     0
102
RTVSPropertyOp13
 70
     0
102
RTVSPropertyOp14
 70
     2
102
RTVSPropertyOp15
 70
     0
102
RTVSPropertyOp16
 70
     0
102
RTVSPropertyOp17
 70
     0
102
RTVSPropertyOp18
 70
     0
102
RTVSPropertyOp19
 70
     0
102
RTVSPropertyOp20
 70
     0
102
RTVSPropertyOp21
 70
     0
102
RTVSPropertyOp22
 70
     0
102
RTVSPropertyOp23
 70
     0
102
RTVSPropertyOp24
 70
     0
102
RTVSPropertyOp25
 70
     0
102
RTVSPropertyOp26
 70
     0
102
RTVSPropertyOp27
 70
     0
102
RTVSPropertyOp28
 70
     0
102
RTVSPropertyOp29
 70
     0
102
RTVSPropertyOp30
 70
     0
102
RTVSPropertyOp31
 70
     0
102
RTVSPropertyOp32
 70
     0
102
RTVSPropertyOp33
 70
     0
102
RTVSPropertyOp34
 70
     0
102
RTVSPropertyOp35
 70
     0
102
RTVSPropertyOp36
 70
     0
102
RTVSPropertyOp37
 70
     0
102
RTVSPropertyOp38
 70
     0
102
RTVSPropertyOp39
 70
     0
102
RTVSPropertyOp40
 70
     0
102
RTVSPropertyOp41
 70
     0
102
RTVSPropertyOp42
 70
     0
102
RTVSPropertyOp43
 70
     0
102
RTVSPropertyOp44
 70
     0
102
RTVSPropertyOp45
 70
     0
102
RTVSPropertyOp46
 70
     0
102
RTVSPropertyOp47
 70
     0
102
RTVSPropertyOp48
 70
     0
102
RTVSPropertyOp49
 70
     0
102
RTVSPropertyOp50
 70
     0
102
RTVSPropertyOp51
 70
     0
102
RTVSPropertyOp52
 70
     0
102
RTVSPropertyOp53
 70
     0
102
RTVSPropertyOp54
 70
     0
102
RTVSPropertyOp55
 70
     0
102
RTVSPropertyOp56
 70
     0
102
RTVSPropertyOp57
 70
     0
102
RTVSPropertyOp58
 70
     1
102
RTVSPropertyOp59
 70
     1
102
RTVSPropertyOp60
 70
     1
102
RTVSPropertyOp61
 70
     1
102
RTVSPropertyOp62
 70
     1
  0
XRECORD
  5
14D33
102
{ACAD_REACTORS
330
14D32
102
}
330
14D32
100
AcDbXrecord
280
     1
102
RTVSPost2010Prop28
280
     0
102
RTVSPost2010PropOp28
 70
     1
102
RTVSPost2010Prop29
280
     1
102
RTVSPost2010PropOp29
 70
     1
102
RTVSPost2010Prop30
280
     1
102
RTVSPost2010PropOp30
 70
     1
102
RTVSPost2010Prop31
280
     0
102
RTVSPost2010PropOp31
 70
     1
102
RTVSPost2010Prop32
280
     0
102
RTVSPost2010PropOp32
 70
     1
102
RTVSPost2010Prop33
280
     0
102
RTVSPost2010PropOp33
 70
     1
102
RTVSPost2010Prop34
280
     0
102
RTVSPost2010PropOp34
 70
     1
102
RTVSPost2010Prop35
280
     0
102
RTVSPost2010PropOp35
 70
     1
102
RTVSPost2010Prop36
280
     0
102
RTVSPost2010PropOp36
 70
     1
102
RTVSPost2010Prop37
 90
       50
102
RTVSPost2010PropOp37
 70
     1
102
RTVSPost2010Prop38
140
0.0
102
RTVSPost2010PropOp38
 70
     1
102
RTVSPost2010Prop39
140
1.0
102
RTVSPost2010PropOp39
 70
     1
102
RTVSPost2010Prop40
 90
        0
102
RTVSPost2010PropOp40
 70
     1
102
RTVSPost2010Prop41ColorIndex
 90
       18
102
RTVSPost2010Prop41ColorRGB
 90
        0
102
RTVSPost2010PropOp41
 70
     1
102
RTVSPost2010Prop42
 90
       50
102
RTVSPost2010PropOp42
 70
     1
102
RTVSPost2010Prop43
 90
        3
102
RTVSPost2010PropOp43
 70
     1
102
RTVSPost2010Prop44ColorIndex
 90
        5
102
RTVSPost2010Prop44ColorRGB
 90
      255
102
RTVSPost2010PropOp44
 70
     1
102
RTVSPost2010Prop45
280
     0
102
RTVSPost2010PropOp45
 70
     1
102
RTVSPost2010Prop46
 90
       50
102
RTVSPost2010PropOp46
 70
     1
102
RTVSPost2010Prop47
 90
       50
102
RTVSPost2010PropOp47
 70
     1
102
RTVSPost2010Prop48
 90
       50
102
RTVSPost2010PropOp48
 70
     1
102
RTVSPost2010Prop49
280
     0
102
RTVSPost2010PropOp49
 70
     1
102
RTVSPost2010Prop50
 90
       50
102
RTVSPost2010PropOp50
 70
     1
102
RTVSPost2010Prop51ColorIndex
 90
      256
102
RTVSPost2010Prop51ColorRGB
 90
-16777216
102
RTVSPost2010PropOp51
 70
     0
102
RTVSPost2010Prop52
140
1.0
102
RTVSPost2010PropOp52
 70
     0
102
RTVSPost2010Prop53
 90
        2
102
RTVSPost2010PropOp53
 70
     1
102
RTVSPost2010Prop54
  1
strokes_ogs.tif
102
RTVSPost2010PropOp54
 70
     1
102
RTVSPost2010Prop55
280
     0
102
RTVSPost2010PropOp55
 70
     1
102
RTVSPost2010Prop56
140
1.0
102
RTVSPost2010PropOp56
 70
     1
102
RTVSPost2010Prop57
140
1.0
102
RTVSPost2010PropOp57
 70
     1
102
RTVSPropertyOp0
 70
     1
102
RTVSPropertyOp1
 70
     1
102
RTVSPropertyOp2
 70
     1
102
RTVSPropertyOp3
 70
     1
102
RTVSPropertyOp4
 70
     1
102
RTVSPropertyOp5
 70
     1
102
RTVSPropertyOp6
 70
     1
102
RTVSPropertyOp7
 70
     1
102
RTVSPropertyOp8
 70
     1
102
RTVSPropertyOp9
 70
     1
102
RTVSPropertyOp10
 70
     1
102
RTVSPropertyOp11
 70
     1
102
RTVSPropertyOp12
 70
     1
102
RTVSPropertyOp13
 70
     1
102
RTVSPropertyOp14
 70
     1
102
RTVSPropertyOp15
 70
     1
102
RTVSPropertyOp16
 70
     1
102
RTVSPropertyOp17
 70
     1
102
RTVSPropertyOp18
 70
     1
102
RTVSPropertyOp19
 70
     1
102
RTVSPropertyOp20
 70
     1
102
RTVSPropertyOp21
 70
     1
102
RTVSPropertyOp22
 70
     1
102
RTVSPropertyOp23
 70
     1
102
RTVSPropertyOp24
 70
     1
102
RTVSPropertyOp25
 70
     1
102
RTVSPropertyOp26
 70
     1
102
RTVSPropertyOp27
 70
     1
102
RTVSPropertyOp28
 70
     1
102
RTVSPropertyOp29
 70
     1
102
RTVSPropertyOp30
 70
     1
102
RTVSPropertyOp31
 70
     1
102
RTVSPropertyOp32
 70
     1
102
RTVSPropertyOp33
 70
     1
102
RTVSPropertyOp34
 70
     1
102
RTVSPropertyOp35
 70
     1
102
RTVSPropertyOp36
 70
     1
102
RTVSPropertyOp37
 70
     1
102
RTVSPropertyOp38
 70
     1
102
RTVSPropertyOp39
 70
     1
102
RTVSPropertyOp40
 70
     1
102
RTVSPropertyOp41
 70
     1
102
RTVSPropertyOp42
 70
     1
102
RTVSPropertyOp43
 70
     1
102
RTVSPropertyOp44
 70
     1
102
RTVSPropertyOp45
 70
     1
102
RTVSPropertyOp46
 70
     1
102
RTVSPropertyOp47
 70
     1
102
RTVSPropertyOp48
 70
     1
102
RTVSPropertyOp49
 70
     1
102
RTVSPropertyOp50
 70
     1
102
RTVSPropertyOp51
 70
     0
102
RTVSPropertyOp52
 70
     0
102
RTVSPropertyOp53
 70
     1
102
RTVSPropertyOp54
 70
     1
102
RTVSPropertyOp55
 70
     1
102
RTVSPropertyOp56
 70
     1
102
RTVSPropertyOp57
 70
     1
102
RTVSPropertyOp58
 70
     1
102
RTVSPropertyOp59
 70
     1
102
RTVSPropertyOp60
 70
     1
102
RTVSPropertyOp61
 70
     1
102
RTVSPropertyOp62
 70
     1
  0
XRECORD
  5
14D4E
102
{ACAD_REACTORS
330
14D4D
102
}
330
14D4D
100
AcDbXrecord
280
     1
102
RTVSPost2010Prop28
280
     0
102
RTVSPost2010PropOp28
 70
     0
102
RTVSPost2010Prop29
280
     1
102
RTVSPost2010PropOp29
 70
     0
102
RTVSPost2010Prop30
280
     1
102
RTVSPost2010PropOp30
 70
     0
102
RTVSPost2010Prop31
280
     0
102
RTVSPost2010PropOp31
 70
     0
102
RTVSPost2010Prop32
280
     0
102
RTVSPost2010PropOp32
 70
     0
102
RTVSPost2010Prop33
280
     0
102
RTVSPost2010PropOp33
 70
     0
102
RTVSPost2010Prop34
280
     0
102
RTVSPost2010PropOp34
 70
     0
102
RTVSPost2010Prop35
280
     0
102
RTVSPost2010PropOp35
 70
     0
102
RTVSPost2010Prop36
280
     0
102
RTVSPost2010PropOp36
 70
     0
102
RTVSPost2010Prop37
 90
       50
102
RTVSPost2010PropOp37
 70
     0
102
RTVSPost2010Prop38
140
0.0
102
RTVSPost2010PropOp38
 70
     0
102
RTVSPost2010Prop39
140
1.0
102
RTVSPost2010PropOp39
 70
     0
102
RTVSPost2010Prop40
 90
        0
102
RTVSPost2010PropOp40
 70
     0
102
RTVSPost2010Prop41ColorIndex
 90
       18
102
RTVSPost2010Prop41ColorRGB
 90
        0
102
RTVSPost2010PropOp41
 70
     0
102
RTVSPost2010Prop42
 90
       50
102
RTVSPost2010PropOp42
 70
     0
102
RTVSPost2010Prop43
 90
        3
102
RTVSPost2010PropOp43
 70
     0
102
RTVSPost2010Prop44ColorIndex
 90
        5
102
RTVSPost2010Prop44ColorRGB
 90
      255
102
RTVSPost2010PropOp44
 70
     0
102
RTVSPost2010Prop45
280
     0
102
RTVSPost2010PropOp45
 70
     0
102
RTVSPost2010Prop46
 90
       50
102
RTVSPost2010PropOp46
 70
     0
102
RTVSPost2010Prop47
 90
       50
102
RTVSPost2010PropOp47
 70
     0
102
RTVSPost2010Prop48
 90
       50
102
RTVSPost2010PropOp48
 70
     0
102
RTVSPost2010Prop49
280
     0
102
RTVSPost2010PropOp49
 70
     0
102
RTVSPost2010Prop50
 90
       50
102
RTVSPost2010PropOp50
 70
     0
102
RTVSPost2010Prop51ColorIndex
 90
      256
102
RTVSPost2010Prop51ColorRGB
 90
-16777216
102
RTVSPost2010PropOp51
 70
     0
102
RTVSPost2010Prop52
140
1.0
102
RTVSPost2010PropOp52
 70
     0
102
RTVSPost2010Prop53
 90
        2
102
RTVSPost2010PropOp53
 70
     0
102
RTVSPost2010Prop54
  1
strokes_ogs.tif
102
RTVSPost2010PropOp54
 70
     0
102
RTVSPost2010Prop55
280
     0
102
RTVSPost2010PropOp55
 70
     0
102
RTVSPost2010Prop56
140
1.0
102
RTVSPost2010PropOp56
 70
     0
102
RTVSPost2010Prop57
140
1.0
102
RTVSPost2010PropOp57
 70
     0
102
RTVSPropertyOp0
 70
     0
102
RTVSPropertyOp1
 70
     0
102
RTVSPropertyOp2
 70
     0
102
RTVSPropertyOp3
 70
     0
102
RTVSPropertyOp4
 70
     0
102
RTVSPropertyOp5
 70
     0
102
RTVSPropertyOp6
 70
     0
102
RTVSPropertyOp7
 70
     0
102
RTVSPropertyOp8
 70
     0
102
RTVSPropertyOp9
 70
     0
102
RTVSPropertyOp10
 70
     0
102
RTVSPropertyOp11
 70
     0
102
RTVSPropertyOp12
 70
     0
102
RTVSPropertyOp13
 70
     0
102
RTVSPropertyOp14
 70
     2
102
RTVSPropertyOp15
 70
     0
102
RTVSPropertyOp16
 70
     0
102
RTVSPropertyOp17
 70
     0
102
RTVSPropertyOp18
 70
     0
102
RTVSPropertyOp19
 70
     0
102
RTVSPropertyOp20
 70
     0
102
RTVSPropertyOp21
 70
     0
102
RTVSPropertyOp22
 70
     0
102
RTVSPropertyOp23
 70
     0
102
RTVSPropertyOp24
 70
     0
102
RTVSPropertyOp25
 70
     0
102
RTVSPropertyOp26
 70
     0
102
RTVSPropertyOp27
 70
     0
102
RTVSPropertyOp28
 70
     0
102
RTVSPropertyOp29
 70
     0
102
RTVSPropertyOp30
 70
     0
102
RTVSPropertyOp31
 70
     0
102
RTVSPropertyOp32
 70
     0
102
RTVSPropertyOp33
 70
     0
102
RTVSPropertyOp34
 70
     0
102
RTVSPropertyOp35
 70
     0
102
RTVSPropertyOp36
 70
     0
102
RTVSPropertyOp37
 70
     0
102
RTVSPropertyOp38
 70
     0
102
RTVSPropertyOp39
 70
     0
102
RTVSPropertyOp40
 70
     0
102
RTVSPropertyOp41
 70
     0
102
RTVSPropertyOp42
 70
     0
102
RTVSPropertyOp43
 70
     0
102
RTVSPropertyOp44
 70
     0
102
RTVSPropertyOp45
 70
     0
102
RTVSPropertyOp46
 70
     0
102
RTVSPropertyOp47
 70
     0
102
RTVSPropertyOp48
 70
     0
102
RTVSPropertyOp49
 70
     0
102
RTVSPropertyOp50
 70
     0
102
RTVSPropertyOp51
 70
     0
102
RTVSPropertyOp52
 70
     0
102
RTVSPropertyOp53
 70
     0
102
RTVSPropertyOp54
 70
     0
102
RTVSPropertyOp55
 70
     0
102
RTVSPropertyOp56
 70
     0
102
RTVSPropertyOp57
 70
     0
102
RTVSPropertyOp58
 70
     1
102
RTVSPropertyOp59
 70
     1
102
RTVSPropertyOp60
 70
     1
102
RTVSPropertyOp61
 70
     1
102
RTVSPropertyOp62
 70
     1
  0
XRECORD
  5
14D2B
102
{ACAD_REACTORS
330
14D2A
102
}
330
14D2A
100
AcDbXrecord
280
     1
102
RTVSPost2010Prop28
280
     0
102
RTVSPost2010PropOp28
 70
     1
102
RTVSPost2010Prop29
280
     1
102
RTVSPost2010PropOp29
 70
     1
102
RTVSPost2010Prop30
280
     1
102
RTVSPost2010PropOp30
 70
     1
102
RTVSPost2010Prop31
280
     0
102
RTVSPost2010PropOp31
 70
     1
102
RTVSPost2010Prop32
280
     0
102
RTVSPost2010PropOp32
 70
     1
102
RTVSPost2010Prop33
280
     0
102
RTVSPost2010PropOp33
 70
     1
102
RTVSPost2010Prop34
280
     0
102
RTVSPost2010PropOp34
 70
     1
102
RTVSPost2010Prop35
280
     0
102
RTVSPost2010PropOp35
 70
     1
102
RTVSPost2010Prop36
280
     0
102
RTVSPost2010PropOp36
 70
     1
102
RTVSPost2010Prop37
 90
       50
102
RTVSPost2010PropOp37
 70
     1
102
RTVSPost2010Prop38
140
0.0
102
RTVSPost2010PropOp38
 70
     1
102
RTVSPost2010Prop39
140
1.0
102
RTVSPost2010PropOp39
 70
     1
102
RTVSPost2010Prop40
 90
        0
102
RTVSPost2010PropOp40
 70
     1
102
RTVSPost2010Prop41ColorIndex
 90
       18
102
RTVSPost2010Prop41ColorRGB
 90
        0
102
RTVSPost2010PropOp41
 70
     1
102
RTVSPost2010Prop42
 90
       50
102
RTVSPost2010PropOp42
 70
     1
102
RTVSPost2010Prop43
 90
        3
102
RTVSPost2010PropOp43
 70
     1
102
RTVSPost2010Prop44ColorIndex
 90
        5
102
RTVSPost2010Prop44ColorRGB
 90
      255
102
RTVSPost2010PropOp44
 70
     1
102
RTVSPost2010Prop45
280
     0
102
RTVSPost2010PropOp45
 70
     1
102
RTVSPost2010Prop46
 90
       50
102
RTVSPost2010PropOp46
 70
     1
102
RTVSPost2010Prop47
 90
       50
102
RTVSPost2010PropOp47
 70
     1
102
RTVSPost2010Prop48
 90
       50
102
RTVSPost2010PropOp48
 70
     1
102
RTVSPost2010Prop49
280
     0
102
RTVSPost2010PropOp49
 70
     1
102
RTVSPost2010Prop50
 90
       50
102
RTVSPost2010PropOp50
 70
     1
102
RTVSPost2010Prop51ColorIndex
 90
      256
102
RTVSPost2010Prop51ColorRGB
 90
-16777216
102
RTVSPost2010PropOp51
 70
     0
102
RTVSPost2010Prop52
140
1.0
102
RTVSPost2010PropOp52
 70
     0
102
RTVSPost2010Prop53
 90
        2
102
RTVSPost2010PropOp53
 70
     1
102
RTVSPost2010Prop54
  1
strokes_ogs.tif
102
RTVSPost2010PropOp54
 70
     1
102
RTVSPost2010Prop55
280
     0
102
RTVSPost2010PropOp55
 70
     1
102
RTVSPost2010Prop56
140
1.0
102
RTVSPost2010PropOp56
 70
     1
102
RTVSPost2010Prop57
140
1.0
102
RTVSPost2010PropOp57
 70
     1
102
RTVSPropertyOp0
 70
     1
102
RTVSPropertyOp1
 70
     1
102
RTVSPropertyOp2
 70
     1
102
RTVSPropertyOp3
 70
     1
102
RTVSPropertyOp4
 70
     1
102
RTVSPropertyOp5
 70
     1
102
RTVSPropertyOp6
 70
     1
102
RTVSPropertyOp7
 70
     1
102
RTVSPropertyOp8
 70
     1
102
RTVSPropertyOp9
 70
     1
102
RTVSPropertyOp10
 70
     1
102
RTVSPropertyOp11
 70
     1
102
RTVSPropertyOp12
 70
     1
102
RTVSPropertyOp13
 70
     1
102
RTVSPropertyOp14
 70
     1
102
RTVSPropertyOp15
 70
     1
102
RTVSPropertyOp16
 70
     1
102
RTVSPropertyOp17
 70
     1
102
RTVSPropertyOp18
 70
     1
102
RTVSPropertyOp19
 70
     1
102
RTVSPropertyOp20
 70
     1
102
RTVSPropertyOp21
 70
     1
102
RTVSPropertyOp22
 70
     1
102
RTVSPropertyOp23
 70
     1
102
RTVSPropertyOp24
 70
     1
102
RTVSPropertyOp25
 70
     1
102
RTVSPropertyOp26
 70
     1
102
RTVSPropertyOp27
 70
     1
102
RTVSPropertyOp28
 70
     1
102
RTVSPropertyOp29
 70
     1
102
RTVSPropertyOp30
 70
     1
102
RTVSPropertyOp31
 70
     1
102
RTVSPropertyOp32
 70
     1
102
RTVSPropertyOp33
 70
     1
102
RTVSPropertyOp34
 70
     1
102
RTVSPropertyOp35
 70
     1
102
RTVSPropertyOp36
 70
     1
102
RTVSPropertyOp37
 70
     1
102
RTVSPropertyOp38
 70
     1
102
RTVSPropertyOp39
 70
     1
102
RTVSPropertyOp40
 70
     1
102
RTVSPropertyOp41
 70
     1
102
RTVSPropertyOp42
 70
     1
102
RTVSPropertyOp43
 70
     1
102
RTVSPropertyOp44
 70
     1
102
RTVSPropertyOp45
 70
     1
102
RTVSPropertyOp46
 70
     1
102
RTVSPropertyOp47
 70
     1
102
RTVSPropertyOp48
 70
     1
102
RTVSPropertyOp49
 70
     1
102
RTVSPropertyOp50
 70
     1
102
RTVSPropertyOp51
 70
     0
102
RTVSPropertyOp52
 70
     0
102
RTVSPropertyOp53
 70
     1
102
RTVSPropertyOp54
 70
     1
102
RTVSPropertyOp55
 70
     1
102
RTVSPropertyOp56
 70
     1
102
RTVSPropertyOp57
 70
     1
102
RTVSPropertyOp58
 70
     1
102
RTVSPropertyOp59
 70
     1
102
RTVSPropertyOp60
 70
     1
102
RTVSPropertyOp61
 70
     1
102
RTVSPropertyOp62
 70
     1
  0
XRECORD
  5
14D4A
102
{ACAD_REACTORS
330
14D49
102
}
330
14D49
100
AcDbXrecord
280
     1
102
RTVSPost2010Prop28
280
     0
102
RTVSPost2010PropOp28
 70
     1
102
RTVSPost2010Prop29
280
     1
102
RTVSPost2010PropOp29
 70
     1
102
RTVSPost2010Prop30
280
     1
102
RTVSPost2010PropOp30
 70
     1
102
RTVSPost2010Prop31
280
     0
102
RTVSPost2010PropOp31
 70
     1
102
RTVSPost2010Prop32
280
     0
102
RTVSPost2010PropOp32
 70
     1
102
RTVSPost2010Prop33
280
     0
102
RTVSPost2010PropOp33
 70
     1
102
RTVSPost2010Prop34
280
     0
102
RTVSPost2010PropOp34
 70
     1
102
RTVSPost2010Prop35
280
     0
102
RTVSPost2010PropOp35
 70
     1
102
RTVSPost2010Prop36
280
     0
102
RTVSPost2010PropOp36
 70
     1
102
RTVSPost2010Prop37
 90
       50
102
RTVSPost2010PropOp37
 70
     1
102
RTVSPost2010Prop38
140
0.0
102
RTVSPost2010PropOp38
 70
     1
102
RTVSPost2010Prop39
140
1.0
102
RTVSPost2010PropOp39
 70
     1
102
RTVSPost2010Prop40
 90
        0
102
RTVSPost2010PropOp40
 70
     1
102
RTVSPost2010Prop41ColorIndex
 90
       18
102
RTVSPost2010Prop41ColorRGB
 90
        0
102
RTVSPost2010PropOp41
 70
     1
102
RTVSPost2010Prop42
 90
       50
102
RTVSPost2010PropOp42
 70
     1
102
RTVSPost2010Prop43
 90
        3
102
RTVSPost2010PropOp43
 70
     1
102
RTVSPost2010Prop44ColorIndex
 90
        5
102
RTVSPost2010Prop44ColorRGB
 90
      255
102
RTVSPost2010PropOp44
 70
     1
102
RTVSPost2010Prop45
280
     0
102
RTVSPost2010PropOp45
 70
     1
102
RTVSPost2010Prop46
 90
       50
102
RTVSPost2010PropOp46
 70
     1
102
RTVSPost2010Prop47
 90
       50
102
RTVSPost2010PropOp47
 70
     1
102
RTVSPost2010Prop48
 90
       50
102
RTVSPost2010PropOp48
 70
     1
102
RTVSPost2010Prop49
280
     0
102
RTVSPost2010PropOp49
 70
     1
102
RTVSPost2010Prop50
 90
       50
102
RTVSPost2010PropOp50
 70
     1
102
RTVSPost2010Prop51ColorIndex
 90
      256
102
RTVSPost2010Prop51ColorRGB
 90
-16777216
102
RTVSPost2010PropOp51
 70
     0
102
RTVSPost2010Prop52
140
1.0
102
RTVSPost2010PropOp52
 70
     0
102
RTVSPost2010Prop53
 90
        2
102
RTVSPost2010PropOp53
 70
     1
102
RTVSPost2010Prop54
  1
strokes_ogs.tif
102
RTVSPost2010PropOp54
 70
     1
102
RTVSPost2010Prop55
280
     0
102
RTVSPost2010PropOp55
 70
     1
102
RTVSPost2010Prop56
140
1.0
102
RTVSPost2010PropOp56
 70
     1
102
RTVSPost2010Prop57
140
1.0
102
RTVSPost2010PropOp57
 70
     1
102
RTVSPropertyOp0
 70
     1
102
RTVSPropertyOp1
 70
     1
102
RTVSPropertyOp2
 70
     1
102
RTVSPropertyOp3
 70
     1
102
RTVSPropertyOp4
 70
     1
102
RTVSPropertyOp5
 70
     1
102
RTVSPropertyOp6
 70
     1
102
RTVSPropertyOp7
 70
     1
102
RTVSPropertyOp8
 70
     1
102
RTVSPropertyOp9
 70
     1
102
RTVSPropertyOp10
 70
     1
102
RTVSPropertyOp11
 70
     1
102
RTVSPropertyOp12
 70
     1
102
RTVSPropertyOp13
 70
     1
102
RTVSPropertyOp14
 70
     1
102
RTVSPropertyOp15
 70
     1
102
RTVSPropertyOp16
 70
     1
102
RTVSPropertyOp17
 70
     1
102
RTVSPropertyOp18
 70
     1
102
RTVSPropertyOp19
 70
     1
102
RTVSPropertyOp20
 70
     1
102
RTVSPropertyOp21
 70
     1
102
RTVSPropertyOp22
 70
     1
102
RTVSPropertyOp23
 70
     1
102
RTVSPropertyOp24
 70
     1
102
RTVSPropertyOp25
 70
     1
102
RTVSPropertyOp26
 70
     1
102
RTVSPropertyOp27
 70
     1
102
RTVSPropertyOp28
 70
     1
102
RTVSPropertyOp29
 70
     1
102
RTVSPropertyOp30
 70
     1
102
RTVSPropertyOp31
 70
     1
102
RTVSPropertyOp32
 70
     1
102
RTVSPropertyOp33
 70
     1
102
RTVSPropertyOp34
 70
     1
102
RTVSPropertyOp35
 70
     1
102
RTVSPropertyOp36
 70
     1
102
RTVSPropertyOp37
 70
     1
102
RTVSPropertyOp38
 70
     1
102
RTVSPropertyOp39
 70
     1
102
RTVSPropertyOp40
 70
     1
102
RTVSPropertyOp41
 70
     1
102
RTVSPropertyOp42
 70
     1
102
RTVSPropertyOp43
 70
     1
102
RTVSPropertyOp44
 70
     1
102
RTVSPropertyOp45
 70
     1
102
RTVSPropertyOp46
 70
     1
102
RTVSPropertyOp47
 70
     1
102
RTVSPropertyOp48
 70
     1
102
RTVSPropertyOp49
 70
     1
102
RTVSPropertyOp50
 70
     1
102
RTVSPropertyOp51
 70
     0
102
RTVSPropertyOp52
 70
     0
102
RTVSPropertyOp53
 70
     1
102
RTVSPropertyOp54
 70
     1
102
RTVSPropertyOp55
 70
     1
102
RTVSPropertyOp56
 70
     1
102
RTVSPropertyOp57
 70
     1
102
RTVSPropertyOp58
 70
     1
102
RTVSPropertyOp59
 70
     1
102
RTVSPropertyOp60
 70
     1
102
RTVSPropertyOp61
 70
     1
102
RTVSPropertyOp62
 70
     1
  0
XRECORD
  5
14D48
102
{ACAD_REACTORS
330
14D47
102
}
330
14D47
100
AcDbXrecord
280
     1
102
RTVSPost2010Prop28
280
     0
102
RTVSPost2010PropOp28
 70
     1
102
RTVSPost2010Prop29
280
     1
102
RTVSPost2010PropOp29
 70
     1
102
RTVSPost2010Prop30
280
     1
102
RTVSPost2010PropOp30
 70
     1
102
RTVSPost2010Prop31
280
     0
102
RTVSPost2010PropOp31
 70
     1
102
RTVSPost2010Prop32
280
     0
102
RTVSPost2010PropOp32
 70
     1
102
RTVSPost2010Prop33
280
     0
102
RTVSPost2010PropOp33
 70
     1
102
RTVSPost2010Prop34
280
     0
102
RTVSPost2010PropOp34
 70
     1
102
RTVSPost2010Prop35
280
     0
102
RTVSPost2010PropOp35
 70
     1
102
RTVSPost2010Prop36
280
     0
102
RTVSPost2010PropOp36
 70
     1
102
RTVSPost2010Prop37
 90
       50
102
RTVSPost2010PropOp37
 70
     1
102
RTVSPost2010Prop38
140
0.0
102
RTVSPost2010PropOp38
 70
     1
102
RTVSPost2010Prop39
140
1.0
102
RTVSPost2010PropOp39
 70
     1
102
RTVSPost2010Prop40
 90
        0
102
RTVSPost2010PropOp40
 70
     1
102
RTVSPost2010Prop41ColorIndex
 90
       18
102
RTVSPost2010Prop41ColorRGB
 90
        0
102
RTVSPost2010PropOp41
 70
     1
102
RTVSPost2010Prop42
 90
       50
102
RTVSPost2010PropOp42
 70
     1
102
RTVSPost2010Prop43
 90
        3
102
RTVSPost2010PropOp43
 70
     1
102
RTVSPost2010Prop44ColorIndex
 90
        5
102
RTVSPost2010Prop44ColorRGB
 90
      255
102
RTVSPost2010PropOp44
 70
     1
102
RTVSPost2010Prop45
280
     0
102
RTVSPost2010PropOp45
 70
     1
102
RTVSPost2010Prop46
 90
       50
102
RTVSPost2010PropOp46
 70
     1
102
RTVSPost2010Prop47
 90
       50
102
RTVSPost2010PropOp47
 70
     1
102
RTVSPost2010Prop48
 90
       50
102
RTVSPost2010PropOp48
 70
     1
102
RTVSPost2010Prop49
280
     0
102
RTVSPost2010PropOp49
 70
     1
102
RTVSPost2010Prop50
 90
       50
102
RTVSPost2010PropOp50
 70
     1
102
RTVSPost2010Prop51ColorIndex
 90
      256
102
RTVSPost2010Prop51ColorRGB
 90
-16777216
102
RTVSPost2010PropOp51
 70
     0
102
RTVSPost2010Prop52
140
1.0
102
RTVSPost2010PropOp52
 70
     0
102
RTVSPost2010Prop53
 90
        2
102
RTVSPost2010PropOp53
 70
     1
102
RTVSPost2010Prop54
  1
strokes_ogs.tif
102
RTVSPost2010PropOp54
 70
     1
102
RTVSPost2010Prop55
280
     0
102
RTVSPost2010PropOp55
 70
     1
102
RTVSPost2010Prop56
140
1.0
102
RTVSPost2010PropOp56
 70
     1
102
RTVSPost2010Prop57
140
1.0
102
RTVSPost2010PropOp57
 70
     1
102
RTVSPropertyOp0
 70
     1
102
RTVSPropertyOp1
 70
     1
102
RTVSPropertyOp2
 70
     1
102
RTVSPropertyOp3
 70
     1
102
RTVSPropertyOp4
 70
     1
102
RTVSPropertyOp5
 70
     1
102
RTVSPropertyOp6
 70
     1
102
RTVSPropertyOp7
 70
     1
102
RTVSPropertyOp8
 70
     1
102
RTVSPropertyOp9
 70
     1
102
RTVSPropertyOp10
 70
     1
102
RTVSPropertyOp11
 70
     1
102
RTVSPropertyOp12
 70
     1
102
RTVSPropertyOp13
 70
     1
102
RTVSPropertyOp14
 70
     1
102
RTVSPropertyOp15
 70
     1
102
RTVSPropertyOp16
 70
     1
102
RTVSPropertyOp17
 70
     1
102
RTVSPropertyOp18
 70
     1
102
RTVSPropertyOp19
 70
     1
102
RTVSPropertyOp20
 70
     1
102
RTVSPropertyOp21
 70
     1
102
RTVSPropertyOp22
 70
     1
102
RTVSPropertyOp23
 70
     1
102
RTVSPropertyOp24
 70
     1
102
RTVSPropertyOp25
 70
     1
102
RTVSPropertyOp26
 70
     1
102
RTVSPropertyOp27
 70
     1
102
RTVSPropertyOp28
 70
     1
102
RTVSPropertyOp29
 70
     1
102
RTVSPropertyOp30
 70
     1
102
RTVSPropertyOp31
 70
     1
102
RTVSPropertyOp32
 70
     1
102
RTVSPropertyOp33
 70
     1
102
RTVSPropertyOp34
 70
     1
102
RTVSPropertyOp35
 70
     1
102
RTVSPropertyOp36
 70
     1
102
RTVSPropertyOp37
 70
     1
102
RTVSPropertyOp38
 70
     1
102
RTVSPropertyOp39
 70
     1
102
RTVSPropertyOp40
 70
     1
102
RTVSPropertyOp41
 70
     1
102
RTVSPropertyOp42
 70
     1
102
RTVSPropertyOp43
 70
     1
102
RTVSPropertyOp44
 70
     1
102
RTVSPropertyOp45
 70
     1
102
RTVSPropertyOp46
 70
     1
102
RTVSPropertyOp47
 70
     1
102
RTVSPropertyOp48
 70
     1
102
RTVSPropertyOp49
 70
     1
102
RTVSPropertyOp50
 70
     1
102
RTVSPropertyOp51
 70
     0
102
RTVSPropertyOp52
 70
     0
102
RTVSPropertyOp53
 70
     1
102
RTVSPropertyOp54
 70
     1
102
RTVSPropertyOp55
 70
     1
102
RTVSPropertyOp56
 70
     1
102
RTVSPropertyOp57
 70
     1
102
RTVSPropertyOp58
 70
     1
102
RTVSPropertyOp59
 70
     1
102
RTVSPropertyOp60
 70
     1
102
RTVSPropertyOp61
 70
     1
102
RTVSPropertyOp62
 70
     1
  0
XRECORD
  5
14D42
102
{ACAD_REACTORS
330
14D41
102
}
330
14D41
100
AcDbXrecord
280
     1
102
RTVSPost2010Prop28
280
     0
102
RTVSPost2010PropOp28
 70
     1
102
RTVSPost2010Prop29
280
     1
102
RTVSPost2010PropOp29
 70
     1
102
RTVSPost2010Prop30
280
     1
102
RTVSPost2010PropOp30
 70
     1
102
RTVSPost2010Prop31
280
     0
102
RTVSPost2010PropOp31
 70
     1
102
RTVSPost2010Prop32
280
     0
102
RTVSPost2010PropOp32
 70
     1
102
RTVSPost2010Prop33
280
     0
102
RTVSPost2010PropOp33
 70
     1
102
RTVSPost2010Prop34
280
     0
102
RTVSPost2010PropOp34
 70
     1
102
RTVSPost2010Prop35
280
     0
102
RTVSPost2010PropOp35
 70
     1
102
RTVSPost2010Prop36
280
     0
102
RTVSPost2010PropOp36
 70
     1
102
RTVSPost2010Prop37
 90
       50
102
RTVSPost2010PropOp37
 70
     1
102
RTVSPost2010Prop38
140
0.0
102
RTVSPost2010PropOp38
 70
     1
102
RTVSPost2010Prop39
140
1.0
102
RTVSPost2010PropOp39
 70
     1
102
RTVSPost2010Prop40
 90
        0
102
RTVSPost2010PropOp40
 70
     1
102
RTVSPost2010Prop41ColorIndex
 90
       18
102
RTVSPost2010Prop41ColorRGB
 90
        0
102
RTVSPost2010PropOp41
 70
     1
102
RTVSPost2010Prop42
 90
       50
102
RTVSPost2010PropOp42
 70
     1
102
RTVSPost2010Prop43
 90
        3
102
RTVSPost2010PropOp43
 70
     1
102
RTVSPost2010Prop44ColorIndex
 90
        5
102
RTVSPost2010Prop44ColorRGB
 90
      255
102
RTVSPost2010PropOp44
 70
     1
102
RTVSPost2010Prop45
280
     0
102
RTVSPost2010PropOp45
 70
     1
102
RTVSPost2010Prop46
 90
       50
102
RTVSPost2010PropOp46
 70
     1
102
RTVSPost2010Prop47
 90
       50
102
RTVSPost2010PropOp47
 70
     1
102
RTVSPost2010Prop48
 90
       50
102
RTVSPost2010PropOp48
 70
     1
102
RTVSPost2010Prop49
280
     0
102
RTVSPost2010PropOp49
 70
     1
102
RTVSPost2010Prop50
 90
       50
102
RTVSPost2010PropOp50
 70
     1
102
RTVSPost2010Prop51ColorIndex
 90
      256
102
RTVSPost2010Prop51ColorRGB
 90
-16777216
102
RTVSPost2010PropOp51
 70
     0
102
RTVSPost2010Prop52
140
1.0
102
RTVSPost2010PropOp52
 70
     0
102
RTVSPost2010Prop53
 90
        2
102
RTVSPost2010PropOp53
 70
     1
102
RTVSPost2010Prop54
  1
strokes_ogs.tif
102
RTVSPost2010PropOp54
 70
     1
102
RTVSPost2010Prop55
280
     0
102
RTVSPost2010PropOp55
 70
     1
102
RTVSPost2010Prop56
140
1.0
102
RTVSPost2010PropOp56
 70
     1
102
RTVSPost2010Prop57
140
1.0
102
RTVSPost2010PropOp57
 70
     1
102
RTVSPropertyOp0
 70
     1
102
RTVSPropertyOp1
 70
     1
102
RTVSPropertyOp2
 70
     1
102
RTVSPropertyOp3
 70
     1
102
RTVSPropertyOp4
 70
     1
102
RTVSPropertyOp5
 70
     1
102
RTVSPropertyOp6
 70
     1
102
RTVSPropertyOp7
 70
     1
102
RTVSPropertyOp8
 70
     1
102
RTVSPropertyOp9
 70
     1
102
RTVSPropertyOp10
 70
     1
102
RTVSPropertyOp11
 70
     1
102
RTVSPropertyOp12
 70
     1
102
RTVSPropertyOp13
 70
     1
102
RTVSPropertyOp14
 70
     1
102
RTVSPropertyOp15
 70
     1
102
RTVSPropertyOp16
 70
     1
102
RTVSPropertyOp17
 70
     1
102
RTVSPropertyOp18
 70
     1
102
RTVSPropertyOp19
 70
     1
102
RTVSPropertyOp20
 70
     1
102
RTVSPropertyOp21
 70
     1
102
RTVSPropertyOp22
 70
     1
102
RTVSPropertyOp23
 70
     1
102
RTVSPropertyOp24
 70
     1
102
RTVSPropertyOp25
 70
     1
102
RTVSPropertyOp26
 70
     1
102
RTVSPropertyOp27
 70
     1
102
RTVSPropertyOp28
 70
     1
102
RTVSPropertyOp29
 70
     1
102
RTVSPropertyOp30
 70
     1
102
RTVSPropertyOp31
 70
     1
102
RTVSPropertyOp32
 70
     1
102
RTVSPropertyOp33
 70
     1
102
RTVSPropertyOp34
 70
     1
102
RTVSPropertyOp35
 70
     1
102
RTVSPropertyOp36
 70
     1
102
RTVSPropertyOp37
 70
     1
102
RTVSPropertyOp38
 70
     1
102
RTVSPropertyOp39
 70
     1
102
RTVSPropertyOp40
 70
     1
102
RTVSPropertyOp41
 70
     1
102
RTVSPropertyOp42
 70
     1
102
RTVSPropertyOp43
 70
     1
102
RTVSPropertyOp44
 70
     1
102
RTVSPropertyOp45
 70
     1
102
RTVSPropertyOp46
 70
     1
102
RTVSPropertyOp47
 70
     1
102
RTVSPropertyOp48
 70
     1
102
RTVSPropertyOp49
 70
     1
102
RTVSPropertyOp50
 70
     1
102
RTVSPropertyOp51
 70
     0
102
RTVSPropertyOp52
 70
     0
102
RTVSPropertyOp53
 70
     1
102
RTVSPropertyOp54
 70
     1
102
RTVSPropertyOp55
 70
     1
102
RTVSPropertyOp56
 70
     1
102
RTVSPropertyOp57
 70
     1
102
RTVSPropertyOp58
 70
     1
102
RTVSPropertyOp59
 70
     1
102
RTVSPropertyOp60
 70
     1
102
RTVSPropertyOp61
 70
     1
102
RTVSPropertyOp62
 70
     1
  0
XRECORD
  5
14D44
102
{ACAD_REACTORS
330
14D43
102
}
330
14D43
100
AcDbXrecord
280
     1
102
RTVSPost2010Prop28
280
     0
102
RTVSPost2010PropOp28
 70
     1
102
RTVSPost2010Prop29
280
     1
102
RTVSPost2010PropOp29
 70
     1
102
RTVSPost2010Prop30
280
     1
102
RTVSPost2010PropOp30
 70
     1
102
RTVSPost2010Prop31
280
     0
102
RTVSPost2010PropOp31
 70
     1
102
RTVSPost2010Prop32
280
     0
102
RTVSPost2010PropOp32
 70
     1
102
RTVSPost2010Prop33
280
     0
102
RTVSPost2010PropOp33
 70
     1
102
RTVSPost2010Prop34
280
     0
102
RTVSPost2010PropOp34
 70
     1
102
RTVSPost2010Prop35
280
     0
102
RTVSPost2010PropOp35
 70
     1
102
RTVSPost2010Prop36
280
     0
102
RTVSPost2010PropOp36
 70
     1
102
RTVSPost2010Prop37
 90
       50
102
RTVSPost2010PropOp37
 70
     1
102
RTVSPost2010Prop38
140
0.0
102
RTVSPost2010PropOp38
 70
     1
102
RTVSPost2010Prop39
140
1.0
102
RTVSPost2010PropOp39
 70
     1
102
RTVSPost2010Prop40
 90
        0
102
RTVSPost2010PropOp40
 70
     1
102
RTVSPost2010Prop41ColorIndex
 90
       18
102
RTVSPost2010Prop41ColorRGB
 90
        0
102
RTVSPost2010PropOp41
 70
     1
102
RTVSPost2010Prop42
 90
       50
102
RTVSPost2010PropOp42
 70
     1
102
RTVSPost2010Prop43
 90
        3
102
RTVSPost2010PropOp43
 70
     1
102
RTVSPost2010Prop44ColorIndex
 90
        5
102
RTVSPost2010Prop44ColorRGB
 90
      255
102
RTVSPost2010PropOp44
 70
     1
102
RTVSPost2010Prop45
280
     0
102
RTVSPost2010PropOp45
 70
     1
102
RTVSPost2010Prop46
 90
       50
102
RTVSPost2010PropOp46
 70
     1
102
RTVSPost2010Prop47
 90
       50
102
RTVSPost2010PropOp47
 70
     1
102
RTVSPost2010Prop48
 90
       50
102
RTVSPost2010PropOp48
 70
     1
102
RTVSPost2010Prop49
280
     0
102
RTVSPost2010PropOp49
 70
     1
102
RTVSPost2010Prop50
 90
       50
102
RTVSPost2010PropOp50
 70
     1
102
RTVSPost2010Prop51ColorIndex
 90
      256
102
RTVSPost2010Prop51ColorRGB
 90
-16777216
102
RTVSPost2010PropOp51
 70
     0
102
RTVSPost2010Prop52
140
1.0
102
RTVSPost2010PropOp52
 70
     0
102
RTVSPost2010Prop53
 90
        2
102
RTVSPost2010PropOp53
 70
     1
102
RTVSPost2010Prop54
  1
strokes_ogs.tif
102
RTVSPost2010PropOp54
 70
     1
102
RTVSPost2010Prop55
280
     0
102
RTVSPost2010PropOp55
 70
     1
102
RTVSPost2010Prop56
140
1.0
102
RTVSPost2010PropOp56
 70
     1
102
RTVSPost2010Prop57
140
1.0
102
RTVSPost2010PropOp57
 70
     1
102
RTVSPropertyOp0
 70
     1
102
RTVSPropertyOp1
 70
     1
102
RTVSPropertyOp2
 70
     1
102
RTVSPropertyOp3
 70
     1
102
RTVSPropertyOp4
 70
     1
102
RTVSPropertyOp5
 70
     1
102
RTVSPropertyOp6
 70
     1
102
RTVSPropertyOp7
 70
     1
102
RTVSPropertyOp8
 70
     1
102
RTVSPropertyOp9
 70
     1
102
RTVSPropertyOp10
 70
     1
102
RTVSPropertyOp11
 70
     1
102
RTVSPropertyOp12
 70
     1
102
RTVSPropertyOp13
 70
     1
102
RTVSPropertyOp14
 70
     1
102
RTVSPropertyOp15
 70
     1
102
RTVSPropertyOp16
 70
     1
102
RTVSPropertyOp17
 70
     1
102
RTVSPropertyOp18
 70
     1
102
RTVSPropertyOp19
 70
     1
102
RTVSPropertyOp20
 70
     1
102
RTVSPropertyOp21
 70
     1
102
RTVSPropertyOp22
 70
     1
102
RTVSPropertyOp23
 70
     1
102
RTVSPropertyOp24
 70
     1
102
RTVSPropertyOp25
 70
     1
102
RTVSPropertyOp26
 70
     1
102
RTVSPropertyOp27
 70
     1
102
RTVSPropertyOp28
 70
     1
102
RTVSPropertyOp29
 70
     1
102
RTVSPropertyOp30
 70
     1
102
RTVSPropertyOp31
 70
     1
102
RTVSPropertyOp32
 70
     1
102
RTVSPropertyOp33
 70
     1
102
RTVSPropertyOp34
 70
     1
102
RTVSPropertyOp35
 70
     1
102
RTVSPropertyOp36
 70
     1
102
RTVSPropertyOp37
 70
     1
102
RTVSPropertyOp38
 70
     1
102
RTVSPropertyOp39
 70
     1
102
RTVSPropertyOp40
 70
     1
102
RTVSPropertyOp41
 70
     1
102
RTVSPropertyOp42
 70
     1
102
RTVSPropertyOp43
 70
     1
102
RTVSPropertyOp44
 70
     1
102
RTVSPropertyOp45
 70
     1
102
RTVSPropertyOp46
 70
     1
102
RTVSPropertyOp47
 70
     1
102
RTVSPropertyOp48
 70
     1
102
RTVSPropertyOp49
 70
     1
102
RTVSPropertyOp50
 70
     1
102
RTVSPropertyOp51
 70
     0
102
RTVSPropertyOp52
 70
     0
102
RTVSPropertyOp53
 70
     1
102
RTVSPropertyOp54
 70
     1
102
RTVSPropertyOp55
 70
     1
102
RTVSPropertyOp56
 70
     1
102
RTVSPropertyOp57
 70
     1
102
RTVSPropertyOp58
 70
     1
102
RTVSPropertyOp59
 70
     1
102
RTVSPropertyOp60
 70
     1
102
RTVSPropertyOp61
 70
     1
102
RTVSPropertyOp62
 70
     1
  0
XRECORD
  5
14D31
102
{ACAD_REACTORS
330
14D30
102
}
330
14D30
100
AcDbXrecord
280
     1
102
RTVSPost2010Prop28
280
     0
102
RTVSPost2010PropOp28
 70
     1
102
RTVSPost2010Prop29
280
     1
102
RTVSPost2010PropOp29
 70
     1
102
RTVSPost2010Prop30
280
     1
102
RTVSPost2010PropOp30
 70
     1
102
RTVSPost2010Prop31
280
     0
102
RTVSPost2010PropOp31
 70
     1
102
RTVSPost2010Prop32
280
     0
102
RTVSPost2010PropOp32
 70
     1
102
RTVSPost2010Prop33
280
     0
102
RTVSPost2010PropOp33
 70
     1
102
RTVSPost2010Prop34
280
     0
102
RTVSPost2010PropOp34
 70
     1
102
RTVSPost2010Prop35
280
     0
102
RTVSPost2010PropOp35
 70
     1
102
RTVSPost2010Prop36
280
     0
102
RTVSPost2010PropOp36
 70
     1
102
RTVSPost2010Prop37
 90
       50
102
RTVSPost2010PropOp37
 70
     1
102
RTVSPost2010Prop38
140
0.0
102
RTVSPost2010PropOp38
 70
     1
102
RTVSPost2010Prop39
140
1.0
102
RTVSPost2010PropOp39
 70
     1
102
RTVSPost2010Prop40
 90
        0
102
RTVSPost2010PropOp40
 70
     1
102
RTVSPost2010Prop41ColorIndex
 90
       18
102
RTVSPost2010Prop41ColorRGB
 90
        0
102
RTVSPost2010PropOp41
 70
     1
102
RTVSPost2010Prop42
 90
       50
102
RTVSPost2010PropOp42
 70
     1
102
RTVSPost2010Prop43
 90
        3
102
RTVSPost2010PropOp43
 70
     1
102
RTVSPost2010Prop44ColorIndex
 90
        5
102
RTVSPost2010Prop44ColorRGB
 90
      255
102
RTVSPost2010PropOp44
 70
     1
102
RTVSPost2010Prop45
280
     0
102
RTVSPost2010PropOp45
 70
     1
102
RTVSPost2010Prop46
 90
       50
102
RTVSPost2010PropOp46
 70
     1
102
RTVSPost2010Prop47
 90
       50
102
RTVSPost2010PropOp47
 70
     1
102
RTVSPost2010Prop48
 90
       50
102
RTVSPost2010PropOp48
 70
     1
102
RTVSPost2010Prop49
280
     0
102
RTVSPost2010PropOp49
 70
     1
102
RTVSPost2010Prop50
 90
       50
102
RTVSPost2010PropOp50
 70
     1
102
RTVSPost2010Prop51ColorIndex
 90
      256
102
RTVSPost2010Prop51ColorRGB
 90
-16777216
102
RTVSPost2010PropOp51
 70
     0
102
RTVSPost2010Prop52
140
1.0
102
RTVSPost2010PropOp52
 70
     0
102
RTVSPost2010Prop53
 90
        2
102
RTVSPost2010PropOp53
 70
     1
102
RTVSPost2010Prop54
  1
strokes_ogs.tif
102
RTVSPost2010PropOp54
 70
     1
102
RTVSPost2010Prop55
280
     0
102
RTVSPost2010PropOp55
 70
     1
102
RTVSPost2010Prop56
140
1.0
102
RTVSPost2010PropOp56
 70
     1
102
RTVSPost2010Prop57
140
1.0
102
RTVSPost2010PropOp57
 70
     1
102
RTVSPropertyOp0
 70
     1
102
RTVSPropertyOp1
 70
     1
102
RTVSPropertyOp2
 70
     1
102
RTVSPropertyOp3
 70
     1
102
RTVSPropertyOp4
 70
     1
102
RTVSPropertyOp5
 70
     1
102
RTVSPropertyOp6
 70
     1
102
RTVSPropertyOp7
 70
     1
102
RTVSPropertyOp8
 70
     1
102
RTVSPropertyOp9
 70
     1
102
RTVSPropertyOp10
 70
     1
102
RTVSPropertyOp11
 70
     1
102
RTVSPropertyOp12
 70
     1
102
RTVSPropertyOp13
 70
     1
102
RTVSPropertyOp14
 70
     1
102
RTVSPropertyOp15
 70
     1
102
RTVSPropertyOp16
 70
     1
102
RTVSPropertyOp17
 70
     1
102
RTVSPropertyOp18
 70
     1
102
RTVSPropertyOp19
 70
     1
102
RTVSPropertyOp20
 70
     1
102
RTVSPropertyOp21
 70
     1
102
RTVSPropertyOp22
 70
     1
102
RTVSPropertyOp23
 70
     1
102
RTVSPropertyOp24
 70
     1
102
RTVSPropertyOp25
 70
     1
102
RTVSPropertyOp26
 70
     1
102
RTVSPropertyOp27
 70
     1
102
RTVSPropertyOp28
 70
     1
102
RTVSPropertyOp29
 70
     1
102
RTVSPropertyOp30
 70
     1
102
RTVSPropertyOp31
 70
     1
102
RTVSPropertyOp32
 70
     1
102
RTVSPropertyOp33
 70
     1
102
RTVSPropertyOp34
 70
     1
102
RTVSPropertyOp35
 70
     1
102
RTVSPropertyOp36
 70
     1
102
RTVSPropertyOp37
 70
     1
102
RTVSPropertyOp38
 70
     1
102
RTVSPropertyOp39
 70
     1
102
RTVSPropertyOp40
 70
     1
102
RTVSPropertyOp41
 70
     1
102
RTVSPropertyOp42
 70
     1
102
RTVSPropertyOp43
 70
     1
102
RTVSPropertyOp44
 70
     1
102
RTVSPropertyOp45
 70
     1
102
RTVSPropertyOp46
 70
     1
102
RTVSPropertyOp47
 70
     1
102
RTVSPropertyOp48
 70
     1
102
RTVSPropertyOp49
 70
     1
102
RTVSPropertyOp50
 70
     1
102
RTVSPropertyOp51
 70
     0
102
RTVSPropertyOp52
 70
     0
102
RTVSPropertyOp53
 70
     1
102
RTVSPropertyOp54
 70
     1
102
RTVSPropertyOp55
 70
     1
102
RTVSPropertyOp56
 70
     1
102
RTVSPropertyOp57
 70
     1
102
RTVSPropertyOp58
 70
     1
102
RTVSPropertyOp59
 70
     1
102
RTVSPropertyOp60
 70
     1
102
RTVSPropertyOp61
 70
     1
102
RTVSPropertyOp62
 70
     1
  0
XRECORD
  5
14D3E
102
{ACAD_REACTORS
330
14D3D
102
}
330
14D3D
100
AcDbXrecord
280
     1
102
RTVSPost2010Prop28
280
     0
102
RTVSPost2010PropOp28
 70
     1
102
RTVSPost2010Prop29
280
     1
102
RTVSPost2010PropOp29
 70
     1
102
RTVSPost2010Prop30
280
     1
102
RTVSPost2010PropOp30
 70
     1
102
RTVSPost2010Prop31
280
     0
102
RTVSPost2010PropOp31
 70
     1
102
RTVSPost2010Prop32
280
     0
102
RTVSPost2010PropOp32
 70
     1
102
RTVSPost2010Prop33
280
     0
102
RTVSPost2010PropOp33
 70
     1
102
RTVSPost2010Prop34
280
     0
102
RTVSPost2010PropOp34
 70
     1
102
RTVSPost2010Prop35
280
     0
102
RTVSPost2010PropOp35
 70
     1
102
RTVSPost2010Prop36
280
     0
102
RTVSPost2010PropOp36
 70
     1
102
RTVSPost2010Prop37
 90
       50
102
RTVSPost2010PropOp37
 70
     1
102
RTVSPost2010Prop38
140
0.0
102
RTVSPost2010PropOp38
 70
     1
102
RTVSPost2010Prop39
140
1.0
102
RTVSPost2010PropOp39
 70
     1
102
RTVSPost2010Prop40
 90
        0
102
RTVSPost2010PropOp40
 70
     1
102
RTVSPost2010Prop41ColorIndex
 90
       18
102
RTVSPost2010Prop41ColorRGB
 90
        0
102
RTVSPost2010PropOp41
 70
     1
102
RTVSPost2010Prop42
 90
       50
102
RTVSPost2010PropOp42
 70
     1
102
RTVSPost2010Prop43
 90
        3
102
RTVSPost2010PropOp43
 70
     1
102
RTVSPost2010Prop44ColorIndex
 90
        5
102
RTVSPost2010Prop44ColorRGB
 90
      255
102
RTVSPost2010PropOp44
 70
     1
102
RTVSPost2010Prop45
280
     0
102
RTVSPost2010PropOp45
 70
     1
102
RTVSPost2010Prop46
 90
       50
102
RTVSPost2010PropOp46
 70
     1
102
RTVSPost2010Prop47
 90
       50
102
RTVSPost2010PropOp47
 70
     1
102
RTVSPost2010Prop48
 90
       50
102
RTVSPost2010PropOp48
 70
     1
102
RTVSPost2010Prop49
280
     0
102
RTVSPost2010PropOp49
 70
     1
102
RTVSPost2010Prop50
 90
       50
102
RTVSPost2010PropOp50
 70
     1
102
RTVSPost2010Prop51ColorIndex
 90
      256
102
RTVSPost2010Prop51ColorRGB
 90
-16777216
102
RTVSPost2010PropOp51
 70
     0
102
RTVSPost2010Prop52
140
1.0
102
RTVSPost2010PropOp52
 70
     0
102
RTVSPost2010Prop53
 90
        2
102
RTVSPost2010PropOp53
 70
     1
102
RTVSPost2010Prop54
  1
strokes_ogs.tif
102
RTVSPost2010PropOp54
 70
     1
102
RTVSPost2010Prop55
280
     0
102
RTVSPost2010PropOp55
 70
     1
102
RTVSPost2010Prop56
140
1.0
102
RTVSPost2010PropOp56
 70
     1
102
RTVSPost2010Prop57
140
1.0
102
RTVSPost2010PropOp57
 70
     1
102
RTVSPropertyOp0
 70
     1
102
RTVSPropertyOp1
 70
     1
102
RTVSPropertyOp2
 70
     1
102
RTVSPropertyOp3
 70
     1
102
RTVSPropertyOp4
 70
     1
102
RTVSPropertyOp5
 70
     1
102
RTVSPropertyOp6
 70
     1
102
RTVSPropertyOp7
 70
     1
102
RTVSPropertyOp8
 70
     1
102
RTVSPropertyOp9
 70
     1
102
RTVSPropertyOp10
 70
     1
102
RTVSPropertyOp11
 70
     1
102
RTVSPropertyOp12
 70
     1
102
RTVSPropertyOp13
 70
     1
102
RTVSPropertyOp14
 70
     1
102
RTVSPropertyOp15
 70
     1
102
RTVSPropertyOp16
 70
     1
102
RTVSPropertyOp17
 70
     1
102
RTVSPropertyOp18
 70
     1
102
RTVSPropertyOp19
 70
     1
102
RTVSPropertyOp20
 70
     1
102
RTVSPropertyOp21
 70
     1
102
RTVSPropertyOp22
 70
     1
102
RTVSPropertyOp23
 70
     1
102
RTVSPropertyOp24
 70
     1
102
RTVSPropertyOp25
 70
     1
102
RTVSPropertyOp26
 70
     1
102
RTVSPropertyOp27
 70
     1
102
RTVSPropertyOp28
 70
     1
102
RTVSPropertyOp29
 70
     1
102
RTVSPropertyOp30
 70
     1
102
RTVSPropertyOp31
 70
     1
102
RTVSPropertyOp32
 70
     1
102
RTVSPropertyOp33
 70
     1
102
RTVSPropertyOp34
 70
     1
102
RTVSPropertyOp35
 70
     1
102
RTVSPropertyOp36
 70
     1
102
RTVSPropertyOp37
 70
     1
102
RTVSPropertyOp38
 70
     1
102
RTVSPropertyOp39
 70
     1
102
RTVSPropertyOp40
 70
     1
102
RTVSPropertyOp41
 70
     1
102
RTVSPropertyOp42
 70
     1
102
RTVSPropertyOp43
 70
     1
102
RTVSPropertyOp44
 70
     1
102
RTVSPropertyOp45
 70
     1
102
RTVSPropertyOp46
 70
     1
102
RTVSPropertyOp47
 70
     1
102
RTVSPropertyOp48
 70
     1
102
RTVSPropertyOp49
 70
     1
102
RTVSPropertyOp50
 70
     1
102
RTVSPropertyOp51
 70
     0
102
RTVSPropertyOp52
 70
     0
102
RTVSPropertyOp53
 70
     1
102
RTVSPropertyOp54
 70
     1
102
RTVSPropertyOp55
 70
     1
102
RTVSPropertyOp56
 70
     1
102
RTVSPropertyOp57
 70
     1
102
RTVSPropertyOp58
 70
     1
102
RTVSPropertyOp59
 70
     1
102
RTVSPropertyOp60
 70
     1
102
RTVSPropertyOp61
 70
     1
102
RTVSPropertyOp62
 70
     1
  0
XRECORD
  5
14D46
102
{ACAD_REACTORS
330
14D45
102
}
330
14D45
100
AcDbXrecord
280
     1
102
RTVSPost2010Prop28
280
     0
102
RTVSPost2010PropOp28
 70
     1
102
RTVSPost2010Prop29
280
     1
102
RTVSPost2010PropOp29
 70
     1
102
RTVSPost2010Prop30
280
     1
102
RTVSPost2010PropOp30
 70
     1
102
RTVSPost2010Prop31
280
     0
102
RTVSPost2010PropOp31
 70
     1
102
RTVSPost2010Prop32
280
     0
102
RTVSPost2010PropOp32
 70
     1
102
RTVSPost2010Prop33
280
     0
102
RTVSPost2010PropOp33
 70
     1
102
RTVSPost2010Prop34
280
     0
102
RTVSPost2010PropOp34
 70
     1
102
RTVSPost2010Prop35
280
     0
102
RTVSPost2010PropOp35
 70
     1
102
RTVSPost2010Prop36
280
     0
102
RTVSPost2010PropOp36
 70
     1
102
RTVSPost2010Prop37
 90
       50
102
RTVSPost2010PropOp37
 70
     1
102
RTVSPost2010Prop38
140
0.0
102
RTVSPost2010PropOp38
 70
     1
102
RTVSPost2010Prop39
140
1.0
102
RTVSPost2010PropOp39
 70
     1
102
RTVSPost2010Prop40
 90
        0
102
RTVSPost2010PropOp40
 70
     1
102
RTVSPost2010Prop41ColorIndex
 90
       18
102
RTVSPost2010Prop41ColorRGB
 90
        0
102
RTVSPost2010PropOp41
 70
     1
102
RTVSPost2010Prop42
 90
       50
102
RTVSPost2010PropOp42
 70
     1
102
RTVSPost2010Prop43
 90
        3
102
RTVSPost2010PropOp43
 70
     1
102
RTVSPost2010Prop44ColorIndex
 90
        5
102
RTVSPost2010Prop44ColorRGB
 90
      255
102
RTVSPost2010PropOp44
 70
     1
102
RTVSPost2010Prop45
280
     0
102
RTVSPost2010PropOp45
 70
     1
102
RTVSPost2010Prop46
 90
       50
102
RTVSPost2010PropOp46
 70
     1
102
RTVSPost2010Prop47
 90
       50
102
RTVSPost2010PropOp47
 70
     1
102
RTVSPost2010Prop48
 90
       50
102
RTVSPost2010PropOp48
 70
     1
102
RTVSPost2010Prop49
280
     0
102
RTVSPost2010PropOp49
 70
     1
102
RTVSPost2010Prop50
 90
       50
102
RTVSPost2010PropOp50
 70
     1
102
RTVSPost2010Prop51ColorIndex
 90
      256
102
RTVSPost2010Prop51ColorRGB
 90
-16777216
102
RTVSPost2010PropOp51
 70
     0
102
RTVSPost2010Prop52
140
1.0
102
RTVSPost2010PropOp52
 70
     0
102
RTVSPost2010Prop53
 90
        2
102
RTVSPost2010PropOp53
 70
     1
102
RTVSPost2010Prop54
  1
strokes_ogs.tif
102
RTVSPost2010PropOp54
 70
     1
102
RTVSPost2010Prop55
280
     0
102
RTVSPost2010PropOp55
 70
     1
102
RTVSPost2010Prop56
140
1.0
102
RTVSPost2010PropOp56
 70
     1
102
RTVSPost2010Prop57
140
1.0
102
RTVSPost2010PropOp57
 70
     1
102
RTVSPropertyOp0
 70
     1
102
RTVSPropertyOp1
 70
     1
102
RTVSPropertyOp2
 70
     1
102
RTVSPropertyOp3
 70
     1
102
RTVSPropertyOp4
 70
     1
102
RTVSPropertyOp5
 70
     1
102
RTVSPropertyOp6
 70
     1
102
RTVSPropertyOp7
 70
     1
102
RTVSPropertyOp8
 70
     1
102
RTVSPropertyOp9
 70
     1
102
RTVSPropertyOp10
 70
     1
102
RTVSPropertyOp11
 70
     1
102
RTVSPropertyOp12
 70
     1
102
RTVSPropertyOp13
 70
     1
102
RTVSPropertyOp14
 70
     1
102
RTVSPropertyOp15
 70
     1
102
RTVSPropertyOp16
 70
     1
102
RTVSPropertyOp17
 70
     1
102
RTVSPropertyOp18
 70
     1
102
RTVSPropertyOp19
 70
     1
102
RTVSPropertyOp20
 70
     1
102
RTVSPropertyOp21
 70
     1
102
RTVSPropertyOp22
 70
     1
102
RTVSPropertyOp23
 70
     1
102
RTVSPropertyOp24
 70
     1
102
RTVSPropertyOp25
 70
     1
102
RTVSPropertyOp26
 70
     1
102
RTVSPropertyOp27
 70
     1
102
RTVSPropertyOp28
 70
     1
102
RTVSPropertyOp29
 70
     1
102
RTVSPropertyOp30
 70
     1
102
RTVSPropertyOp31
 70
     1
102
RTVSPropertyOp32
 70
     1
102
RTVSPropertyOp33
 70
     1
102
RTVSPropertyOp34
 70
     1
102
RTVSPropertyOp35
 70
     1
102
RTVSPropertyOp36
 70
     1
102
RTVSPropertyOp37
 70
     1
102
RTVSPropertyOp38
 70
     1
102
RTVSPropertyOp39
 70
     1
102
RTVSPropertyOp40
 70
     1
102
RTVSPropertyOp41
 70
     1
102
RTVSPropertyOp42
 70
     1
102
RTVSPropertyOp43
 70
     1
102
RTVSPropertyOp44
 70
     1
102
RTVSPropertyOp45
 70
     1
102
RTVSPropertyOp46
 70
     1
102
RTVSPropertyOp47
 70
     1
102
RTVSPropertyOp48
 70
     1
102
RTVSPropertyOp49
 70
     1
102
RTVSPropertyOp50
 70
     1
102
RTVSPropertyOp51
 70
     0
102
RTVSPropertyOp52
 70
     0
102
RTVSPropertyOp53
 70
     1
102
RTVSPropertyOp54
 70
     1
102
RTVSPropertyOp55
 70
     1
102
RTVSPropertyOp56
 70
     1
102
RTVSPropertyOp57
 70
     1
102
RTVSPropertyOp58
 70
     1
102
RTVSPropertyOp59
 70
     1
102
RTVSPropertyOp60
 70
     1
102
RTVSPropertyOp61
 70
     1
102
RTVSPropertyOp62
 70
     1
  0
XRECORD
  5
487A
102
{ACAD_REACTORS
330
4879
102
}
330
4879
100
AcDbXrecord
280
     1
330
1736
  0
ENDSEC
  0
EOF
