  0
SECTION
  2
HEADER
  9
$ACADVER
  1
AC1015
  9
$ACADMAINTVER
 70
    20
  9
$DWGCODEPAGE
  3
ANSI_932
  9
$INSBASE
 10
0.0
 20
0.0
 30
0.0
  9
$EXTMIN
 10
0.2965839632051939
 20
-166.6533494198488
 30
-0.0000000349181948
  9
$EXTMAX
 10
991.8508052149173
 20
1258.970002139089
 30
0.0000000814935747
  9
$LIMMIN
 10
0.0
 20
0.0
  9
$LIMMAX
 10
420.0
 20
297.0
  9
$ORTHOMODE
 70
     0
  9
$REGENMODE
 70
     1
  9
$FILLMODE
 70
     1
  9
$QTEXTMODE
 70
     0
  9
$MIRRTEXT
 70
     0
  9
$LTSCALE
 40
1.0
  9
$ATTMODE
 70
     1
  9
$TEXTSIZE
 40
2.5
  9
$TRACEWID
 40
1.0
  9
$TEXTSTYLE
  7
STANDARD
  9
$CLAYER
  8
0
  9
$CELTYPE
  6
ByLayer
  9
$CECOLOR
 62
   256
  9
$CELTSCALE
 40
1.0
  9
$DISPSILH
 70
     0
  9
$DIMSCALE
 40
1.0
  9
$DIMASZ
 40
0.18
  9
$DIMEXO
 40
0.0625
  9
$DIMDLI
 40
0.38
  9
$DIMRND
 40
0.0
  9
$DIMDLE
 40
0.0
  9
$DIMEXE
 40
0.18
  9
$DIMTP
 40
0.0
  9
$DIMTM
 40
0.0
  9
$DIMTXT
 40
0.18
  9
$DIMCEN
 40
0.09
  9
$DIMTSZ
 40
0.0
  9
$DIMTOL
 70
     0
  9
$DIMLIM
 70
     0
  9
$DIMTIH
 70
     1
  9
$DIMTOH
 70
     1
  9
$DIMSE1
 70
     0
  9
$DIMSE2
 70
     0
  9
$DIMTAD
 70
     0
  9
$DIMZIN
 70
     0
  9
$DIMBLK
  1

  9
$DIMASO
 70
     1
  9
$DIMSHO
 70
     1
  9
$DIMPOST
  1

  9
$DIMAPOST
  1

  9
$DIMALT
 70
     0
  9
$DIMALTD
 70
     2
  9
$DIMALTF
 40
25.4
  9
$DIMLFAC
 40
1.0
  9
$DIMTOFL
 70
     0
  9
$DIMTVP
 40
0.0
  9
$DIMTIX
 70
     0
  9
$DIMSOXD
 70
     0
  9
$DIMSAH
 70
     0
  9
$DIMBLK1
  1

  9
$DIMBLK2
  1

  9
$DIMSTYLE
  2
Standard
  9
$DIMCLRD
 70
     0
  9
$DIMCLRE
 70
     0
  9
$DIMCLRT
 70
     0
  9
$DIMTFAC
 40
1.0
  9
$DIMGAP
 40
0.09
  9
$DIMJUST
 70
     0
  9
$DIMSD1
 70
     0
  9
$DIMSD2
 70
     0
  9
$DIMTOLJ
 70
     1
  9
$DIMTZIN
 70
     0
  9
$DIMALTZ
 70
     0
  9
$DIMALTTZ
 70
     0
  9
$DIMUPT
 70
     0
  9
$DIMDEC
 70
     4
  9
$DIMTDEC
 70
     4
  9
$DIMALTU
 70
     2
  9
$DIMALTTD
 70
     2
  9
$DIMTXSTY
  7
STANDARD
  9
$DIMAUNIT
 70
     0
  9
$DIMADEC
 70
     0
  9
$DIMALTRND
 40
0.0
  9
$DIMAZIN
 70
     0
  9
$DIMDSEP
 70
    46
  9
$DIMATFIT
 70
     3
  9
$DIMFRAC
 70
     0
  9
$DIMLDRBLK
  1

  9
$DIMLUNIT
 70
     2
  9
$DIMLWD
 70
    -2
  9
$DIMLWE
 70
    -2
  9
$DIMTMOVE
 70
     0
  9
$LUNITS
 70
     2
  9
$LUPREC
 70
     2
  9
$SKETCHINC
 40
1.0
  9
$FILLETRAD
 40
0.0
  9
$AUNITS
 70
     0
  9
$AUPREC
 70
     0
  9
$MENU
  1
.
  9
$ELEVATION
 40
0.0
  9
$PELEVATION
 40
0.0
  9
$THICKNESS
 40
0.0
  9
$LIMCHECK
 70
     0
  9
$CHAMFERA
 40
1.0
  9
$CHAMFERB
 40
1.0
  9
$CHAMFERC
 40
0.0
  9
$CHAMFERD
 40
0.0
  9
$SKPOLY
 70
     0
  9
$TDCREATE
 40
2455511.397581736
  9
$TDUCREATE
 40
2455511.022581736
  9
$TDUPDATE
 40
2456669.451482998
  9
$TDUUPDATE
 40
2456669.076482998
  9
$TDINDWG
 40
1.1778786227
  9
$TDUSRTIMER
 40
1.1778781713
  9
$USRTIMER
 70
     1
  9
$ANGBASE
 50
0.0
  9
$ANGDIR
 70
     0
  9
$PDMODE
 70
    35
  9
$PDSIZE
 40
3.0
  9
$PLINEWID
 40
0.0
  9
$SPLFRAME
 70
     0
  9
$SPLINETYPE
 70
     6
  9
$SPLINESEGS
 70
     8
  9
$HANDSEED
  5
EF2F
  9
$SURFTAB1
 70
     6
  9
$SURFTAB2
 70
     6
  9
$SURFTYPE
 70
     6
  9
$SURFU
 70
     6
  9
$SURFV
 70
     6
  9
$UCSBASE
  2

  9
$UCSNAME
  2

  9
$UCSORG
 10
0.0
 20
0.0
 30
0.0
  9
$UCSXDIR
 10
1.0
 20
0.0
 30
0.0
  9
$UCSYDIR
 10
0.0
 20
1.0
 30
0.0
  9
$UCSORTHOREF
  2

  9
$UCSORTHOVIEW
 70
     0
  9
$UCSORGTOP
 10
0.0
 20
0.0
 30
0.0
  9
$UCSORGBOTTOM
 10
0.0
 20
0.0
 30
0.0
  9
$UCSORGLEFT
 10
0.0
 20
0.0
 30
0.0
  9
$UCSORGRIGHT
 10
0.0
 20
0.0
 30
0.0
  9
$UCSORGFRONT
 10
0.0
 20
0.0
 30
0.0
  9
$UCSORGBACK
 10
0.0
 20
0.0
 30
0.0
  9
$PUCSBASE
  2

  9
$PUCSNAME
  2

  9
$PUCSORG
 10
0.0
 20
0.0
 30
0.0
  9
$PUCSXDIR
 10
1.0
 20
0.0
 30
0.0
  9
$PUCSYDIR
 10
0.0
 20
1.0
 30
0.0
  9
$PUCSORTHOREF
  2

  9
$PUCSORTHOVIEW
 70
     0
  9
$PUCSORGTOP
 10
0.0
 20
0.0
 30
0.0
  9
$PUCSORGBOTTOM
 10
0.0
 20
0.0
 30
0.0
  9
$PUCSORGLEFT
 10
0.0
 20
0.0
 30
0.0
  9
$PUCSORGRIGHT
 10
0.0
 20
0.0
 30
0.0
  9
$PUCSORGFRONT
 10
0.0
 20
0.0
 30
0.0
  9
$PUCSORGBACK
 10
0.0
 20
0.0
 30
0.0
  9
$USERI1
 70
     0
  9
$USERI2
 70
     0
  9
$USERI3
 70
     0
  9
$USERI4
 70
     0
  9
$USERI5
 70
     0
  9
$USERR1
 40
0.0
  9
$USERR2
 40
0.0
  9
$USERR3
 40
0.0
  9
$USERR4
 40
0.0
  9
$USERR5
 40
0.0
  9
$WORLDVIEW
 70
     1
  9
$SHADEDGE
 70
     3
  9
$SHADEDIF
 70
    70
  9
$TILEMODE
 70
     1
  9
$MAXACTVP
 70
    64
  9
$PINSBASE
 10
0.0
 20
0.0
 30
0.0
  9
$PLIMCHECK
 70
     0
  9
$PEXTMIN
 10
0.0
 20
0.0
 30
0.0
  9
$PEXTMAX
 10
0.0
 20
0.0
 30
0.0
  9
$PLIMMIN
 10
0.0
 20
0.0
  9
$PLIMMAX
 10
12.0
 20
9.0
  9
$UNITMODE
 70
     0
  9
$VISRETAIN
 70
     1
  9
$PLINEGEN
 70
     0
  9
$PSLTSCALE
 70
     1
  9
$TREEDEPTH
 70
  3020
  9
$CMLSTYLE
  2
Standard
  9
$CMLJUST
 70
     0
  9
$CMLSCALE
 40
20.0
  9
$PROXYGRAPHICS
 70
     1
  9
$MEASUREMENT
 70
     1
  9
$CELWEIGHT
370
    -1
  9
$ENDCAPS
280
     0
  9
$JOINSTYLE
280
     0
  9
$LWDISPLAY
290
     0
  9
$INSUNITS
 70
     4
  9
$HYPERLINKBASE
  1

  9
$STYLESHEET
  1

  9
$XEDIT
290
     1
  9
$CEPSNTYPE
380
     0
  9
$PSTYLEMODE
290
     1
  9
$FINGERPRINTGUID
  2
{424FBBB5-6F81-44E9-9287-7325E6FF38EA}
  9
$VERSIONGUID
  2
{A634A227-7F5E-45C3-8FED-66A5304B528D}
  9
$EXTNAMES
290
     1
  9
$PSVPSCALE
 40
0.0
  9
$OLESTARTUP
290
     0
  0
ENDSEC
  0
SECTION
  2
CLASSES
  0
CLASS
  1
ACDBDICTIONARYWDFLT
  2
AcDbDictionaryWithDefault
  3
ObjectDBX Classes
 90
        0
280
     0
281
     0
  0
CLASS
  1
MATERIAL
  2
AcDbMaterial
  3
ObjectDBX Classes
 90
     1153
280
     0
281
     0
  0
CLASS
  1
VISUALSTYLE
  2
AcDbVisualStyle
  3
ObjectDBX Classes
 90
     4095
280
     0
281
     0
  0
CLASS
  1
TABLESTYLE
  2
AcDbTableStyle
  3
ObjectDBX Classes
 90
     4095
280
     0
281
     0
  0
CLASS
  1
AMGSETTINGSOBJ
  2
AmgSettingsObj
  3
"AcadM|Product Description: AutoCAD Mechanical|Company: Autodesk, Inc."
 90
     1024
280
     0
281
     0
  0
CLASS
  1
ACME_DOCUMENT
  2
AcMeDbDoc
  3
AcMeServices
 90
     1024
280
     0
281
     0
  0
CLASS
  1
ACMESCOPE
  2
AcMeScope
  3
AcMeServices
 90
     1024
280
     0
281
     0
  0
CLASS
  1
ACMECOMMANDHISTORY
  2
AcMeCommandHistory
  3
AcMeServices
 90
     1024
280
     0
281
     0
  0
CLASS
  1
ACIMSYSVARMAN
  2
AcImSysVarManager
  3
AcMeServices
 90
     1024
280
     0
281
     0
  0
CLASS
  1
ACIMINTSYSVAR
  2
AcImIntSysVar
  3
AcMeServices
 90
     1024
280
     0
281
     0
  0
CLASS
  1
ACMEDRAWINGMAN
  2
AcMeDrawingMan
  3
AcMeServices
 90
    33792
280
     0
281
     0
  0
CLASS
  1
ACMEVIEW
  2
AcMeView
  3
AcMeServices
 90
    33792
280
     0
281
     0
  0
CLASS
  1
ACDBENTITYCACHE
  2
AcMeEntityCache
  3
AcMeServices
 90
     1024
280
     0
281
     0
  0
CLASS
  1
GSMANAGER
  2
AcMeGSManager
  3
AcMeServices
 90
    33792
280
     0
281
     0
  0
CLASS
  1
AMDTINTERNALREACTOR
  2
AmdtInternalReactor
  3
AcMeServices
 90
    33792
280
     0
281
     0
  0
CLASS
  1
ACMESTATEMGR
  2
AcMeStateMgr
  3
AcMeServices
 90
     1024
280
     0
281
     0
  0
CLASS
  1
ACGREFMASTER
  2
AcGrefMaster
  3
AcAttribServices
 90
     1024
280
     0
281
     0
  0
CLASS
  1
AM_DRAWING_MGR
  2
AcDmDwgMgr
  3
AcMechDwgViewMgmt
 90
    33792
280
     0
281
     0
  0
CLASS
  1
AM_DWG_DOCUMENT
  2
AcDmDwgDocument
  3
AcMechDwgViewMgmt
 90
    33792
280
     0
281
     0
  0
CLASS
  1
AM_DWG_SHEET
  2
AcDmSheet
  3
AcMechDwgViewMgmt
 90
    33792
280
     0
281
     0
  0
CLASS
  1
AM_VIEWDIMPARMAP
  2
AcDmViewDimParMap
  3
AcMechDwgViewMgmt
 90
    33792
280
     0
281
     0
  0
CLASS
  1
ACIMREALSYSVAR
  2
AcImRealSysVar
  3
AcMeServices
 90
    33792
280
     0
281
     0
  0
CLASS
  1
AM_DWGMGR_NAME
  2
AcDmDwgMgrName
  3
AcMechDwgViewMgmt
 90
    33792
280
     0
281
     0
  0
CLASS
  1
ACME_DATABASE
  2
AcMeDbDatabase
  3
AcMeServices
 90
     1024
280
     0
281
     0
  0
CLASS
  1
ACRFINSADJUSTERMGR
  2
AcRfInsAdjusterMgr
  3
AcMeServices
 90
     1024
280
     0
281
     0
  0
CLASS
  1
ACGREFACADMASTER
  2
AcGrefacadMaster
  3
AcGrefServices
 90
     1024
280
     0
281
     0
  0
CLASS
  1
AMDTMENUSTATEMGR
  2
AmdtMenuStateMgr
  3
McadcomServices
 90
     1024
280
     0
281
     0
  0
CLASS
  1
AMDTMCOMMENUSTATE
  2
AmdtMcomMenuState
  3
McadcomServices
 90
     1024
280
     0
281
     0
  0
CLASS
  1
AMIMASTER
  2
AmiMaster
  3
AmiServices
 90
     1024
280
     0
281
     0
  0
CLASS
  1
MAPIAMMOUDLE
  2
MApiAmModule
  3
MApiAmServices
 90
     1024
280
     0
281
     0
  0
CLASS
  1
ACIMSTRSYSVAR
  2
AcImStrSysVar
  3
AcMeServices
 90
     1024
280
     0
281
     0
  0
CLASS
  1
AMDTADMENUSTATE
  2
AmdtAdMenuState
  3
DesignerServices
 90
    33792
280
     0
281
     0
  0
CLASS
  1
ADAPPL
  2
AcAdAppl
  3
DesignerAssemblies
 90
    33792
280
     0
281
     0
  0
CLASS
  1
DEPMGR
  2
AcAdDepMgr
  3
DesignerAssemblies
 90
    33792
280
     0
281
     0
  0
CLASS
  1
PARAMMGR
  2
AcAdParamMgr
  3
DesignerAssemblies
 90
    33792
280
     0
281
     0
  0
CLASS
  1
PARAMSCOPE
  2
AcAdParamScope
  3
DesignerAssemblies
 90
    33792
280
     0
281
     0
  0
CLASS
  1
NAMEDAPPL
  2
AcAdNamedAppl
  3
DesignerAssemblies
 90
    33792
280
     0
281
     0
  0
CLASS
  1
AMDTDMMENUSTATE
  2
AmdtDmMenuState
  3
AcMechDwgViewMgmt
 90
    33792
280
     0
281
     0
  0
CLASS
  1
AMDTAMMENUSTATE
  2
AmdtAmMenuState
  3
DesignerAssemblies
 90
     1024
280
     0
281
     0
  0
CLASS
  1
ACAMPROJECT
  2
AcAmProject
  3
DesignerAssemblies
 90
     1024
280
     0
281
     0
  0
CLASS
  1
ACAMGRCOMPDEF
  2
AcAmGrCompDef
  3
DesignerAssemblies
 90
     1024
280
     0
281
     0
  0
CLASS
  1
ACCMCONTEXT
  2
AcCmContext
  3
DesignerAssemblies
 90
    33792
280
     0
281
     0
  0
CLASS
  1
ACAMCOMPDEF
  2
AcAmCompDef
  3
DesignerAssemblies
 90
     1024
280
     0
281
     0
  0
CLASS
  1
ACAMCOMPDEFMGR
  2
AcAmCompDefMgr
  3
DesignerAssemblies
 90
     1024
280
     0
281
     0
  0
CLASS
  1
AMCONTEXTMGR
  2
AcAmContextMgr
  3
DesignerAssemblies
 90
     1024
280
     0
281
     0
  0
CLASS
  1
ACAMCONTEXTMODELER
  2
AcAmContextModeler
  3
DesignerAssemblies
 90
     1024
280
     0
281
     0
  0
CLASS
  1
ACMDATADICTIONARY
  2
AcmDataDictionary
  3
"AcmSymBB|Product Description: AutoCAD Mechanical|Company: Autodesk, Inc."
 90
     1024
280
     0
281
     0
  0
CLASS
  1
ACMSTANDARDISO
  2
AcmStandardISO
  3
"Amdt_StdImp|Product Description: AutoCAD Mechanical|Company: Autodesk, Inc."
 90
     1024
280
     0
281
     0
  0
CLASS
  1
AMGOBJPROPCFG
  2
AmgObjPropCfg
  3
"AmgLay|Product Description: AutoCAD Mechanical|Company: Autodesk, Inc."
 90
     1024
280
     0
281
     0
  0
CLASS
  1
AMDTEDGESTANDARDISO13715
  2
AmdtEdgeStdISO13715
  3
"Amdt_StdImp|Product Description: AutoCAD Mechanical|Company: Autodesk, Inc."
 90
     1024
280
     0
281
     0
  0
CLASS
  1
ACMSURFSTANDARDISO
  2
AcmSurfTextStdISO
  3
"Amdt_StdImp|Product Description: AutoCAD Mechanical|Company: Autodesk, Inc."
 90
    33792
280
     0
281
     0
  0
CLASS
  1
ACMFCFSTANDARDISO
  2
AcmFCFStdISO
  3
"Amdt_StdImp|Product Description: AutoCAD Mechanical|Company: Autodesk, Inc."
 90
    33792
280
     0
281
     0
  0
CLASS
  1
ACMWELDSTANDARDISO
  2
AcmWeldingStdISO
  3
"Amdt_StdImp|Product Description: AutoCAD Mechanical|Company: Autodesk, Inc."
 90
     1024
280
     0
281
     0
  0
CLASS
  1
ACMIDSTANDARDISO
  2
AcmIdStdISO
  3
"Amdt_StdImp|Product Description: AutoCAD Mechanical|Company: Autodesk, Inc."
 90
    33792
280
     0
281
     0
  0
CLASS
  1
ACMDATUMSTANDARDISO
  2
AcmDatumStdISO
  3
"Amdt_StdImp|Product Description: AutoCAD Mechanical|Company: Autodesk, Inc."
 90
     1024
280
     0
281
     0
  0
CLASS
  1
ACMBOMSTANDARDISO
  2
AcmBOMStdISO
  3
"Amdt_StdImp|Product Description: AutoCAD Mechanical|Company: Autodesk, Inc."
 90
     1024
280
     0
281
     0
  0
CLASS
  1
ACMDETAILSTANDARDISO
  2
AmdtDetailSymStdISO
  3
"Amdt_StdImp|Product Description: AutoCAD Mechanical|Company: Autodesk, Inc."
 90
     1024
280
     0
281
     0
  0
CLASS
  1
ACMSECTIONSTANDARDISO
  2
AmdtSectionSymStdISO
  3
"Amdt_StdImp|Product Description: AutoCAD Mechanical|Company: Autodesk, Inc."
 90
    33792
280
     0
281
     0
  0
CLASS
  1
ACMCENTERLINESTANDARDISO
  2
AmdtCenterLineStdISO
  3
"Amdt_StdImp|Product Description: AutoCAD Mechanical|Company: Autodesk, Inc."
 90
     1024
280
     0
281
     0
  0
CLASS
  1
ACMTHREADLINESTANDARDISO
  2
AmdtThreadLineStdISO
  3
"Amdt_StdImp|Product Description: AutoCAD Mechanical|Company: Autodesk, Inc."
 90
     1024
280
     0
281
     0
  0
CLASS
  1
ACMNOTESTANDARDISO
  2
AmdtNoteStdISO
  3
"Amdt_StdImp|Product Description: AutoCAD Mechanical|Company: Autodesk, Inc."
 90
     1024
280
     0
281
     0
  0
CLASS
  1
ACMTAPERSTANDARDISO
  2
AcmTaperStdISO
  3
"Amdt_StdImp|Product Description: AutoCAD Mechanical|Company: Autodesk, Inc."
 90
     1024
280
     0
281
     0
  0
CLASS
  1
AMDTNOTETEMPLATEDB
  2
AmdtNoteTemplateDB
  3
AcmSymBB|Product Description: AutoCAD Mechanical|Company: Autodesk, Inc.
 90
     1024
280
     0
281
     0
  0
CLASS
  1
ACAMGLAYSTD
  2
AcAmgLayStd
  3
"AmgLay|Product Description: AutoCAD Mechanical|Company: Autodesk, Inc."
 90
     1024
280
     0
281
     0
  0
CLASS
  1
ACAMGDIMSTD
  2
AcAmgDimStd
  3
"AmgDim|Product Description: AutoCAD Mechanical|Company: Autodesk, Inc."
 90
     1024
280
     0
281
     0
  0
CLASS
  1
ACAMGHOLECHARTSTDISO
  2
AcAmgHoleChartStdISO
  3
AmgDim|Product Description: AutoCAD Mechanical|Company: Autodesk, Inc.
 90
     1024
280
     0
281
     0
  0
CLASS
  1
ACAMGTITLESTD
  2
AcAmgTitleStd
  3
"AmgTitle|Product Description: AutoCAD Mechanical|Company: Autodesk, Inc."
 90
     1024
280
     0
281
     0
  0
CLASS
  1
CATALOGSTATE
  2
AcAmCatalogState
  3
DesignerAssemblies
 90
    33792
280
     0
281
     0
  0
CLASS
  1
ACAMGRCOMPDEFSET
  2
AcAmGrCompDefSet
  3
DesignerAssemblies
 90
     1024
280
     0
281
     0
  0
CLASS
  1
AMDTBROWSERDBTAB
  2
AmdtBrowserDbTab
  3
McadcomServices
 90
     1024
280
     0
281
     0
  0
CLASS
  1
CBROWSERAPPOBJECT
  2
CBrowserAppObject
  3
McadcomServices
 90
     1024
280
     0
281
     0
  0
CLASS
  1
DM_PLACEHOLDER
  2
AcDmSelsetPlaceholder
  3
McadcomServices
 90
     1024
280
     0
281
     0
  0
CLASS
  1
ACAMGFILTERDAT
  2
AcAmgFilterDat
  3
"AcadM|Product Description: AutoCAD Mechanical|Company: Autodesk, Inc."
 90
    33792
280
     0
281
     0
  0
CLASS
  1
CAMSSTRUCTBTNSTATE
  2
StructBtnState
  3
DesignerAssemblies
 90
    33792
280
     0
281
     0
  0
CLASS
  1
DICTIONARYVAR
  2
AcDbDictionaryVar
  3
ObjectDBX Classes
 90
        0
280
     0
281
     0
  0
CLASS
  1
SORTENTSTABLE
  2
AcDbSortentsTable
  3
ObjectDBX Classes
 90
        0
280
     0
281
     0
  0
CLASS
  1
DIMASSOC
  2
AcDbDimAssoc
  3
"AcDbDimAssoc|Product Desc:     AcDim ARX App For Dimension|Company:          Autodesk, Inc.|WEB Address:      www.autodesk.com"
 90
    32768
280
     0
281
     0
  0
CLASS
  1
SCALE
  2
AcDbScale
  3
ObjectDBX Classes
 90
     1153
280
     0
281
     0
  0
CLASS
  1
MLEADERSTYLE
  2
AcDbMLeaderStyle
  3
ACDB_MLEADERSTYLE_CLASS
 90
     4095
280
     0
281
     0
  0
CLASS
  1
ACMANOOTATIONVIEWSTANDARDISO
  2
AmdtAnViewStdISO
  3
"Amdt_StdImp|Product Description: AutoCAD Mechanical|Company: Autodesk, Inc."
 90
     1024
280
     0
281
     0
  0
CLASS
  1
CELLSTYLEMAP
  2
AcDbCellStyleMap
  3
ObjectDBX Classes
 90
     1152
280
     0
281
     0
  0
CLASS
  1
STDPART2D
  2
AmgStdPart
  3
AmgStdPart|Product Description: AutoCAD Mechanical|Company: Autodesk, Inc.
 90
    33792
280
     0
281
     1
  0
CLASS
  1
SUN
  2
AcDbSun
  3
SCENEOE
 90
    33921
280
     0
281
     0
  0
CLASS
  1
MULTILEADER
  2
AcDbMLeader
  3
ACDB_MLEADER_CLASS
 90
    33793
280
     0
281
     1
  0
CLASS
  1
AEC_REFEDIT_STATUS_TRACKER
  2
AecDbRefEditStatusTracker
  3
AecArchBase70|Product Desc: Autodesk Architectural Desktop 2007 |Company: Autodesk,Inc. |WEB Address: www.autodesk.com
 90
    32897
280
     0
281
     0
  0
CLASS
  1
NPOCOLLECTION
  2
AcDbImpNonPersistentObjectsCollection
  3
ObjectDBX Classes
 90
     1153
280
     0
281
     0
  0
CLASS
  1
PLOTSETTINGS
  2
AcDbPlotSettings
  3
ObjectDBX Classes
 90
        0
280
     0
281
     0
  0
CLASS
  1
ACDBSECTIONVIEWSTYLE
  2
AcDbSectionViewStyle
  3
ObjectDBX Classes
 90
     1025
280
     0
281
     0
  0
CLASS
  1
ACDBDETAILVIEWSTYLE
  2
AcDbDetailViewStyle
  3
ObjectDBX Classes
 90
     1025
280
     0
281
     0
  0
CLASS
  1
EXACXREFPANELOBJECT
  2
ExAcXREFPanelObject
  3
EXAC_ESW
 90
     1025
280
     0
281
     0
  0
CLASS
  1
ACMSECTIONSTANDARDCUSTOM
  2
AmdtSectionSymStdCustom
  3
"Amdt_StdImp|Product Description: AutoCAD Mechanical|Company: Autodesk, Inc."
 90
     1024
280
     0
281
     0
  0
CLASS
  1
ACMDETAILTANDARDCUSTOM
  2
AmdtDetailSymStdCustom
  3
"Amdt_StdImp|Product Description: AutoCAD Mechanical|Company: Autodesk, Inc."
 90
     1024
280
     0
281
     0
  0
CLASS
  1
FIELD
  2
AcDbField
  3
ObjectDBX Classes
 90
     1152
280
     0
281
     0
  0
CLASS
  1
FIELDLIST
  2
AcDbFieldList
  3
ObjectDBX Classes
 90
     1152
280
     0
281
     0
  0
CLASS
  1
ACDBPLACEHOLDER
  2
AcDbPlaceHolder
  3
ObjectDBX Classes
 90
        0
280
     0
281
     0
  0
CLASS
  1
LAYOUT
  2
AcDbLayout
  3
ObjectDBX Classes
 90
        0
280
     0
281
     0
  0
CLASS
  1
ACMSURFSTANDARDISO2002
  2
AcmSurfTextStdISO2002
  3
"Amdt_StdImp|Product Description: AutoCAD Mechanical|Company: Autodesk, Inc."
 90
     1024
280
     0
281
     0
  0
CLASS
  1
ACMFCFSTANDARDISO2004
  2
AcmFCFStdISO2004
  3
"Amdt_StdImp|Product Description: AutoCAD Mechanical|Company: Autodesk, Inc."
 90
     1024
280
     0
281
     0
  0
CLASS
  1
ACMIDSTANDARDISO2004
  2
AcmIdStdISO2004
  3
"Amdt_StdImp|Product Description: AutoCAD Mechanical|Company: Autodesk, Inc."
 90
     1024
280
     0
281
     0
  0
CLASS
  1
ACMSECTIONSTANDARDISO2001
  2
AmdtSectionSymStdISO2001
  3
"Amdt_StdImp|Product Description: AutoCAD Mechanical|Company: Autodesk, Inc."
 90
     1024
280
     0
281
     0
  0
ENDSEC
  0
SECTION
  2
TABLES
  0
TABLE
  2
VPORT
  5
8
330
0
100
AcDbSymbolTable
 70
     1
  0
VPORT
  5
28
330
8
100
AcDbSymbolTableRecord
100
AcDbViewportTableRecord
  2
*Active
 70
     0
 10
0.0
 20
0.0
 11
1.0
 21
1.0
 12
496.0736945890613
 22
546.15832635962
 13
0.0
 23
0.0
 14
2.5
 24
2.5
 15
10.0
 25
10.0
 16
0.0
 26
0.0
 36
1.0
 17
0.0
 27
0.0
 37
0.0
 40
1436.382773080137
 41
2.026448362720402
 42
50.0
 43
0.0
 44
0.0
 50
0.0
 51
0.0
 71
     0
 72
  1000
 73
     1
 74
     3
 75
     0
 76
     0
 77
     0
 78
     0
281
     0
 65
     0
110
0.0
120
0.0
130
0.0
111
1.0
121
0.0
131
0.0
112
0.0
122
1.0
132
0.0
 79
     0
146
0.0
1001
ACAD_NAV_VCDISPLAY
1070
     3
  0
ENDTAB
  0
TABLE
  2
LTYPE
  5
5
330
0
100
AcDbSymbolTable
 70
    14
  0
LTYPE
  5
29
330
5
100
AcDbSymbolTableRecord
100
AcDbLinetypeTableRecord
  2
ByBlock
 70
     0
  3

 72
    65
 73
     0
 40
0.0
  0
LTYPE
  5
2A
330
5
100
AcDbSymbolTableRecord
100
AcDbLinetypeTableRecord
  2
ByLayer
 70
     0
  3

 72
    65
 73
     0
 40
0.0
  0
LTYPE
  5
2B
330
5
100
AcDbSymbolTableRecord
100
AcDbLinetypeTableRecord
  2
Continuous
 70
     0
  3
Solid line
 72
    65
 73
     0
 40
0.0
  0
LTYPE
  5
76
330
5
100
AcDbSymbolTableRecord
100
AcDbLinetypeTableRecord
  2
HIDDEN
 70
     0
  3
Hidden __ __ __ __ __ __ __ __ __ __ __ __ __ _
 72
    65
 73
     2
 40
9.524999999999996
 49
6.349999999999997
 74
     0
 49
-3.174999999999998
 74
     0
  0
LTYPE
  5
78
330
5
100
AcDbSymbolTableRecord
100
AcDbLinetypeTableRecord
  2
CENTER
 70
     0
  3
Center ____ _ ____ _ ____ _ ____ _ ____ _ ____
 72
    65
 73
     4
 40
50.8
 49
31.75
 74
     0
 49
-6.349999999999997
 74
     0
 49
6.349999999999997
 74
     0
 49
-6.349999999999997
 74
     0
  0
LTYPE
  5
A4
330
5
100
AcDbSymbolTableRecord
100
AcDbLinetypeTableRecord
  2
AM_ISO02W050
 70
     0
  3
__ __ __ __ __ __ __ __ __ __ __ __ __ __ __
 72
    65
 73
     2
 40
7.5
 49
6.0
 74
     0
 49
-1.5
 74
     0
  0
LTYPE
  5
A5
330
5
100
AcDbSymbolTableRecord
100
AcDbLinetypeTableRecord
  2
AM_ISO08W050
 70
     0
  3
____ . ____ . ____ . ____ . ____ . ____ . ____
 72
    65
 73
     4
 40
18.0
 49
12.0
 74
     0
 49
-1.5
 74
     0
 49
3.0
 74
     0
 49
-1.5
 74
     0
  0
LTYPE
  5
A6
330
5
100
AcDbSymbolTableRecord
100
AcDbLinetypeTableRecord
  2
AM_ISO09W050
 70
     0
  3
_____ . . _____ . . _____ . . ____ .. ____
 72
    65
 73
     6
 40
22.5
 49
12.0
 74
     0
 49
-1.5
 74
     0
 49
3.0
 74
     0
 49
-1.5
 74
     0
 49
3.0
 74
     0
 49
-1.5
 74
     0
  0
LTYPE
  5
A7
330
5
100
AcDbSymbolTableRecord
100
AcDbLinetypeTableRecord
  2
Amconstr
 70
     0
  3
_______________________
 72
    65
 73
     2
 40
9999.0
 49
9999.0
 74
     0
 49
0.0
 74
     0
  0
LTYPE
  5
A8
330
5
100
AcDbSymbolTableRecord
100
AcDbLinetypeTableRecord
  2
AM_ISO08W050x2
 70
     0
  3
__ . __ . __ . __ . __ . __
 72
    65
 73
     4
 40
9.0
 49
6.0
 74
     0
 49
-0.75
 74
     0
 49
1.5
 74
     0
 49
-0.75
 74
     0
  0
LTYPE
  5
A9
330
5
100
AcDbSymbolTableRecord
100
AcDbLinetypeTableRecord
  2
AM_ISO02W050x2
 70
     0
  3
 _ _ _ _ _ _ _ _ _ _ _ _
 72
    65
 73
     2
 40
3.75
 49
3.0
 74
     0
 49
-0.75
 74
     0
  0
LTYPE
  5
AC
330
5
100
AcDbSymbolTableRecord
100
AcDbLinetypeTableRecord
  2
Amzigzag
 70
     0
  3
/\/-/\/-/\/-/\/-/\/-/\/
 72
    65
 73
     2
 40
11.0001
 49
0.0001
 74
     4
 75
   136
340
AB
 46
0.04
 50
0.0
 44
0.0
 45
0.0
 49
-11.0
 74
     0
  0
LTYPE
  5
BC
330
5
100
AcDbSymbolTableRecord
100
AcDbLinetypeTableRecord
  2
ACISOWELD
 70
     0
  3
_ _ _ _ _
 72
    65
 73
     2
 40
2.0
 49
2.0
 74
     0
 49
-1.0
 74
     0
  0
LTYPE
  5
BD
330
5
100
AcDbSymbolTableRecord
100
AcDbLinetypeTableRecord
  2
ACISOTGB
 70
     0
  3
__ . . __ . .
 72
    65
 73
     6
 40
9.0
 49
4.0
 74
     0
 49
-1.0
 74
     0
 49
1.0
 74
     0
 49
-1.0
 74
     0
 49
1.0
 74
     0
 49
-1.0
 74
     0
  0
LTYPE
  5
BE
330
5
100
AcDbSymbolTableRecord
100
AcDbLinetypeTableRecord
  2
ACISOTGL
 70
     0
  3
_ _ _ _ _
 72
    65
 73
     2
 40
3.0
 49
2.0
 74
     0
 49
-1.0
 74
     0
  0
ENDTAB
  0
TABLE
  2
LAYER
  5
2
102
{ACAD_XDICTIONARY
360
104
102
}
330
0
100
AcDbSymbolTable
 70
    11
  0
LAYER
  5
25
102
{ACAD_XDICTIONARY
360
2025
102
}
330
2
100
AcDbSymbolTableRecord
100
AcDbLayerTableRecord
  2
0
 70
     0
 62
     7
  6
Continuous
370
    18
390
F
  0
LAYER
  5
ED
330
2
100
AcDbSymbolTableRecord
100
AcDbLayerTableRecord
  2
Defpoints
 70
     0
 62
     7
  6
Continuous
290
     0
370
    15
390
F
  0
LAYER
  5
52A2
102
{ACAD_XDICTIONARY
360
52A3
102
}
330
2
100
AcDbSymbolTableRecord
100
AcDbLayerTableRecord
  2
AM_5
 70
     0
 62
    51
  6
Continuous
370
    18
390
F
  0
LAYER
  5
52A8
102
{ACAD_XDICTIONARY
360
52A9
102
}
330
2
100
AcDbSymbolTableRecord
100
AcDbLayerTableRecord
  2
図面枠
 70
     0
 62
   111
  6
Continuous
370
    15
390
F
  0
LAYER
  5
52AC
102
{ACAD_XDICTIONARY
360
52AD
102
}
330
2
100
AcDbSymbolTableRecord
100
AcDbLayerTableRecord
  2
弱線
 70
     0
 62
   133
  6
Continuous
370
    13
390
F
  0
LAYER
  5
5B8A
102
{ACAD_XDICTIONARY
360
6356
102
}
330
2
100
AcDbSymbolTableRecord
100
AcDbLayerTableRecord
  2
仮想線
 70
     0
 62
    44
  6
AM_ISO09W050
370
    13
390
F
  0
LAYER
  5
6338
102
{ACAD_XDICTIONARY
360
6339
102
}
330
2
100
AcDbSymbolTableRecord
100
AcDbLayerTableRecord
  2
AM_3
 70
     0
 62
   221
  6
AM_ISO02W050
370
     5
390
F
1001
AcAecLayerStandard
1000

1000

  0
LAYER
  5
6388
102
{ACAD_XDICTIONARY
360
731F
102
}
330
2
100
AcDbSymbolTableRecord
100
AcDbLayerTableRecord
  2
文字
 70
     0
 62
    31
  6
Continuous
370
    18
390
F
1001
AcAecLayerStandard
1000

1000

  0
LAYER
  5
ADE2
102
{ACAD_XDICTIONARY
360
ADE3
102
}
330
2
100
AcDbSymbolTableRecord
100
AcDbLayerTableRecord
  2
中心線
 70
     0
 62
   150
  6
CENTER
370
    13
390
F
  0
ENDTAB
  0
TABLE
  2
STYLE
  5
3
330
0
100
AcDbSymbolTable
 70
     7
  0
STYLE
  5
26
330
3
100
AcDbSymbolTableRecord
100
AcDbTextStyleTableRecord
  2
STANDARD
 70
     0
 40
0.0
 41
1.0
 50
0.0
 71
     0
 42
2.5
  3
simplex.shx
  4
bigfont.shx
  0
STYLE
  5
AB
330
3
100
AcDbSymbolTableRecord
100
AcDbTextStyleTableRecord
  2

 70
     1
 40
0.0
 41
1.0
 50
0.0
 71
     0
 42
2.5
  3
genltshp.shx
  4

  0
STYLE
  5
BB
330
3
100
AcDbSymbolTableRecord
100
AcDbTextStyleTableRecord
  2
ACISOGDT
 70
     0
 40
0.0
 41
1.0
 50
0.0
 71
     0
 42
2.5
  3
amgdt.shx
  4

  0
STYLE
  5
158
330
3
100
AcDbSymbolTableRecord
100
AcDbTextStyleTableRecord
  2
承認
 70
     0
 40
0.0
 41
0.9
 50
0.0
 71
     0
 42
2.5
  3
simplex.shx
  4
bigfont.shx
  0
STYLE
  5
5D36
330
3
100
AcDbSymbolTableRecord
100
AcDbTextStyleTableRecord
  2
0.8横
 70
     0
 40
0.0
 41
0.8
 50
0.0
 71
     0
 42
2.5
  3
simplex.shx
  4
bigfont.shx
  0
STYLE
  5
6D3C
330
3
100
AcDbSymbolTableRecord
100
AcDbTextStyleTableRecord
  2
0.9横
 70
     0
 40
0.0
 41
0.9
 50
0.0
 71
     0
 42
2.5
  3
simplex.shx
  4
bigfont.shx
  0
ENDTAB
  0
TABLE
  2
VIEW
  5
6
330
0
100
AcDbSymbolTable
 70
     1
  0
VIEW
  5
4873
102
{ACAD_XDICTIONARY
360
4874
102
}
330
6
100
AcDbSymbolTableRecord
100
AcDbViewTableRecord
  2
セッティングイメージ
 70
     0
 40
558.0899368771736
 10
256.1153347947321
 20
8.07330766061932
 41
910.4716963666867
 11
0.4698463103929544
 21
-0.8137976813493736
 31
0.3420201433256687
 12
0.0
 22
0.0
 32
0.0
 42
50.0
 43
0.0
 44
0.0
 50
0.0
 71
     0
281
     0
 72
     1
110
0.0
120
0.0
130
0.0
111
1.0
121
0.0
131
0.0
112
0.0
122
1.0
132
0.0
 79
     0
146
0.0
  0
ENDTAB
  0
TABLE
  2
UCS
  5
7
330
0
100
AcDbSymbolTable
 70
     0
  0
ENDTAB
  0
TABLE
  2
APPID
  5
9
330
0
100
AcDbSymbolTable
 70
   102
  0
APPID
  5
27
330
9
100
AcDbSymbolTableRecord
100
AcDbRegAppTableRecord
  2
ACAD
 70
     0
  0
APPID
  5
47
330
9
100
AcDbSymbolTableRecord
100
AcDbRegAppTableRecord
  2
MCAD_NO_VIS
 70
     0
  0
APPID
  5
48
330
9
100
AcDbSymbolTableRecord
100
AcDbRegAppTableRecord
  2
ACAD_TEMP_GRAPHIC
 70
     0
  0
APPID
  5
7A
330
9
100
AcDbSymbolTableRecord
100
AcDbRegAppTableRecord
  2
AD_DRAW
 70
     0
  0
APPID
  5
7D
330
9
100
AcDbSymbolTableRecord
100
AcDbRegAppTableRecord
  2
ACATTRIBSERVICES
 70
     0
  0
APPID
  5
9E
330
9
100
AcDbSymbolTableRecord
100
AcDbRegAppTableRecord
  2
DESIGNERASSEMBLIES
 70
     0
  0
APPID
  5
DA
330
9
100
AcDbSymbolTableRecord
100
AcDbRegAppTableRecord
  2
ACADM_DIM_EDIT
 70
     0
  0
APPID
  5
DB
330
9
100
AcDbSymbolTableRecord
100
AcDbRegAppTableRecord
  2
AMDT_DM_ADJ
 70
     0
  0
APPID
  5
148
330
9
100
AcDbSymbolTableRecord
100
AcDbRegAppTableRecord
  2
ACAD_PSEXT
 70
     0
  0
APPID
  5
152
330
9
100
AcDbSymbolTableRecord
100
AcDbRegAppTableRecord
  2
GENIUS_GENREC_14
 70
     0
  0
APPID
  5
153
330
9
100
AcDbSymbolTableRecord
100
AcDbRegAppTableRecord
  2
GENIUS_GENODEF_13
 70
     0
  0
APPID
  5
154
330
9
100
AcDbSymbolTableRecord
100
AcDbRegAppTableRecord
  2
GENIUS_GENOBJ-N-REC_13
 70
     0
  0
APPID
  5
637
330
9
100
AcDbSymbolTableRecord
100
AcDbRegAppTableRecord
  2
DCO15
 70
     0
  0
APPID
  5
69B
330
9
100
AcDbSymbolTableRecord
100
AcDbRegAppTableRecord
  2
AcAecLayerStandard
 70
     0
  0
APPID
  5
6FD
330
9
100
AcDbSymbolTableRecord
100
AcDbRegAppTableRecord
  2
GENIUS_GENOBJ-N-CEN_13
 70
     0
  0
APPID
  5
6FE
330
9
100
AcDbSymbolTableRecord
100
AcDbRegAppTableRecord
  2
GENIUS_GENCEN_19
 70
     0
  0
APPID
  5
7B4
330
9
100
AcDbSymbolTableRecord
100
AcDbRegAppTableRecord
  2
GENIUS_GENTRA_14
 70
     0
  0
APPID
  5
7B5
330
9
100
AcDbSymbolTableRecord
100
AcDbRegAppTableRecord
  2
GENIUS_GENSCREG_15
 70
     0
  0
APPID
  5
7B6
330
9
100
AcDbSymbolTableRecord
100
AcDbRegAppTableRecord
  2
GENIUS_GENOBJ-N-SDF_13
 70
     0
  0
APPID
  5
7B7
330
9
100
AcDbSymbolTableRecord
100
AcDbRegAppTableRecord
  2
GENIUS_GENOENT_13
 70
     0
  0
APPID
  5
7B8
330
9
100
AcDbSymbolTableRecord
100
AcDbRegAppTableRecord
  2
GENIUS_GENOREF_13
 70
     0
  0
APPID
  5
7B9
330
9
100
AcDbSymbolTableRecord
100
AcDbRegAppTableRecord
  2
GENIUS_GENOLIS_13
 70
     0
  0
APPID
  5
7BA
330
9
100
AcDbSymbolTableRecord
100
AcDbRegAppTableRecord
  2
GENIUS_GENDTOL_13
 70
     0
  0
APPID
  5
7BB
330
9
100
AcDbSymbolTableRecord
100
AcDbRegAppTableRecord
  2
GENIUS_GENDIMSH_14
 70
     0
  0
APPID
  5
7BC
330
9
100
AcDbSymbolTableRecord
100
AcDbRegAppTableRecord
  2
GENIUS_GENOBJ-N-FIL_13
 70
     0
  0
APPID
  5
7BD
330
9
100
AcDbSymbolTableRecord
100
AcDbRegAppTableRecord
  2
GENIUS_GENHINW_13
 70
     0
  0
APPID
  5
7BE
330
9
100
AcDbSymbolTableRecord
100
AcDbRegAppTableRecord
  2
GENIUS_GENFIL_13
 70
     0
  0
APPID
  5
7BF
330
9
100
AcDbSymbolTableRecord
100
AcDbRegAppTableRecord
  2
GENIUS_GENBH_13
 70
     0
  0
APPID
  5
7C0
330
9
100
AcDbSymbolTableRecord
100
AcDbRegAppTableRecord
  2
GENIUS_GENOBJ-NBEHI-BHF_13
 70
     0
  0
APPID
  5
7C1
330
9
100
AcDbSymbolTableRecord
100
AcDbRegAppTableRecord
  2
GENIUS_GENOBJ-NBEHI-BHB_13
 70
     0
  0
APPID
  5
7C2
330
9
100
AcDbSymbolTableRecord
100
AcDbRegAppTableRecord
  2
GENIUS_GENREC_13
 70
     0
  0
APPID
  5
7C3
330
9
100
AcDbSymbolTableRecord
100
AcDbRegAppTableRecord
  2
GENIUS_GENOBJ-N-CHA_13
 70
     0
  0
APPID
  5
7C4
330
9
100
AcDbSymbolTableRecord
100
AcDbRegAppTableRecord
  2
GENIUS_GENIUS_GENBHEDTMP_13
 70
     0
  0
APPID
  5
7C5
330
9
100
AcDbSymbolTableRecord
100
AcDbRegAppTableRecord
  2
GENIUS_GENOBJ-N-HTC_13
 70
     0
  0
APPID
  5
7C6
330
9
100
AcDbSymbolTableRecord
100
AcDbRegAppTableRecord
  2
GENIUS_GENHATCH_13
 70
     0
  0
APPID
  5
7C7
330
9
100
AcDbSymbolTableRecord
100
AcDbRegAppTableRecord
  2
GENIUS_GENOBJ-N-CRS_13
 70
     0
  0
APPID
  5
7C8
330
9
100
AcDbSymbolTableRecord
100
AcDbRegAppTableRecord
  2
GENIUS_GENOBJ-N-RSBK_13
 70
     0
  0
APPID
  5
7C9
330
9
100
AcDbSymbolTableRecord
100
AcDbRegAppTableRecord
  2
GENIUS_GENOBJ-N-LIB_13
 70
     0
  0
APPID
  5
7CA
330
9
100
AcDbSymbolTableRecord
100
AcDbRegAppTableRecord
  2
GENIUS_GENSCALE_13
 70
     0
  0
APPID
  5
DCB
330
9
100
AcDbSymbolTableRecord
100
AcDbRegAppTableRecord
  2
ACAD_EXEMPT_FROM_CAD_STANDARDS
 70
     0
  0
APPID
  5
1759
330
9
100
AcDbSymbolTableRecord
100
AcDbRegAppTableRecord
  2
ACAD_MLEADERVER
 70
     0
  0
APPID
  5
17C0
330
9
100
AcDbSymbolTableRecord
100
AcDbRegAppTableRecord
  2
ACAD_DSTYLE_DIMJAG
 70
     0
  0
APPID
  5
17C1
330
9
100
AcDbSymbolTableRecord
100
AcDbRegAppTableRecord
  2
ACAD_DSTYLE_DIMTALN
 70
     0
  0
APPID
  5
1803
330
9
100
AcDbSymbolTableRecord
100
AcDbRegAppTableRecord
  2
ACAD_DSTYLE_DIMBREAK
 70
     0
  0
APPID
  5
1957
330
9
100
AcDbSymbolTableRecord
100
AcDbRegAppTableRecord
  2
GEVID1181262513
 70
     0
  0
APPID
  5
1958
330
9
100
AcDbSymbolTableRecord
100
AcDbRegAppTableRecord
  2
GEVDC
 70
     0
  0
APPID
  5
2011
330
9
100
AcDbSymbolTableRecord
100
AcDbRegAppTableRecord
  2
GEVID1194413920
 70
     0
  0
APPID
  5
2016
330
9
100
AcDbSymbolTableRecord
100
AcDbRegAppTableRecord
  2
GEVID1194413921
 70
     0
  0
APPID
  5
206C
330
9
100
AcDbSymbolTableRecord
100
AcDbRegAppTableRecord
  2
GEVID1194480096
 70
     0
  0
APPID
  5
2081
330
9
100
AcDbSymbolTableRecord
100
AcDbRegAppTableRecord
  2
GEVID1194480097
 70
     0
  0
APPID
  5
2085
330
9
100
AcDbSymbolTableRecord
100
AcDbRegAppTableRecord
  2
GEVID1194480098
 70
     0
  0
APPID
  5
2104
330
9
100
AcDbSymbolTableRecord
100
AcDbRegAppTableRecord
  2
ACAD_DIMASSOC_CALC_DIMLFAC
 70
     0
  0
APPID
  5
2105
330
9
100
AcDbSymbolTableRecord
100
AcDbRegAppTableRecord
  2
ACAD_DIMASSOC_DIMLFAC
 70
     0
  0
APPID
  5
2106
330
9
100
AcDbSymbolTableRecord
100
AcDbRegAppTableRecord
  2
ACAD_DIMASSOC_OVERRIDDEN_DIMLFAC
 70
     0
  0
APPID
  5
211B
330
9
100
AcDbSymbolTableRecord
100
AcDbRegAppTableRecord
  2
ACAD_DSTYLE_DIMINSPECT
 70
     0
  0
APPID
  5
2AD4
330
9
100
AcDbSymbolTableRecord
100
AcDbRegAppTableRecord
  2
ACAD_DSTYLE_DIMRADIAL_EXTENSION
 70
     0
  0
APPID
  5
2CFE
330
9
100
AcDbSymbolTableRecord
100
AcDbRegAppTableRecord
  2
AcadAnnotative
 70
     0
  0
APPID
  5
2CFF
330
9
100
AcDbSymbolTableRecord
100
AcDbRegAppTableRecord
  2
GEVID1183531517
 70
     0
  0
APPID
  5
2D00
330
9
100
AcDbSymbolTableRecord
100
AcDbRegAppTableRecord
  2
GEVID1183531518
 70
     0
  0
APPID
  5
2D1F
330
9
100
AcDbSymbolTableRecord
100
AcDbRegAppTableRecord
  2
GEVID1194480099
 70
     0
  0
APPID
  5
2D23
330
9
100
AcDbSymbolTableRecord
100
AcDbRegAppTableRecord
  2
GEVID1194480100
 70
     0
  0
APPID
  5
3DC6
330
9
100
AcDbSymbolTableRecord
100
AcDbRegAppTableRecord
  2
GEVID1194480101
 70
     0
  0
APPID
  5
4E55
330
9
100
AcDbSymbolTableRecord
100
AcDbRegAppTableRecord
  2
AcadAnnoPO
 70
     0
  0
APPID
  5
502A
330
9
100
AcDbSymbolTableRecord
100
AcDbRegAppTableRecord
  2
GEVID1195605042
 70
     0
  0
APPID
  5
502B
330
9
100
AcDbSymbolTableRecord
100
AcDbRegAppTableRecord
  2
GEVID1195605043
 70
     0
  0
APPID
  5
502C
330
9
100
AcDbSymbolTableRecord
100
AcDbRegAppTableRecord
  2
GEVID1195605044
 70
     0
  0
APPID
  5
C3F8
330
9
100
AcDbSymbolTableRecord
100
AcDbRegAppTableRecord
  2
ACAD_NAV_VCDISPLAY
 70
     0
  0
APPID
  5
C49A
330
9
100
AcDbSymbolTableRecord
100
AcDbRegAppTableRecord
  2
AcDbDynamicBlockGUID
 70
     0
  0
APPID
  5
C49B
330
9
100
AcDbSymbolTableRecord
100
AcDbRegAppTableRecord
  2
ACAUTHENVIRON
 70
     0
  0
APPID
  5
C49C
330
9
100
AcDbSymbolTableRecord
100
AcDbRegAppTableRecord
  2
AcDbDynamicBlockTrueName
 70
     0
  0
APPID
  5
D383
330
9
100
AcDbSymbolTableRecord
100
AcDbRegAppTableRecord
  2
GEVID1223428646
 70
     0
  0
APPID
  5
D384
330
9
100
AcDbSymbolTableRecord
100
AcDbRegAppTableRecord
  2
GEVID1223428647
 70
     0
  0
APPID
  5
D385
330
9
100
AcDbSymbolTableRecord
100
AcDbRegAppTableRecord
  2
GEVID1228357859
 70
     0
  0
APPID
  5
D386
330
9
100
AcDbSymbolTableRecord
100
AcDbRegAppTableRecord
  2
GENIUS_GEFSHP_13
 70
     0
  0
APPID
  5
D387
330
9
100
AcDbSymbolTableRecord
100
AcDbRegAppTableRecord
  2
GENIUS_GEFSH_13
 70
     0
  0
APPID
  5
D388
330
9
100
AcDbSymbolTableRecord
100
AcDbRegAppTableRecord
  2
GENIUS_AMGTXT_16
 70
     0
  0
APPID
  5
D389
330
9
100
AcDbSymbolTableRecord
100
AcDbRegAppTableRecord
  2
ACAD_DSTYLE_DIMJOGGED_JOGANGLE_SYMBOL
 70
     0
  0
APPID
  5
D38A
330
9
100
AcDbSymbolTableRecord
100
AcDbRegAppTableRecord
  2
GEVID1206088229
 70
     0
  0
APPID
  5
D38B
330
9
100
AcDbSymbolTableRecord
100
AcDbRegAppTableRecord
  2
GEVID1206088231
 70
     0
  0
APPID
  5
D38C
330
9
100
AcDbSymbolTableRecord
100
AcDbRegAppTableRecord
  2
GEVID1206088232
 70
     0
  0
APPID
  5
D38D
330
9
100
AcDbSymbolTableRecord
100
AcDbRegAppTableRecord
  2
GEVID1206088233
 70
     0
  0
APPID
  5
D38E
330
9
100
AcDbSymbolTableRecord
100
AcDbRegAppTableRecord
  2
GEVID1206088234
 70
     0
  0
APPID
  5
D38F
330
9
100
AcDbSymbolTableRecord
100
AcDbRegAppTableRecord
  2
MACHINERY
 70
     0
  0
APPID
  5
D390
330
9
100
AcDbSymbolTableRecord
100
AcDbRegAppTableRecord
  2
USERREMARKS
 70
     0
  0
APPID
  5
D391
330
9
100
AcDbSymbolTableRecord
100
AcDbRegAppTableRecord
  2
SYURUI
 70
     0
  0
APPID
  5
D392
330
9
100
AcDbSymbolTableRecord
100
AcDbRegAppTableRecord
  2
FORMERDRAWING
 70
     0
  0
APPID
  5
D393
330
9
100
AcDbSymbolTableRecord
100
AcDbRegAppTableRecord
  2
NUMBERING
 70
     0
  0
APPID
  5
D394
330
9
100
AcDbSymbolTableRecord
100
AcDbRegAppTableRecord
  2
GEVID1324008112
 70
     0
  0
APPID
  5
D395
330
9
100
AcDbSymbolTableRecord
100
AcDbRegAppTableRecord
  2
GEVCON
 70
     0
  0
APPID
  5
D396
330
9
100
AcDbSymbolTableRecord
100
AcDbRegAppTableRecord
  2
GENIUS_GENOBJ-F-SCPASSM_13
 70
     0
  0
APPID
  5
D397
330
9
100
AcDbSymbolTableRecord
100
AcDbRegAppTableRecord
  2
GEVID1324008113
 70
     0
  0
APPID
  5
D398
330
9
100
AcDbSymbolTableRecord
100
AcDbRegAppTableRecord
  2
GEVID1324008114
 70
     0
  0
APPID
  5
D399
330
9
100
AcDbSymbolTableRecord
100
AcDbRegAppTableRecord
  2
GEVID1324008115
 70
     0
  0
APPID
  5
D39A
330
9
100
AcDbSymbolTableRecord
100
AcDbRegAppTableRecord
  2
GEVID1324008116
 70
     0
  0
APPID
  5
D39B
330
9
100
AcDbSymbolTableRecord
100
AcDbRegAppTableRecord
  2
GEVID1324008117
 70
     0
  0
APPID
  5
D39C
330
9
100
AcDbSymbolTableRecord
100
AcDbRegAppTableRecord
  2
GEVID1324008118
 70
     0
  0
APPID
  5
D39D
330
9
100
AcDbSymbolTableRecord
100
AcDbRegAppTableRecord
  2
GEVMK
 70
     0
  0
APPID
  5
D39E
330
9
100
AcDbSymbolTableRecord
100
AcDbRegAppTableRecord
  2
GEVID1324008119
 70
     0
  0
APPID
  5
D39F
330
9
100
AcDbSymbolTableRecord
100
AcDbRegAppTableRecord
  2
ACDBBLOCKREPETAG
 70
     0
  0
APPID
  5
D3A0
330
9
100
AcDbSymbolTableRecord
100
AcDbRegAppTableRecord
  2
GEVID1341370643
 70
     0
  0
APPID
  5
D3A1
330
9
100
AcDbSymbolTableRecord
100
AcDbRegAppTableRecord
  2
GEVID1341370644
 70
     0
  0
APPID
  5
E4A8
330
9
100
AcDbSymbolTableRecord
100
AcDbRegAppTableRecord
  2
ACAD_DSTYLE_DIMARC_LENGTH_SYMBOL
 70
     0
  0
ENDTAB
  0
TABLE
  2
DIMSTYLE
  5
A
330
0
100
AcDbSymbolTable
 70
     8
100
AcDbDimStyleTable
 71
     1
340
639
  0
DIMSTYLE
105
639
330
A
100
AcDbSymbolTableRecord
100
AcDbDimStyleTableRecord
  2
Standard
 70
     0
340
26
  0
DIMSTYLE
105
CA
102
{ACAD_REACTORS
330
EEBE
102
}
330
A
100
AcDbSymbolTableRecord
100
AcDbDimStyleTableRecord
  2
AM_ISO
 70
     0
  4
"
 41
2.5
 42
1.0
 43
10.0
 44
1.0
 47
0.1
 48
0.1
 73
     0
 74
     0
 77
     1
 78
     8
 79
     2
140
3.5
141
0.0
143
0.0393701
146
0.71
147
1.5
172
     1
176
   256
177
   256
178
     2
271
     2
272
     3
274
     4
283
     0
284
     8
340
26
371
    -1
372
    -1
1001
ACAD_DSTYLE_DIMARC_LENGTH_SYMBOL
1070
   379
1070
     1
  0
DIMSTYLE
105
CC
330
A
100
AcDbSymbolTableRecord
100
AcDbDimStyleTableRecord
  2
AM_ISO$4
 70
     0
  4
"
 41
2.5
 42
1.0
 43
10.0
 44
1.0
 47
0.1
 48
0.1
 73
     0
 77
     1
 78
     8
 79
     2
140
3.5
141
0.0
143
0.0393701
146
0.71
147
1.5
176
   256
177
   256
178
     2
271
     2
272
     3
274
     4
283
     0
284
     8
288
     1
289
     0
340
26
371
    -1
372
    -1
1001
ACAD_DSTYLE_DIMARC_LENGTH_SYMBOL
1070
   379
1070
     1
  0
DIMSTYLE
105
CD
330
A
100
AcDbSymbolTableRecord
100
AcDbDimStyleTableRecord
  2
AM_ISO$6
 70
     0
  4
"
 41
2.5
 42
1.0
 43
10.0
 44
1.0
 47
0.1
 48
0.1
 73
     0
 74
     0
 78
     8
 79
     2
140
3.5
141
0.0
143
0.0393701
146
0.71
147
1.5
172
     1
176
   256
177
   256
178
     2
271
     2
272
     3
274
     4
283
     0
284
     8
340
26
371
    -1
372
    -1
1001
ACAD_DSTYLE_DIMARC_LENGTH_SYMBOL
1070
   379
1070
     1
  0
DIMSTYLE
105
CE
330
A
100
AcDbSymbolTableRecord
100
AcDbDimStyleTableRecord
  2
AM_ISO$7
 70
     0
  4
"
 41
2.5
 42
1.0
 43
10.0
 44
1.0
 47
0.1
 48
0.1
 73
     0
 74
     0
 77
     1
 78
     8
 79
     2
140
5.0
141
0.0
143
0.0393701
146
0.71
147
1.5
172
     1
176
   256
177
   256
178
     2
271
     2
272
     3
274
     4
283
     0
284
     8
340
26
371
    -1
372
    -1
1001
ACAD_DSTYLE_DIMARC_LENGTH_SYMBOL
1070
   379
1070
     1
  0
DIMSTYLE
105
CF
330
A
100
AcDbSymbolTableRecord
100
AcDbDimStyleTableRecord
  2
AM_ISO$SF
 70
     0
  4
"
 41
2.5
 42
1.0
 43
10.0
 44
1.0
 47
0.1
 48
0.1
 73
     0
 74
     0
 75
     1
 76
     1
 77
     1
 78
     8
 79
     2
140
3.5
141
0.0
143
0.0393701
146
0.71
147
1.5
172
     1
176
   256
177
   256
178
     2
271
     2
272
     3
274
     4
283
     0
284
     8
340
26
371
    -1
372
    -1
1001
ACAD_DSTYLE_DIMARC_LENGTH_SYMBOL
1070
   379
1070
     1
  0
DIMSTYLE
105
D4
330
A
100
AcDbSymbolTableRecord
100
AcDbDimStyleTableRecord
  2
AM_ISO$SH
 70
     0
  4
"
 41
2.5
 42
1.0
 43
10.0
 44
1.0
 47
0.1
 48
0.1
 73
     0
 74
     0
 75
     1
 76
     1
 77
     1
 78
     8
 79
     2
140
3.5
141
0.0
143
0.0393701
144
2.0
146
0.71
147
1.5
172
     1
173
     1
176
   256
177
   256
178
     2
271
     2
272
     3
274
     4
283
     0
284
     8
340
26
343
D0
371
    -1
372
    -1
1001
ACAD_DSTYLE_DIMARC_LENGTH_SYMBOL
1070
   379
1070
     1
  0
DIMSTYLE
105
E51A
330
A
100
AcDbSymbolTableRecord
100
AcDbDimStyleTableRecord
  2
AM_ISO$3
 70
     0
  4
"
 41
2.5
 42
1.0
 43
10.0
 44
1.0
 47
0.1
 48
0.1
 73
     0
 77
     1
 78
     8
 79
     2
140
3.5
141
0.0
143
0.0393701
146
0.71
147
1.5
176
   256
177
   256
178
     2
271
     2
272
     3
274
     4
283
     0
284
     8
288
     1
289
     0
340
26
371
    -1
372
    -1
1001
ACAD_DSTYLE_DIMBREAK
1070
   391
1040
3.75
1001
ACAD_DSTYLE_DIMJAG
1070
   388
1040
1.5
1001
ACAD_DSTYLE_DIMARC_LENGTH_SYMBOL
1070
   379
1070
     1
  0
ENDTAB
  0
TABLE
  2
BLOCK_RECORD
  5
1
330
0
100
AcDbSymbolTable
 70
    12
  0
BLOCK_RECORD
  5
37
102
{ACAD_XDICTIONARY
360
946
102
}
330
1
100
AcDbSymbolTableRecord
100
AcDbBlockTableRecord
  2
*Model_Space
340
3A
  0
BLOCK_RECORD
  5
DFAD
330
1
100
AcDbSymbolTableRecord
100
AcDbBlockTableRecord
  2
*Paper_Space
340
DFAE
  0
BLOCK_RECORD
  5
D0
330
1
100
AcDbSymbolTableRecord
100
AcDbBlockTableRecord
  2
GENAXEH
340
0
  0
BLOCK_RECORD
  5
C7D2
102
{ACAD_XDICTIONARY
360
C801
102
}
330
1
100
AcDbSymbolTableRecord
100
AcDbBlockTableRecord
  2
A$C663F0F08
340
0
102
{BLKREFS
331
C805
102
}
1001
ACAD
1000
DesignCenter Data
1002
{
1070
     1
1070
     4
1002
}
  0
BLOCK_RECORD
  5
D9CD
102
{ACAD_XDICTIONARY
360
DA65
102
}
330
1
100
AcDbSymbolTableRecord
100
AcDbBlockTableRecord
  2
A$C631E3D22
340
0
102
{BLKREFS
331
DA69
102
}
1001
ACAD
1000
DesignCenter Data
1002
{
1070
     1
1070
     4
1002
}
  0
ENDTAB
  0
ENDSEC
  0
SECTION
  2
BLOCKS
  0
BLOCK
  5
38
330
37
100
AcDbEntity
  8
0
100
AcDbBlockBegin
  2
*Model_Space
 70
     0
 10
0.0
 20
0.0
 30
0.0
  3
*Model_Space
  1

  0
ENDBLK
  5
39
330
37
100
AcDbEntity
  8
0
100
AcDbBlockEnd
  0
BLOCK
  5
DFAF
330
DFAD
100
AcDbEntity
 67
     1
  8
0
100
AcDbBlockBegin
  2
*Paper_Space
 70
     0
 10
0.0
 20
0.0
 30
0.0
  3
*Paper_Space
  1

  0
ENDBLK
  5
DFB0
330
DFAD
100
AcDbEntity
 67
     1
  8
0
100
AcDbBlockEnd
  0
BLOCK
  5
D2
330
D0
100
AcDbEntity
  8
0
100
AcDbBlockBegin
  2
GENAXEH
 70
     0
 10
0.0
 20
0.0
 30
0.0
  3
GENAXEH
  1

  0
LINE
  5
D1
330
D0
100
AcDbEntity
  8
0
100
AcDbLine
 10
-1.0
 20
0.0
 30
0.0
 11
1.0
 21
0.0
 31
0.0
  0
ENDBLK
  5
D3
330
D0
100
AcDbEntity
  8
0
100
AcDbBlockEnd
  0
BLOCK
  5
C803
330
C7D2
100
AcDbEntity
  8
0
100
AcDbBlockBegin
  2
A$C663F0F08
 70
     0
 10
0.0
 20
0.0
 30
0.0
  3
A$C663F0F08
  1

  0
MTEXT
  5
C7D3
330
C7D2
100
AcDbEntity
  8
文字
 48
0.5
100
AcDbMText
 10
-18.07331501465168
 20
32.69687538201502
 30
0.0
 40
3.5
 41
40.16917461834839
 71
     4
 72
     5
  1
A 詳細図
 73
     1
 44
1.0
1001
ACAD
1000
MTEXTBEGIN
1070
    73
1070
     1
1070
    44
1040
1.0
1070
    74
1070
     0
1000
MTEXTEND
  0
LINE
  5
C7D4
330
C7D2
100
AcDbEntity
  8
AM_5
 62
     4
370
     9
100
AcDbLine
 10
-3.300000000096756
 20
12.16001493077004
 30
0.0
 11
-3.300000000096756
 21
7.24852088094974
 31
0.0
  0
LINE
  5
C7D5
330
C7D2
100
AcDbEntity
  8
AM_5
 62
     4
370
     9
100
AcDbLine
 10
3.29999999990312
 20
12.16001493077004
 30
0.0
 11
3.29999999990312
 21
7.24852088094974
 31
0.0
  0
LINE
  5
C7D6
330
C7D2
100
AcDbEntity
  8
AM_5
 62
     4
370
     9
100
AcDbLine
 10
-1.300000000096757
 20
8.24852088094974
 30
0.0
 11
1.29999999990312
 21
8.24852088094974
 31
0.0
  0
LINE
  5
C7D7
330
C7D2
100
AcDbEntity
  8
AM_5
 62
     4
370
     9
100
AcDbLine
 10
-1.300000000096757
 20
7.915187547616397
 30
0.0
 11
-3.300000000096756
 21
8.24852088094974
 31
0.0
  0
LINE
  5
C7D8
330
C7D2
100
AcDbEntity
  8
AM_5
 62
     4
370
     9
100
AcDbLine
 10
-1.300000000096757
 20
8.581854214283055
 30
0.0
 11
-3.300000000096756
 21
8.24852088094974
 31
0.0
  0
LINE
  5
C7D9
330
C7D2
100
AcDbEntity
  8
AM_5
 62
     4
370
     9
100
AcDbLine
 10
-3.300000000096756
 20
8.24852088094974
 30
0.0
 11
-1.300000000096757
 21
8.24852088094974
 31
0.0
  0
LINE
  5
C7DA
330
C7D2
100
AcDbEntity
  8
AM_5
 62
     4
370
     9
100
AcDbLine
 10
1.29999999990312
 20
8.581854214283055
 30
0.0
 11
3.29999999990312
 21
8.24852088094974
 31
0.0
  0
LINE
  5
C7DB
330
C7D2
100
AcDbEntity
  8
AM_5
 62
     4
370
     9
100
AcDbLine
 10
1.29999999990312
 20
7.915187547616397
 30
0.0
 11
3.29999999990312
 21
8.24852088094974
 31
0.0
  0
LINE
  5
C7DC
330
C7D2
100
AcDbEntity
  8
AM_5
 62
     4
370
     9
100
AcDbLine
 10
3.29999999990312
 20
8.24852088094974
 30
0.0
 11
1.29999999990312
 21
8.24852088094974
 31
0.0
  0
TEXT
  5
C7DD
330
C7D2
100
AcDbEntity
  8
AM_5
100
AcDbText
 10
-2.839285714382498
 20
9.24852088094974
 30
0.0
 40
2.5
  1
\U+220533
 41
0.9
  7
承認
100
AcDbText
  0
LINE
  5
C7DE
330
C7D2
100
AcDbEntity
  8
AM_5
 62
     4
370
     9
100
AcDbLine
 10
-5.979999999999876
 20
1.500000000000054
 30
0.0
 11
-5.979999999999876
 21
4.146435804494501
 31
0.0
  0
LINE
  5
C7DF
330
C7D2
100
AcDbEntity
  8
AM_5
 62
     4
370
     9
100
AcDbLine
 10
5.979999999999987
 20
1.500000000000054
 30
0.0
 11
5.979999999999987
 21
4.146435804494501
 31
0.0
  0
LINE
  5
C7E0
330
C7D2
100
AcDbEntity
  8
AM_5
 62
     4
370
     9
100
AcDbLine
 10
-3.979999999999876
 20
3.146435804494501
 30
0.0
 11
3.979999999999987
 21
3.146435804494501
 31
0.0
  0
LINE
  5
C7E1
330
C7D2
100
AcDbEntity
  8
AM_5
 62
     4
370
     9
100
AcDbLine
 10
5.979999999999987
 20
3.146435804494501
 30
0.0
 11
15.6585714285714
 21
3.146435804494501
 31
0.0
  0
LINE
  5
C7E2
330
C7D2
100
AcDbEntity
  8
AM_5
 62
     4
370
     9
100
AcDbLine
 10
-3.979999999999876
 20
2.813102471161214
 30
0.0
 11
-5.979999999999876
 21
3.146435804494501
 31
0.0
  0
LINE
  5
C7E3
330
C7D2
100
AcDbEntity
  8
AM_5
 62
     4
370
     9
100
AcDbLine
 10
-3.979999999999876
 20
3.479769137827901
 30
0.0
 11
-5.979999999999876
 21
3.146435804494501
 31
0.0
  0
LINE
  5
C7E4
330
C7D2
100
AcDbEntity
  8
AM_5
 62
     4
370
     9
100
AcDbLine
 10
-5.979999999999876
 20
3.146435804494501
 30
0.0
 11
-3.979999999999876
 21
3.146435804494501
 31
0.0
  0
LINE
  5
C7E5
330
C7D2
100
AcDbEntity
  8
AM_5
 62
     4
370
     9
100
AcDbLine
 10
3.979999999999987
 20
3.479769137827901
 30
0.0
 11
5.979999999999987
 21
3.146435804494501
 31
0.0
  0
LINE
  5
C7E6
330
C7D2
100
AcDbEntity
  8
AM_5
 62
     4
370
     9
100
AcDbLine
 10
3.979999999999987
 20
2.813102471161214
 30
0.0
 11
5.979999999999987
 21
3.146435804494501
 31
0.0
  0
LINE
  5
C7E7
330
C7D2
100
AcDbEntity
  8
AM_5
 62
     4
370
     9
100
AcDbLine
 10
5.979999999999987
 20
3.146435804494501
 30
0.0
 11
3.979999999999987
 21
3.146435804494501
 31
0.0
  0
TEXT
  5
C7E8
330
C7D2
100
AcDbEntity
  8
AM_5
100
AcDbText
 10
8.979999999999987
 20
4.146435804494501
 30
0.0
 40
2.5
  1
\U+220560
 41
0.9
  7
承認
100
AcDbText
  0
LINE
  5
C7E9
330
C7D2
100
AcDbEntity
  8
AM_5
 62
     4
370
     9
100
AcDbLine
 10
4.599999999903103
 20
13.46001493077011
 30
0.0
 11
16.55999999990334
 21
13.46001493077011
 31
0.0
  0
LINE
  5
C7EA
330
C7D2
100
AcDbEntity
  8
AM_5
 62
     4
370
     9
100
AcDbLine
 10
4.599999999903103
 20
28.66001493077005
 30
0.0
 11
16.55999999990334
 21
28.66001493077005
 31
0.0
  0
LINE
  5
C7EB
330
C7D2
100
AcDbEntity
  8
AM_5
 62
     4
370
     9
100
AcDbLine
 10
15.55999999990334
 20
15.46001493077011
 30
0.0
 11
15.55999999990334
 21
26.66001493077005
 31
0.0
  0
LINE
  5
C7EC
330
C7D2
100
AcDbEntity
  8
AM_5
 62
     4
370
     9
100
AcDbLine
 10
15.89333333323662
 20
15.46001493077011
 30
0.0
 11
15.55999999990334
 21
13.46001493077011
 31
0.0
  0
LINE
  5
C7ED
330
C7D2
100
AcDbEntity
  8
AM_5
 62
     4
370
     9
100
AcDbLine
 10
15.22666666657
 20
15.46001493077011
 30
0.0
 11
15.55999999990334
 21
13.46001493077011
 31
0.0
  0
LINE
  5
C7EE
330
C7D2
100
AcDbEntity
  8
AM_5
 62
     4
370
     9
100
AcDbLine
 10
15.55999999990334
 20
13.46001493077011
 30
0.0
 11
15.55999999990334
 21
15.46001493077011
 31
0.0
  0
LINE
  5
C7EF
330
C7D2
100
AcDbEntity
  8
AM_5
 62
     4
370
     9
100
AcDbLine
 10
15.22666666657
 20
26.66001493077005
 30
0.0
 11
15.55999999990334
 21
28.66001493077005
 31
0.0
  0
LINE
  5
C7F0
330
C7D2
100
AcDbEntity
  8
AM_5
 62
     4
370
     9
100
AcDbLine
 10
15.89333333323662
 20
26.66001493077005
 30
0.0
 11
15.55999999990334
 21
28.66001493077005
 31
0.0
  0
LINE
  5
C7F1
330
C7D2
100
AcDbEntity
  8
AM_5
 62
     4
370
     9
100
AcDbLine
 10
15.55999999990334
 20
28.66001493077005
 30
0.0
 11
15.55999999990334
 21
26.66001493077005
 31
0.0
  0
TEXT
  5
C7F2
330
C7D2
100
AcDbEntity
  8
AM_5
100
AcDbText
 10
14.55999999990331
 20
18.38144350219872
 30
0.0
 40
2.5
  1
150
 50
90.0
 41
0.9
  7
承認
100
AcDbText
  0
TEXT
  5
C7F3
330
C7D2
100
AcDbEntity
  8
AM_5
100
AcDbText
 10
-6.803571428668161
 20
-7.145911221452137
 30
0.0
 40
2.5
  1
平径 38.5
 41
0.9
  7
0.9横
100
AcDbText
  0
POLYLINE
  5
C7F4
330
C7D2
100
AcDbEntity
  8
図面枠
 62
   252
370
    50
100
AcDb2dPolyline
 66
     1
 10
0.0
 20
0.0
 30
0.0
 70
     1
1001
GENIUS_GENREC_14
1002
{
1000
PYDIR
1011
-24.0645567721038
1021
38.18726073692742
1031
0.0
1002
}
1002
{
1000
PXDIR
1011
18.59490964141648
1021
-9.140441941077881
1031
0.0
1002
}
1002
{
1000
PORI
1011
-24.0645567721038
1021
-9.140441941077881
1031
0.0
1002
}
1002
{
1000
PINS
1011
-24.0645567721038
1021
-9.140441941077881
1031
0.0
1002
}
1002
{
1000
PINS2
1011
18.59490964141648
1021
38.18726073692742
1031
0.0
1002
}
1002
{
1000
C
1070
     1
1002
}
1001
GENIUS_GENOBJ-N-REC_13
1002
{
1000
OWNER
1000
GEN
1002
}
1001
GENIUS_GENODEF_13
1002
{
1000
HIER
1070
     0
1002
}
1002
{
1000
MANEDIT
1070
     0
1002
}
1002
{
1000
NOSEL
1070
     0
1002
}
1002
{
1000
BEHIND
1070
     0
1002
}
1002
{
1000
OTHER
1070
     0
1002
}
1002
{
1000
REACTOR
1002
}
  0
VERTEX
  5
D17D
330
C7F4
100
AcDbEntity
  8
図面枠
 62
   252
370
    50
100
AcDbVertex
100
AcDb2dVertex
 10
-21.06455677210383
 20
-9.140441941077881
 30
0.0
  0
VERTEX
  5
D17E
330
C7F4
100
AcDbEntity
  8
図面枠
 62
   252
370
    50
100
AcDbVertex
100
AcDb2dVertex
 10
15.59490964141651
 20
-9.140441941077881
 30
0.0
 42
0.4142135623730951
  0
VERTEX
  5
D17F
330
C7F4
100
AcDbEntity
  8
図面枠
 62
   252
370
    50
100
AcDbVertex
100
AcDb2dVertex
 10
18.59490964141651
 20
-6.140441941077878
 30
0.0
  0
VERTEX
  5
D180
330
C7F4
100
AcDbEntity
  8
図面枠
 62
   252
370
    50
100
AcDbVertex
100
AcDb2dVertex
 10
18.59490964141645
 20
35.18726073692742
 30
0.0
 42
0.4142135623730951
  0
VERTEX
  5
D181
330
C7F4
100
AcDbEntity
  8
図面枠
 62
   252
370
    50
100
AcDbVertex
100
AcDb2dVertex
 10
15.59490964141645
 20
38.18726073692742
 30
0.0
  0
VERTEX
  5
D182
330
C7F4
100
AcDbEntity
  8
図面枠
 62
   252
370
    50
100
AcDbVertex
100
AcDb2dVertex
 10
-21.06455677210383
 20
38.18726073692728
 30
0.0
 42
0.4142135623730951
  0
VERTEX
  5
D183
330
C7F4
100
AcDbEntity
  8
図面枠
 62
   252
370
    50
100
AcDbVertex
100
AcDb2dVertex
 10
-24.0645567721038
 20
35.18726073692728
 30
0.0
  0
VERTEX
  5
D184
330
C7F4
100
AcDbEntity
  8
図面枠
 62
   252
370
    50
100
AcDbVertex
100
AcDb2dVertex
 10
-24.0645567721038
 20
-6.140441941077878
 30
0.0
 42
0.4142135623730951
  0
SEQEND
  5
D185
330
C7F4
100
AcDbEntity
  8
図面枠
 62
   252
370
    50
  0
LWPOLYLINE
  5
C7FE
330
C7D2
100
AcDbEntity
  8
仮想線
  6
HIDDEN
 48
0.6
100
AcDbPolyline
 90
        8
 70
     1
 43
0.0
 10
-18.69895753125692
 20
29.793735219236
 10
-14.69895753125681
 20
29.79373521923611
 42
0.4142135623730951
 10
-13.69895753125681
 20
30.79373521923606
 10
-13.69895753125692
 20
34.79373521923594
 42
0.4142135623730898
 10
-14.69895753125692
 20
35.79373521923589
 10
-18.69895753125681
 20
35.7937352192358
 42
0.4142135623730897
 10
-19.69895753125681
 20
34.7937352192358
 10
-19.69895753125692
 20
30.793735219236
 42
0.4142135623731005
1001
GENIUS_GENREC_14
1002
{
1000
PYDIR
1011
-19.69895753125681
1021
35.79373521923589
1031
0.0
1002
}
1002
{
1000
PXDIR
1011
-13.69895753125692
1021
29.793735219236
1031
0.0
1002
}
1002
{
1000
PORI
1011
-19.69895753125681
1021
29.793735219236
1031
0.0
1002
}
1002
{
1000
PINS
1011
-19.69895753125681
1021
29.793735219236
1031
0.0
1002
}
1002
{
1000
HVAL
1000
30
1002
}
1002
{
1000
H
1070
     2
1002
}
1002
{
1000
WVAL
1000
30
1002
}
1002
{
1000
W
1070
     2
1002
}
1002
{
1000
C
1070
     1
1002
}
1001
GENIUS_GENOBJ-N-REC_13
1002
{
1000
OWNER
1000
GEN
1002
}
1001
GENIUS_GENODEF_13
1002
{
1000
HIER
1070
     0
1002
}
1002
{
1000
MANEDIT
1070
     0
1002
}
1002
{
1000
NOSEL
1070
     0
1002
}
1002
{
1000
BEHIND
1070
     0
1002
}
1002
{
1000
OTHER
1070
     0
1002
}
1002
{
1000
REACTOR
1002
}
  0
TEXT
  5
C7FF
330
C7D2
100
AcDbEntity
  8
文字
100
AcDbText
 10
-21.06455677210383
 20
19.7590775095868
 30
0.0
 40
2.5
  1
パイプネジ
 41
0.9
  7
0.9横
100
AcDbText
  0
TEXT
  5
C800
330
C7D2
100
AcDbEntity
  8
文字
100
AcDbText
 10
-21.06455677210383
 20
-2.226120930983199
 30
0.0
 40
2.5
  1
ナット
 41
0.9
  7
0.9横
100
AcDbText
  0
ENDBLK
  5
C804
330
C7D2
100
AcDbEntity
  8
0
100
AcDbBlockEnd
  0
BLOCK
  5
DA67
330
D9CD
100
AcDbEntity
  8
0
100
AcDbBlockBegin
  2
A$C631E3D22
 70
     0
 10
0.0
 20
0.0
 30
0.0
  3
A$C631E3D22
  1

  0
LINE
  5
D9CE
330
D9CD
100
AcDbEntity
  8
図面枠
100
AcDbLine
 10
-52.85818913958451
 20
203.4006096228279
 30
0.0
 11
145.3418108604155
 21
203.4006096228279
 31
0.0
1001
GENIUS_GENREC_14
1002
{
1000
PYDIR
1011
-52.85818913958451
1021
-81.68490895600752
1031
0.0
1002
}
1002
{
1000
PXDIR
1011
145.3418108604155
1021
203.4006096228279
1031
0.0
1002
}
1002
{
1000
PORI
1011
-52.85818913958451
1021
203.4006096228279
1031
0.0
1002
}
1002
{
1000
PINS
1011
-52.85818913958451
1021
203.4006096228279
1031
0.0
1002
}
1002
{
1000
PINS2
1011
145.3418108604155
1021
-81.68490895600758
1031
0.0
1002
}
1002
{
1000
C
1070
     1
1002
}
1001
GENIUS_GENOBJ-N-REC_13
1002
{
1000
OWNER
1000
GEN
1002
}
1001
GENIUS_GENODEF_13
1002
{
1000
HIER
1070
     0
1002
}
1002
{
1000
MANEDIT
1070
     0
1002
}
1002
{
1000
NOSEL
1070
     0
1002
}
1002
{
1000
BEHIND
1070
     0
1002
}
1002
{
1000
OTHER
1070
     0
1002
}
1002
{
1000
REACTOR
1002
}
  0
LINE
  5
D9CF
330
D9CD
100
AcDbEntity
  8
図面枠
100
AcDbLine
 10
145.3418108604155
 20
203.4006096228279
 30
0.0
 11
145.3418108604155
 21
-81.68490895600752
 31
0.0
1001
GENIUS_GENREC_14
1002
{
1000
PYDIR
1011
-52.85818913958451
1021
-81.68490895600752
1031
0.0
1002
}
1002
{
1000
PXDIR
1011
145.3418108604155
1021
203.4006096228279
1031
0.0
1002
}
1002
{
1000
PORI
1011
-52.85818913958451
1021
203.4006096228279
1031
0.0
1002
}
1002
{
1000
PINS
1011
-52.85818913958451
1021
203.4006096228279
1031
0.0
1002
}
1002
{
1000
PINS2
1011
145.3418108604155
1021
-81.68490895600758
1031
0.0
1002
}
1002
{
1000
C
1070
     1
1002
}
1001
GENIUS_GENOBJ-N-REC_13
1002
{
1000
OWNER
1000
GEN
1002
}
1001
GENIUS_GENODEF_13
1002
{
1000
HIER
1070
     0
1002
}
1002
{
1000
MANEDIT
1070
     0
1002
}
1002
{
1000
NOSEL
1070
     0
1002
}
1002
{
1000
BEHIND
1070
     0
1002
}
1002
{
1000
OTHER
1070
     0
1002
}
1002
{
1000
REACTOR
1002
}
  0
LINE
  5
D9D0
330
D9CD
100
AcDbEntity
  8
図面枠
100
AcDbLine
 10
145.3418108604155
 20
-81.68490895600752
 30
0.0
 11
-52.85818913958451
 21
-81.68490895600752
 31
0.0
1001
GENIUS_GENREC_14
1002
{
1000
PYDIR
1011
-52.85818913958451
1021
-81.68490895600752
1031
0.0
1002
}
1002
{
1000
PXDIR
1011
145.3418108604155
1021
203.4006096228279
1031
0.0
1002
}
1002
{
1000
PORI
1011
-52.85818913958451
1021
203.4006096228279
1031
0.0
1002
}
1002
{
1000
PINS
1011
-52.85818913958451
1021
203.4006096228279
1031
0.0
1002
}
1002
{
1000
PINS2
1011
145.3418108604155
1021
-81.68490895600758
1031
0.0
1002
}
1002
{
1000
C
1070
     1
1002
}
1001
GENIUS_GENOBJ-N-REC_13
1002
{
1000
OWNER
1000
GEN
1002
}
1001
GENIUS_GENODEF_13
1002
{
1000
HIER
1070
     0
1002
}
1002
{
1000
MANEDIT
1070
     0
1002
}
1002
{
1000
NOSEL
1070
     0
1002
}
1002
{
1000
BEHIND
1070
     0
1002
}
1002
{
1000
OTHER
1070
     0
1002
}
1002
{
1000
REACTOR
1002
}
  0
LINE
  5
D9D1
330
D9CD
100
AcDbEntity
  8
図面枠
100
AcDbLine
 10
-52.85818913958451
 20
-81.68490895600752
 30
0.0
 11
-52.85818913958451
 21
203.4006096228279
 31
0.0
1001
GENIUS_GENREC_14
1002
{
1000
PYDIR
1011
-52.85818913958451
1021
-81.68490895600752
1031
0.0
1002
}
1002
{
1000
PXDIR
1011
145.3418108604155
1021
203.4006096228279
1031
0.0
1002
}
1002
{
1000
PORI
1011
-52.85818913958451
1021
203.4006096228279
1031
0.0
1002
}
1002
{
1000
PINS
1011
-52.85818913958451
1021
203.4006096228279
1031
0.0
1002
}
1002
{
1000
PINS2
1011
145.3418108604155
1021
-81.68490895600758
1031
0.0
1002
}
1002
{
1000
C
1070
     1
1002
}
1001
GENIUS_GENOBJ-N-REC_13
1002
{
1000
OWNER
1000
GEN
1002
}
1001
GENIUS_GENODEF_13
1002
{
1000
HIER
1070
     0
1002
}
1002
{
1000
MANEDIT
1070
     0
1002
}
1002
{
1000
NOSEL
1070
     0
1002
}
1002
{
1000
BEHIND
1070
     0
1002
}
1002
{
1000
OTHER
1070
     0
1002
}
1002
{
1000
REACTOR
1002
}
  0
TEXT
  5
D9D2
330
D9CD
100
AcDbEntity
  8
図面枠
100
AcDbText
 10
78.79038228898702
 20
-45.68490895600773
 30
0.0
 40
3.0
  1
幅49mm\U+00D7奥行238mm\U+00D7高さ488mm
 41
0.8
  7
0.8横
100
AcDbText
  0
TEXT
  5
D9D3
330
D9CD
100
AcDbEntity
  8
図面枠
100
AcDbText
 10
98.16181086041556
 20
-50.68490895600774
 30
0.0
 40
3.0
  1
（ノズル含む）
 41
0.8
  7
0.8横
100
AcDbText
  0
TEXT
  5
D9D4
330
D9CD
100
AcDbEntity
  8
文字
100
AcDbText
 10
107.5986028219332
 20
-15.96400545704898
 30
0.0
 40
3.5
  1
A
 50
359.9999657426252
100
AcDbText
  0
LINE
  5
D9D5
330
D9CD
100
AcDbEntity
  8
仮想線
  6
HIDDEN
 48
0.2
100
AcDbLine
 10
106.055671872472
 20
-11.73217737075863
 30
0.0
 11
98.96365504083524
 21
-7.499999999984267
 31
0.0
  0
LINE
  5
D9D6
330
D9CD
100
AcDbEntity
  8
仮想線
  6
HIDDEN
 48
0.2
100
AcDbLine
 10
106.9319372015982
 20
-17.21400625425457
 30
0.0
 11
110.9319372015983
 21
-17.21400625425448
 31
0.0
1001
GENIUS_GENREC_14
1002
{
1000
PYDIR
1011
105.9319372015983
1021
-11.2140062542547
1031
0.0
1002
}
1002
{
1000
PXDIR
1011
111.9319372015982
1021
-17.21400625425457
1031
0.0
1002
}
1002
{
1000
PORI
1011
105.9319372015983
1021
-17.21400625425457
1031
0.0
1002
}
1002
{
1000
PINS
1011
105.9319372015983
1021
-17.21400625425457
1031
0.0
1002
}
1002
{
1000
HVAL
1000
30
1002
}
1002
{
1000
H
1070
     2
1002
}
1002
{
1000
WVAL
1000
30
1002
}
1002
{
1000
W
1070
     2
1002
}
1002
{
1000
C
1070
     1
1002
}
1001
GENIUS_GENOBJ-N-REC_13
1002
{
1000
OWNER
1000
GEN
1002
}
1001
GENIUS_GENODEF_13
1002
{
1000
HIER
1070
     0
1002
}
1002
{
1000
MANEDIT
1070
     0
1002
}
1002
{
1000
NOSEL
1070
     0
1002
}
1002
{
1000
BEHIND
1070
     0
1002
}
1002
{
1000
OTHER
1070
     0
1002
}
1002
{
1000
REACTOR
1002
}
  0
ARC
  5
D9D7
330
D9CD
100
AcDbEntity
  8
仮想線
  6
HIDDEN
 48
0.2
100
AcDbCircle
 10
110.9319372015983
 20
-16.21400625425448
 30
0.0
 40
0.9999999999999856
100
AcDbArc
 50
269.999999999998
 51
0.0
1001
GENIUS_GENREC_14
1002
{
1000
PYDIR
1011
105.9319372015983
1021
-11.2140062542547
1031
0.0
1002
}
1002
{
1000
PXDIR
1011
111.9319372015982
1021
-17.21400625425457
1031
0.0
1002
}
1002
{
1000
PORI
1011
105.9319372015983
1021
-17.21400625425457
1031
0.0
1002
}
1002
{
1000
PINS
1011
105.9319372015983
1021
-17.21400625425457
1031
0.0
1002
}
1002
{
1000
HVAL
1000
30
1002
}
1002
{
1000
H
1070
     2
1002
}
1002
{
1000
WVAL
1000
30
1002
}
1002
{
1000
W
1070
     2
1002
}
1002
{
1000
C
1070
     1
1002
}
1001
GENIUS_GENOBJ-N-REC_13
1002
{
1000
OWNER
1000
GEN
1002
}
1001
GENIUS_GENODEF_13
1002
{
1000
HIER
1070
     0
1002
}
1002
{
1000
MANEDIT
1070
     0
1002
}
1002
{
1000
NOSEL
1070
     0
1002
}
1002
{
1000
BEHIND
1070
     0
1002
}
1002
{
1000
OTHER
1070
     0
1002
}
1002
{
1000
REACTOR
1002
}
  0
LINE
  5
D9D8
330
D9CD
100
AcDbEntity
  8
仮想線
  6
HIDDEN
 48
0.2
100
AcDbLine
 10
111.9319372015983
 20
-16.2140062542545
 30
0.0
 11
111.9319372015982
 21
-12.21400625425458
 31
0.0
1001
GENIUS_GENREC_14
1002
{
1000
PYDIR
1011
105.9319372015983
1021
-11.2140062542547
1031
0.0
1002
}
1002
{
1000
PXDIR
1011
111.9319372015982
1021
-17.21400625425457
1031
0.0
1002
}
1002
{
1000
PORI
1011
105.9319372015983
1021
-17.21400625425457
1031
0.0
1002
}
1002
{
1000
PINS
1011
105.9319372015983
1021
-17.21400625425457
1031
0.0
1002
}
1002
{
1000
HVAL
1000
30
1002
}
1002
{
1000
H
1070
     2
1002
}
1002
{
1000
WVAL
1000
30
1002
}
1002
{
1000
W
1070
     2
1002
}
1002
{
1000
C
1070
     1
1002
}
1001
GENIUS_GENOBJ-N-REC_13
1002
{
1000
OWNER
1000
GEN
1002
}
1001
GENIUS_GENODEF_13
1002
{
1000
HIER
1070
     0
1002
}
1002
{
1000
MANEDIT
1070
     0
1002
}
1002
{
1000
NOSEL
1070
     0
1002
}
1002
{
1000
BEHIND
1070
     0
1002
}
1002
{
1000
OTHER
1070
     0
1002
}
1002
{
1000
REACTOR
1002
}
  0
ARC
  5
D9D9
330
D9CD
100
AcDbEntity
  8
仮想線
  6
HIDDEN
 48
0.2
100
AcDbCircle
 10
110.9319372015982
 20
-12.21400625425458
 30
0.0
 40
0.9999999999999715
100
AcDbArc
 50
0.0
 51
89.99999999999799
1001
GENIUS_GENREC_14
1002
{
1000
PYDIR
1011
105.9319372015983
1021
-11.2140062542547
1031
0.0
1002
}
1002
{
1000
PXDIR
1011
111.9319372015982
1021
-17.21400625425457
1031
0.0
1002
}
1002
{
1000
PORI
1011
105.9319372015983
1021
-17.21400625425457
1031
0.0
1002
}
1002
{
1000
PINS
1011
105.9319372015983
1021
-17.21400625425457
1031
0.0
1002
}
1002
{
1000
HVAL
1000
30
1002
}
1002
{
1000
H
1070
     2
1002
}
1002
{
1000
WVAL
1000
30
1002
}
1002
{
1000
W
1070
     2
1002
}
1002
{
1000
C
1070
     1
1002
}
1001
GENIUS_GENOBJ-N-REC_13
1002
{
1000
OWNER
1000
GEN
1002
}
1001
GENIUS_GENODEF_13
1002
{
1000
HIER
1070
     0
1002
}
1002
{
1000
MANEDIT
1070
     0
1002
}
1002
{
1000
NOSEL
1070
     0
1002
}
1002
{
1000
BEHIND
1070
     0
1002
}
1002
{
1000
OTHER
1070
     0
1002
}
1002
{
1000
REACTOR
1002
}
  0
LINE
  5
D9DA
330
D9CD
100
AcDbEntity
  8
仮想線
  6
HIDDEN
 48
0.2
100
AcDbLine
 10
110.9319372015983
 20
-11.2140062542546
 30
0.0
 11
106.9319372015983
 21
-11.21400625425478
 31
0.0
1001
GENIUS_GENREC_14
1002
{
1000
PYDIR
1011
105.9319372015983
1021
-11.2140062542547
1031
0.0
1002
}
1002
{
1000
PXDIR
1011
111.9319372015982
1021
-17.21400625425457
1031
0.0
1002
}
1002
{
1000
PORI
1011
105.9319372015983
1021
-17.21400625425457
1031
0.0
1002
}
1002
{
1000
PINS
1011
105.9319372015983
1021
-17.21400625425457
1031
0.0
1002
}
1002
{
1000
HVAL
1000
30
1002
}
1002
{
1000
H
1070
     2
1002
}
1002
{
1000
WVAL
1000
30
1002
}
1002
{
1000
W
1070
     2
1002
}
1002
{
1000
C
1070
     1
1002
}
1001
GENIUS_GENOBJ-N-REC_13
1002
{
1000
OWNER
1000
GEN
1002
}
1001
GENIUS_GENODEF_13
1002
{
1000
HIER
1070
     0
1002
}
1002
{
1000
MANEDIT
1070
     0
1002
}
1002
{
1000
NOSEL
1070
     0
1002
}
1002
{
1000
BEHIND
1070
     0
1002
}
1002
{
1000
OTHER
1070
     0
1002
}
1002
{
1000
REACTOR
1002
}
  0
ARC
  5
D9DB
330
D9CD
100
AcDbEntity
  8
仮想線
  6
HIDDEN
 48
0.2
100
AcDbCircle
 10
106.9319372015983
 20
-12.21400625425478
 30
0.0
 40
1.0
100
AcDbArc
 50
90.0
 51
179.9999999999979
1001
GENIUS_GENREC_14
1002
{
1000
PYDIR
1011
105.9319372015983
1021
-11.2140062542547
1031
0.0
1002
}
1002
{
1000
PXDIR
1011
111.9319372015982
1021
-17.21400625425457
1031
0.0
1002
}
1002
{
1000
PORI
1011
105.9319372015983
1021
-17.21400625425457
1031
0.0
1002
}
1002
{
1000
PINS
1011
105.9319372015983
1021
-17.21400625425457
1031
0.0
1002
}
1002
{
1000
HVAL
1000
30
1002
}
1002
{
1000
H
1070
     2
1002
}
1002
{
1000
WVAL
1000
30
1002
}
1002
{
1000
W
1070
     2
1002
}
1002
{
1000
C
1070
     1
1002
}
1001
GENIUS_GENOBJ-N-REC_13
1002
{
1000
OWNER
1000
GEN
1002
}
1001
GENIUS_GENODEF_13
1002
{
1000
HIER
1070
     0
1002
}
1002
{
1000
MANEDIT
1070
     0
1002
}
1002
{
1000
NOSEL
1070
     0
1002
}
1002
{
1000
BEHIND
1070
     0
1002
}
1002
{
1000
OTHER
1070
     0
1002
}
1002
{
1000
REACTOR
1002
}
  0
LINE
  5
D9DC
330
D9CD
100
AcDbEntity
  8
仮想線
  6
HIDDEN
 48
0.2
100
AcDbLine
 10
105.9319372015983
 20
-12.21400625425475
 30
0.0
 11
105.9319372015983
 21
-16.21400625425458
 31
0.0
1001
GENIUS_GENREC_14
1002
{
1000
PYDIR
1011
105.9319372015983
1021
-11.2140062542547
1031
0.0
1002
}
1002
{
1000
PXDIR
1011
111.9319372015982
1021
-17.21400625425457
1031
0.0
1002
}
1002
{
1000
PORI
1011
105.9319372015983
1021
-17.21400625425457
1031
0.0
1002
}
1002
{
1000
PINS
1011
105.9319372015983
1021
-17.21400625425457
1031
0.0
1002
}
1002
{
1000
HVAL
1000
30
1002
}
1002
{
1000
H
1070
     2
1002
}
1002
{
1000
WVAL
1000
30
1002
}
1002
{
1000
W
1070
     2
1002
}
1002
{
1000
C
1070
     1
1002
}
1001
GENIUS_GENOBJ-N-REC_13
1002
{
1000
OWNER
1000
GEN
1002
}
1001
GENIUS_GENODEF_13
1002
{
1000
HIER
1070
     0
1002
}
1002
{
1000
MANEDIT
1070
     0
1002
}
1002
{
1000
NOSEL
1070
     0
1002
}
1002
{
1000
BEHIND
1070
     0
1002
}
1002
{
1000
OTHER
1070
     0
1002
}
1002
{
1000
REACTOR
1002
}
  0
ARC
  5
D9DD
330
D9CD
100
AcDbEntity
  8
仮想線
  6
HIDDEN
 48
0.2
100
AcDbCircle
 10
106.9319372015982
 20
-16.21400625425461
 30
0.0
 40
0.9999999999999431
100
AcDbArc
 50
179.9999999999979
 51
270.0
1001
GENIUS_GENREC_14
1002
{
1000
PYDIR
1011
105.9319372015983
1021
-11.2140062542547
1031
0.0
1002
}
1002
{
1000
PXDIR
1011
111.9319372015982
1021
-17.21400625425457
1031
0.0
1002
}
1002
{
1000
PORI
1011
105.9319372015983
1021
-17.21400625425457
1031
0.0
1002
}
1002
{
1000
PINS
1011
105.9319372015983
1021
-17.21400625425457
1031
0.0
1002
}
1002
{
1000
HVAL
1000
30
1002
}
1002
{
1000
H
1070
     2
1002
}
1002
{
1000
WVAL
1000
30
1002
}
1002
{
1000
W
1070
     2
1002
}
1002
{
1000
C
1070
     1
1002
}
1001
GENIUS_GENOBJ-N-REC_13
1002
{
1000
OWNER
1000
GEN
1002
}
1001
GENIUS_GENODEF_13
1002
{
1000
HIER
1070
     0
1002
}
1002
{
1000
MANEDIT
1070
     0
1002
}
1002
{
1000
NOSEL
1070
     0
1002
}
1002
{
1000
BEHIND
1070
     0
1002
}
1002
{
1000
OTHER
1070
     0
1002
}
1002
{
1000
REACTOR
1002
}
  0
LINE
  5
D9DE
330
D9CD
100
AcDbEntity
  8
AM_5
 62
     4
370
     9
100
AcDbLine
 10
3.100000000000014
 20
162.7708886653095
 30
0.0
 11
-11.76727964913093
 21
162.7708886653095
 31
0.0
  0
LINE
  5
D9DF
330
D9CD
100
AcDbEntity
  8
AM_5
 62
     4
370
     9
100
AcDbLine
 10
-0.2672796491309199
 20
170.3465038539213
 30
0.0
 11
-11.76727964913093
 21
170.3465038539213
 31
0.0
  0
LINE
  5
D9E0
330
D9CD
100
AcDbEntity
  8
AM_5
 62
     4
370
     9
100
AcDbLine
 10
-10.76727964913092
 20
164.7708886653095
 30
0.0
 11
-10.76727964913092
 21
168.3465038539213
 31
0.0
  0
LINE
  5
D9E1
330
D9CD
100
AcDbEntity
  8
0
  6
ByBlock
 62
     0
370
    -2
100
AcDbLine
 10
-10.43394631579758
 20
164.7708886653095
 30
0.0
 11
-10.76727964913092
 21
162.7708886653095
 31
0.0
  0
LINE
  5
D9E2
330
D9CD
100
AcDbEntity
  8
0
  6
ByBlock
 62
     0
370
    -2
100
AcDbLine
 10
-11.10061298246425
 20
164.7708886653095
 30
0.0
 11
-10.76727964913092
 21
162.7708886653095
 31
0.0
  0
LINE
  5
D9E3
330
D9CD
100
AcDbEntity
  8
0
  6
ByBlock
 62
     0
370
    -2
100
AcDbLine
 10
-10.76727964913092
 20
162.7708886653095
 30
0.0
 11
-10.76727964913092
 21
164.7708886653095
 31
0.0
  0
LINE
  5
D9E4
330
D9CD
100
AcDbEntity
  8
0
  6
ByBlock
 62
     0
370
    -2
100
AcDbLine
 10
-11.10061298246425
 20
168.3465038539213
 30
0.0
 11
-10.76727964913092
 21
170.3465038539213
 31
0.0
  0
LINE
  5
D9E5
330
D9CD
100
AcDbEntity
  8
0
  6
ByBlock
 62
     0
370
    -2
100
AcDbLine
 10
-10.43394631579758
 20
168.3465038539213
 30
0.0
 11
-10.76727964913092
 21
170.3465038539213
 31
0.0
  0
LINE
  5
D9E6
330
D9CD
100
AcDbEntity
  8
0
  6
ByBlock
 62
     0
370
    -2
100
AcDbLine
 10
-10.76727964913092
 20
170.3465038539213
 30
0.0
 11
-10.76727964913092
 21
168.3465038539213
 31
0.0
  0
TEXT
  5
D9E7
330
D9CD
100
AcDbEntity
  8
AM_5
100
AcDbText
 10
-11.76727964913097
 20
164.0086962596153
 30
0.0
 40
3.5
  1
38
 50
90.0
 41
0.9
  7
承認
100
AcDbText
  0
LINE
  5
D9E8
330
D9CD
100
AcDbEntity
  8
AM_5
 62
     4
370
     9
100
AcDbLine
 10
6.400000000000388
 20
122.9599578653103
 30
0.0
 11
21.56727964913124
 21
122.9599578653102
 31
0.0
  0
LINE
  5
D9E9
330
D9CD
100
AcDbEntity
  8
AM_5
 62
     4
370
     9
100
AcDbLine
 10
10.06727964913125
 20
170.3465038539214
 30
0.0
 11
21.56727964913125
 21
170.3465038539213
 31
0.0
  0
LINE
  5
D9EA
330
D9CD
100
AcDbEntity
  8
AM_5
 62
     4
370
     9
100
AcDbLine
 10
20.56727964913124
 20
124.9599578653102
 30
0.0
 11
20.56727964913124
 21
168.3465038539213
 31
0.0
  0
LINE
  5
D9EB
330
D9CD
100
AcDbEntity
  8
0
  6
ByBlock
 62
     0
370
    -2
100
AcDbLine
 10
20.90061298246455
 20
124.9599578653102
 30
0.0
 11
20.56727964913124
 21
122.9599578653102
 31
0.0
  0
LINE
  5
D9EC
330
D9CD
100
AcDbEntity
  8
0
  6
ByBlock
 62
     0
370
    -2
100
AcDbLine
 10
20.23394631579791
 20
124.9599578653102
 30
0.0
 11
20.56727964913124
 21
122.9599578653102
 31
0.0
  0
LINE
  5
D9ED
330
D9CD
100
AcDbEntity
  8
0
  6
ByBlock
 62
     0
370
    -2
100
AcDbLine
 10
20.56727964913124
 20
122.9599578653102
 30
0.0
 11
20.56727964913124
 21
124.9599578653102
 31
0.0
  0
LINE
  5
D9EE
330
D9CD
100
AcDbEntity
  8
0
  6
ByBlock
 62
     0
370
    -2
100
AcDbLine
 10
20.23394631579792
 20
168.3465038539213
 30
0.0
 11
20.56727964913124
 21
170.3465038539213
 31
0.0
  0
LINE
  5
D9EF
330
D9CD
100
AcDbEntity
  8
0
  6
ByBlock
 62
     0
370
    -2
100
AcDbLine
 10
20.90061298246458
 20
168.3465038539213
 30
0.0
 11
20.56727964913124
 21
170.3465038539213
 31
0.0
  0
LINE
  5
D9F0
330
D9CD
100
AcDbEntity
  8
0
  6
ByBlock
 62
     0
370
    -2
100
AcDbLine
 10
20.56727964913124
 20
170.3465038539213
 30
0.0
 11
20.56727964913124
 21
168.3465038539213
 31
0.0
  0
TEXT
  5
D9F1
330
D9CD
100
AcDbEntity
  8
AM_5
100
AcDbText
 10
18.40061298246453
 20
140.5782308596158
 30
0.0
 40
3.5
  1
(238)
 50
90.0
 41
0.9
  7
承認
100
AcDbText
  0
LINE
  5
D9F2
330
D9CD
100
AcDbEntity
  8
AM_5
 62
     4
370
     9
100
AcDbLine
 10
0.0000000000000142
 20
-1.5
 30
0.0
 11
0.0000000000000142
 21
-13.0
 31
0.0
  0
LINE
  5
D9F3
330
D9CD
100
AcDbEntity
  8
AM_5
 62
     4
370
     9
100
AcDbLine
 10
9.800000000000011
 20
-1.5
 30
0.0
 11
9.800000000000011
 21
-13.0
 31
0.0
  0
LINE
  5
D9F4
330
D9CD
100
AcDbEntity
  8
AM_5
 62
     4
370
     9
100
AcDbLine
 10
2.0
 20
-12.0
 30
0.0
 11
7.800000000000012
 21
-12.0
 31
0.0
  0
LINE
  5
D9F5
330
D9CD
100
AcDbEntity
  8
0
  6
ByBlock
 62
     0
370
    -2
100
AcDbLine
 10
2.0
 20
-12.33333333333333
 30
0.0
 11
0.0000000000000142
 21
-12.0
 31
0.0
  0
LINE
  5
D9F6
330
D9CD
100
AcDbEntity
  8
0
  6
ByBlock
 62
     0
370
    -2
100
AcDbLine
 10
2.0
 20
-11.66666666666667
 30
0.0
 11
0.0000000000000142
 21
-12.0
 31
0.0
  0
LINE
  5
D9F7
330
D9CD
100
AcDbEntity
  8
0
  6
ByBlock
 62
     0
370
    -2
100
AcDbLine
 10
0.0000000000000142
 20
-12.0
 30
0.0
 11
2.0
 21
-12.0
 31
0.0
  0
LINE
  5
D9F8
330
D9CD
100
AcDbEntity
  8
0
  6
ByBlock
 62
     0
370
    -2
100
AcDbLine
 10
7.800000000000012
 20
-11.66666666666667
 30
0.0
 11
9.800000000000011
 21
-12.0
 31
0.0
  0
LINE
  5
D9F9
330
D9CD
100
AcDbEntity
  8
0
  6
ByBlock
 62
     0
370
    -2
100
AcDbLine
 10
7.800000000000012
 20
-12.33333333333333
 30
0.0
 11
9.800000000000011
 21
-12.0
 31
0.0
  0
LINE
  5
D9FA
330
D9CD
100
AcDbEntity
  8
0
  6
ByBlock
 62
     0
370
    -2
100
AcDbLine
 10
9.800000000000011
 20
-12.0
 30
0.0
 11
7.800000000000012
 21
-12.0
 31
0.0
  0
TEXT
  5
D9FB
330
D9CD
100
AcDbEntity
  8
AM_5
100
AcDbText
 10
2.42500000000001
 20
-11.0
 30
0.0
 40
3.5
  1
49
 41
0.9
  7
承認
100
AcDbText
  0
LINE
  5
D9FC
330
D9CD
100
AcDbEntity
  8
AM_5
 62
     4
370
     9
100
AcDbLine
 10
11.29999999999999
 20
0.0
 30
0.0
 11
22.79999999999998
 21
0.0
 31
0.0
  0
LINE
  5
D9FD
330
D9CD
100
AcDbEntity
  8
AM_5
 62
     4
370
     9
100
AcDbLine
 10
7.231190457407513
 20
97.50000000000296
 30
0.0
 11
22.80000000000001
 21
97.50000000000296
 31
0.0
  0
LINE
  5
D9FE
330
D9CD
100
AcDbEntity
  8
AM_5
 62
     4
370
     9
100
AcDbLine
 10
21.79999999999997
 20
2.0
 30
0.0
 11
21.80000000000001
 21
95.50000000000295
 31
0.0
  0
LINE
  5
D9FF
330
D9CD
100
AcDbEntity
  8
0
  6
ByBlock
 62
     0
370
    -2
100
AcDbLine
 10
22.13333333333331
 20
2.0
 30
0.0
 11
21.79999999999997
 21
0.0
 31
0.0
  0
LINE
  5
DA00
330
D9CD
100
AcDbEntity
  8
0
  6
ByBlock
 62
     0
370
    -2
100
AcDbLine
 10
21.46666666666666
 20
2.0
 30
0.0
 11
21.79999999999997
 21
0.0
 31
0.0
  0
LINE
  5
DA01
330
D9CD
100
AcDbEntity
  8
0
  6
ByBlock
 62
     0
370
    -2
100
AcDbLine
 10
21.79999999999997
 20
0.0
 30
0.0
 11
21.79999999999997
 21
2.0
 31
0.0
  0
LINE
  5
DA02
330
D9CD
100
AcDbEntity
  8
0
  6
ByBlock
 62
     0
370
    -2
100
AcDbLine
 10
21.46666666666668
 20
95.50000000000295
 30
0.0
 11
21.80000000000001
 21
97.50000000000296
 31
0.0
  0
LINE
  5
DA03
330
D9CD
100
AcDbEntity
  8
0
  6
ByBlock
 62
     0
370
    -2
100
AcDbLine
 10
22.13333333333332
 20
95.50000000000295
 30
0.0
 11
21.80000000000001
 21
97.50000000000296
 31
0.0
  0
LINE
  5
DA04
330
D9CD
100
AcDbEntity
  8
0
  6
ByBlock
 62
     0
370
    -2
100
AcDbLine
 10
21.80000000000001
 20
97.50000000000296
 30
0.0
 11
21.80000000000001
 21
95.50000000000295
 31
0.0
  0
TEXT
  5
DA05
330
D9CD
100
AcDbEntity
  8
AM_5
100
AcDbText
 10
19.63333333333331
 20
27.55500000000151
 30
0.0
 40
3.5
  1
488(標準ノズル使用時)
 50
90.0
 41
0.9
  7
承認
100
AcDbText
  0
LINE
  5
DA06
330
D9CD
100
AcDbEntity
  8
AM_5
 62
     4
370
     9
100
AcDbLine
 10
90.39999999990023
 20
-15.0
 30
0.0
 11
59.82467926626899
 21
-15.0
 31
0.0
  0
LINE
  5
DA07
330
D9CD
100
AcDbEntity
  8
AM_5
 62
     4
370
     9
100
AcDbLine
 10
71.32467926626894
 20
0.0
 30
0.0
 11
59.82467926626899
 21
0.0
 31
0.0
  0
LINE
  5
DA08
330
D9CD
100
AcDbEntity
  8
AM_5
 62
     4
370
     9
100
AcDbLine
 10
60.82467926626899
 20
-13.0
 30
0.0
 11
60.82467926626899
 21
-2.0
 31
0.0
  0
LINE
  5
DA09
330
D9CD
100
AcDbEntity
  8
0
  6
ByBlock
 62
     0
370
    -2
100
AcDbLine
 10
61.15801259960233
 20
-13.0
 30
0.0
 11
60.82467926626899
 21
-15.0
 31
0.0
  0
LINE
  5
DA0A
330
D9CD
100
AcDbEntity
  8
0
  6
ByBlock
 62
     0
370
    -2
100
AcDbLine
 10
60.49134593293565
 20
-13.0
 30
0.0
 11
60.82467926626899
 21
-15.0
 31
0.0
  0
LINE
  5
DA0B
330
D9CD
100
AcDbEntity
  8
0
  6
ByBlock
 62
     0
370
    -2
100
AcDbLine
 10
60.82467926626899
 20
-15.0
 30
0.0
 11
60.82467926626899
 21
-13.0
 31
0.0
  0
LINE
  5
DA0C
330
D9CD
100
AcDbEntity
  8
0
  6
ByBlock
 62
     0
370
    -2
100
AcDbLine
 10
60.49134593293565
 20
-2.0
 30
0.0
 11
60.82467926626899
 21
0.0
 31
0.0
  0
LINE
  5
DA0D
330
D9CD
100
AcDbEntity
  8
0
  6
ByBlock
 62
     0
370
    -2
100
AcDbLine
 10
61.15801259960233
 20
-2.0
 30
0.0
 11
60.82467926626899
 21
0.0
 31
0.0
  0
LINE
  5
DA0E
330
D9CD
100
AcDbEntity
  8
0
  6
ByBlock
 62
     0
370
    -2
100
AcDbLine
 10
60.82467926626899
 20
0.0
 30
0.0
 11
60.82467926626899
 21
-2.0
 31
0.0
  0
TEXT
  5
DA0F
330
D9CD
100
AcDbEntity
  8
AM_5
100
AcDbText
 10
58.65801259960232
 20
-12.07499999999997
 30
0.0
 40
3.5
  1
(75)
 50
90.0
 41
0.9
  7
承認
100
AcDbText
  0
LINE
  5
DA10
330
D9CD
100
AcDbEntity
  8
AM_5
 62
     4
370
     9
100
AcDbLine
 10
71.32467926626894
 20
0.0
 30
0.0
 11
42.3797293691777
 21
0.0000000000000071
 31
0.0
  0
LINE
  5
DA11
330
D9CD
100
AcDbEntity
  8
AM_5
 62
     4
370
     9
100
AcDbLine
 10
53.97190041051482
 20
66.76010481838389
 30
0.0
 11
42.3797293691777
 21
66.76010481838389
 31
0.0
  0
LINE
  5
DA12
330
D9CD
100
AcDbEntity
  8
AM_5
 62
     4
370
     9
100
AcDbLine
 10
43.37972936917767
 20
2.0
 30
0.0
 11
43.37972936917771
 21
64.7601048183839
 31
0.0
  0
LINE
  5
DA13
330
D9CD
100
AcDbEntity
  8
0
  6
ByBlock
 62
     0
370
    -2
100
AcDbLine
 10
43.71306270251102
 20
2.0
 30
0.0
 11
43.37972936917767
 21
0.0
 31
0.0
  0
LINE
  5
DA14
330
D9CD
100
AcDbEntity
  8
0
  6
ByBlock
 62
     0
370
    -2
100
AcDbLine
 10
43.04639603584435
 20
2.0
 30
0.0
 11
43.37972936917767
 21
0.0
 31
0.0
  0
LINE
  5
DA15
330
D9CD
100
AcDbEntity
  8
0
  6
ByBlock
 62
     0
370
    -2
100
AcDbLine
 10
43.37972936917767
 20
0.0
 30
0.0
 11
43.37972936917767
 21
2.0
 31
0.0
  0
LINE
  5
DA16
330
D9CD
100
AcDbEntity
  8
0
  6
ByBlock
 62
     0
370
    -2
100
AcDbLine
 10
43.04639603584435
 20
64.7601048183839
 30
0.0
 11
43.37972936917771
 21
66.76010481838389
 31
0.0
  0
LINE
  5
DA17
330
D9CD
100
AcDbEntity
  8
0
  6
ByBlock
 62
     0
370
    -2
100
AcDbLine
 10
43.71306270251102
 20
64.7601048183839
 30
0.0
 11
43.37972936917771
 21
66.76010481838389
 31
0.0
  0
LINE
  5
DA18
330
D9CD
100
AcDbEntity
  8
0
  6
ByBlock
 62
     0
370
    -2
100
AcDbLine
 10
43.37972936917771
 20
66.76010481838389
 30
0.0
 11
43.37972936917771
 21
64.7601048183839
 31
0.0
  0
TEXT
  5
DA19
330
D9CD
100
AcDbEntity
  8
AM_5
100
AcDbText
 10
42.37972936917764
 20
29.33005240919199
 30
0.0
 40
3.5
  1
334
 50
90.0
 41
0.9
  7
承認
100
AcDbText
  0
LINE
  5
DA1A
330
D9CD
100
AcDbEntity
  8
AM_5
 62
     4
370
     9
100
AcDbLine
 10
60.98342319990111
 20
65.52943440000041
 30
0.0
 11
60.98342319990111
 21
42.01040897889496
 31
0.0
  0
LINE
  5
DA1B
330
D9CD
100
AcDbEntity
  8
AM_5
 62
     4
370
     9
100
AcDbLine
 10
94.89999999990031
 20
18.51213317320788
 30
0.0
 11
94.89999999990031
 21
44.01040897889497
 31
0.0
  0
LINE
  5
DA1C
330
D9CD
100
AcDbEntity
  8
AM_5
 62
     4
370
     9
100
AcDbLine
 10
62.98342319990111
 20
43.01040897889495
 30
0.0
 11
92.8999999999003
 21
43.01040897889495
 31
0.0
  0
LINE
  5
DA1D
330
D9CD
100
AcDbEntity
  8
0
  6
ByBlock
 62
     0
370
    -2
100
AcDbLine
 10
62.98342319990111
 20
42.67707564556165
 30
0.0
 11
60.98342319990111
 21
43.01040897889495
 31
0.0
  0
LINE
  5
DA1E
330
D9CD
100
AcDbEntity
  8
0
  6
ByBlock
 62
     0
370
    -2
100
AcDbLine
 10
62.98342319990111
 20
43.34374231222827
 30
0.0
 11
60.98342319990111
 21
43.01040897889495
 31
0.0
  0
LINE
  5
DA1F
330
D9CD
100
AcDbEntity
  8
0
  6
ByBlock
 62
     0
370
    -2
100
AcDbLine
 10
60.98342319990111
 20
43.01040897889495
 30
0.0
 11
62.98342319990111
 21
43.01040897889495
 31
0.0
  0
LINE
  5
DA20
330
D9CD
100
AcDbEntity
  8
0
  6
ByBlock
 62
     0
370
    -2
100
AcDbLine
 10
92.8999999999003
 20
43.34374231222827
 30
0.0
 11
94.89999999990031
 21
43.01040897889495
 31
0.0
  0
LINE
  5
DA21
330
D9CD
100
AcDbEntity
  8
0
  6
ByBlock
 62
     0
370
    -2
100
AcDbLine
 10
92.8999999999003
 20
42.67707564556165
 30
0.0
 11
94.89999999990031
 21
43.01040897889495
 31
0.0
  0
LINE
  5
DA22
330
D9CD
100
AcDbEntity
  8
0
  6
ByBlock
 62
     0
370
    -2
100
AcDbLine
 10
94.89999999990031
 20
43.01040897889495
 30
0.0
 11
92.8999999999003
 21
43.01040897889495
 31
0.0
  0
TEXT
  5
DA23
330
D9CD
100
AcDbEntity
  8
AM_5
100
AcDbText
 10
74.15331873235948
 20
44.01040897889497
 30
0.0
 40
3.5
  1
170
 41
0.9
  7
承認
100
AcDbText
  0
LINE
  5
DA24
330
D9CD
100
AcDbEntity
  8
AM_5
 62
     4
370
     9
100
AcDbLine
 10
94.89999999990024
 20
2.100000000000378
 30
0.0
 11
94.89999999990024
 21
13.60000000000039
 31
0.0
  0
LINE
  5
DA25
330
D9CD
100
AcDbEntity
  8
AM_5
 62
     4
370
     9
100
AcDbLine
 10
99.89999999990024
 20
1.500000000000369
 30
0.0
 11
99.89999999990024
 21
13.60000000000039
 31
0.0
  0
LINE
  5
DA26
330
D9CD
100
AcDbEntity
  8
AM_5
 62
     4
370
     9
100
AcDbLine
 10
92.89999999990023
 20
12.60000000000039
 30
0.0
 11
90.89999999990023
 21
12.60000000000039
 31
0.0
  0
LINE
  5
DA27
330
D9CD
100
AcDbEntity
  8
AM_5
 62
     4
370
     9
100
AcDbLine
 10
101.8999999999002
 20
12.60000000000039
 30
0.0
 11
110.9999999999002
 21
12.60000000000039
 31
0.0
  0
LINE
  5
DA28
330
D9CD
100
AcDbEntity
  8
AM_5
 62
     4
370
     9
100
AcDbLine
 10
94.89999999990024
 20
12.60000000000039
 30
0.0
 11
99.89999999990024
 21
12.60000000000039
 31
0.0
  0
LINE
  5
DA29
330
D9CD
100
AcDbEntity
  8
0
  6
ByBlock
 62
     0
370
    -2
100
AcDbLine
 10
92.89999999990023
 20
12.93333333333371
 30
0.0
 11
94.89999999990024
 21
12.60000000000039
 31
0.0
  0
LINE
  5
DA2A
330
D9CD
100
AcDbEntity
  8
0
  6
ByBlock
 62
     0
370
    -2
100
AcDbLine
 10
92.89999999990023
 20
12.26666666666706
 30
0.0
 11
94.89999999990024
 21
12.60000000000039
 31
0.0
  0
LINE
  5
DA2B
330
D9CD
100
AcDbEntity
  8
0
  6
ByBlock
 62
     0
370
    -2
100
AcDbLine
 10
94.89999999990024
 20
12.60000000000039
 30
0.0
 11
92.89999999990023
 21
12.60000000000039
 31
0.0
  0
LINE
  5
DA2C
330
D9CD
100
AcDbEntity
  8
0
  6
ByBlock
 62
     0
370
    -2
100
AcDbLine
 10
101.8999999999002
 20
12.26666666666706
 30
0.0
 11
99.89999999990024
 21
12.60000000000039
 31
0.0
  0
LINE
  5
DA2D
330
D9CD
100
AcDbEntity
  8
0
  6
ByBlock
 62
     0
370
    -2
100
AcDbLine
 10
101.8999999999002
 20
12.93333333333371
 30
0.0
 11
99.89999999990024
 21
12.60000000000039
 31
0.0
  0
LINE
  5
DA2E
330
D9CD
100
AcDbEntity
  8
0
  6
ByBlock
 62
     0
370
    -2
100
AcDbLine
 10
99.89999999990024
 20
12.60000000000039
 30
0.0
 11
101.8999999999002
 21
12.60000000000039
 31
0.0
  0
TEXT
  5
DA2F
330
D9CD
100
AcDbEntity
  8
AM_5
100
AcDbText
 10
104.8999999999002
 20
13.60000000000039
 30
0.0
 40
3.5
  1
25
 41
0.9
  7
承認
100
AcDbText
  0
LINE
  5
DA30
330
D9CD
100
AcDbEntity
  8
AM_5
 62
     4
370
     9
100
AcDbLine
 10
94.89999999990024
 20
2.100000000000378
 30
0.0
 11
94.89999999990024
 21
13.60000000000039
 31
0.0
  0
LINE
  5
DA31
330
D9CD
100
AcDbEntity
  8
AM_5
 62
     4
370
     9
100
AcDbLine
 10
79.09999999990154
 20
1.800000000000693
 30
0.0
 11
79.09999999990154
 21
13.60000000000039
 31
0.0
  0
LINE
  5
DA32
330
D9CD
100
AcDbEntity
  8
AM_5
 62
     4
370
     9
100
AcDbLine
 10
92.89999999990023
 20
12.60000000000039
 30
0.0
 11
81.09999999990154
 21
12.60000000000039
 31
0.0
  0
LINE
  5
DA33
330
D9CD
100
AcDbEntity
  8
0
  6
ByBlock
 62
     0
370
    -2
100
AcDbLine
 10
92.89999999990023
 20
12.93333333333371
 30
0.0
 11
94.89999999990024
 21
12.60000000000039
 31
0.0
  0
LINE
  5
DA34
330
D9CD
100
AcDbEntity
  8
0
  6
ByBlock
 62
     0
370
    -2
100
AcDbLine
 10
92.89999999990023
 20
12.26666666666706
 30
0.0
 11
94.89999999990024
 21
12.60000000000039
 31
0.0
  0
LINE
  5
DA35
330
D9CD
100
AcDbEntity
  8
0
  6
ByBlock
 62
     0
370
    -2
100
AcDbLine
 10
94.89999999990024
 20
12.60000000000039
 30
0.0
 11
92.89999999990023
 21
12.60000000000039
 31
0.0
  0
LINE
  5
DA36
330
D9CD
100
AcDbEntity
  8
0
  6
ByBlock
 62
     0
370
    -2
100
AcDbLine
 10
81.09999999990154
 20
12.26666666666706
 30
0.0
 11
79.09999999990154
 21
12.60000000000039
 31
0.0
  0
LINE
  5
DA37
330
D9CD
100
AcDbEntity
  8
0
  6
ByBlock
 62
     0
370
    -2
100
AcDbLine
 10
81.09999999990154
 20
12.93333333333371
 30
0.0
 11
79.09999999990154
 21
12.60000000000039
 31
0.0
  0
LINE
  5
DA38
330
D9CD
100
AcDbEntity
  8
0
  6
ByBlock
 62
     0
370
    -2
100
AcDbLine
 10
79.09999999990154
 20
12.60000000000039
 30
0.0
 11
81.09999999990154
 21
12.60000000000039
 31
0.0
  0
TEXT
  5
DA39
330
D9CD
100
AcDbEntity
  8
AM_5
100
AcDbText
 10
84.52499999990084
 20
13.60000000000039
 30
0.0
 40
3.5
  1
79
 41
0.9
  7
承認
100
AcDbText
  0
LINE
  5
DA3A
330
D9CD
100
AcDbEntity
  8
AM_5
 62
     4
370
     9
100
AcDbLine
 10
108.3246792662689
 20
-0.0000000000000142
 30
0.0
 11
119.8246792662689
 21
-0.0000000000000142
 31
0.0
  0
LINE
  5
DA3B
330
D9CD
100
AcDbEntity
  8
AM_5
 62
     4
370
     9
100
AcDbLine
 10
79.49533840643112
 20
80.47511579230519
 30
0.0
 11
119.8246792662689
 21
80.47511579230519
 31
0.0
  0
LINE
  5
DA3C
330
D9CD
100
AcDbEntity
  8
AM_5
 62
     4
370
     9
100
AcDbLine
 10
118.8246792662689
 20
1.999999999999977
 30
0.0
 11
118.8246792662689
 21
78.47511579230522
 31
0.0
  0
LINE
  5
DA3D
330
D9CD
100
AcDbEntity
  8
0
  6
ByBlock
 62
     0
370
    -2
100
AcDbLine
 10
119.1580125996023
 20
1.999999999999977
 30
0.0
 11
118.8246792662689
 21
-0.0000000000000142
 31
0.0
  0
LINE
  5
DA3E
330
D9CD
100
AcDbEntity
  8
0
  6
ByBlock
 62
     0
370
    -2
100
AcDbLine
 10
118.4913459329356
 20
1.999999999999977
 30
0.0
 11
118.8246792662689
 21
-0.0000000000000142
 31
0.0
  0
LINE
  5
DA3F
330
D9CD
100
AcDbEntity
  8
0
  6
ByBlock
 62
     0
370
    -2
100
AcDbLine
 10
118.8246792662689
 20
-0.0000000000000142
 30
0.0
 11
118.8246792662689
 21
1.999999999999977
 31
0.0
  0
LINE
  5
DA40
330
D9CD
100
AcDbEntity
  8
0
  6
ByBlock
 62
     0
370
    -2
100
AcDbLine
 10
118.4913459329356
 20
78.47511579230522
 30
0.0
 11
118.8246792662689
 21
80.47511579230519
 31
0.0
  0
LINE
  5
DA41
330
D9CD
100
AcDbEntity
  8
0
  6
ByBlock
 62
     0
370
    -2
100
AcDbLine
 10
119.1580125996023
 20
78.47511579230522
 30
0.0
 11
118.8246792662689
 21
80.47511579230519
 31
0.0
  0
LINE
  5
DA42
330
D9CD
100
AcDbEntity
  8
0
  6
ByBlock
 62
     0
370
    -2
100
AcDbLine
 10
118.8246792662689
 20
80.47511579230519
 30
0.0
 11
118.8246792662689
 21
78.47511579230522
 31
0.0
  0
TEXT
  5
DA43
330
D9CD
100
AcDbEntity
  8
AM_5
100
AcDbText
 10
117.8246792662689
 20
36.18755789615265
 30
0.0
 40
3.5
  1
403
 50
90.0
 41
0.9
  7
承認
100
AcDbText
  0
TEXT
  5
DA44
330
D9CD
100
AcDbEntity
  8
図面枠
100
AcDbText
 10
70.34181086041552
 20
-75.55990895600756
 30
0.0
 40
2.5
  1
　・クランプ台取り付け：可（専用台）
 41
0.9
100
AcDbText
  0
TEXT
  5
DA45
330
D9CD
100
AcDbEntity
  8
図面枠
100
AcDbText
 10
104.4346680032726
 20
-60.6849089560076
 30
0.0
 40
3.0
  1
\U+220535
 41
0.9
  7
承認
100
AcDbText
  0
TEXT
  5
DA46
330
D9CD
100
AcDbEntity
  8
図面枠
100
AcDbText
 10
106.5818108604155
 20
-65.8099089560077
 30
0.0
 40
3.0
  1
可
 41
0.9
  7
承認
100
AcDbText
  0
TEXT
  5
DA47
330
D9CD
100
AcDbEntity
  8
図面枠
100
AcDbText
 10
93.67323943184414
 20
-55.18490895600761
 30
0.0
 40
3.0
  1
3.5kg（標準仕様）
 41
0.9
  7
承認
100
AcDbText
  0
TEXT
  5
DA48
330
D9CD
100
AcDbEntity
  8
文字
100
AcDbText
 10
49.31181086041553
 20
-38.18490895600772
 30
0.0
 40
3.0
  1
パンサー
 41
0.9
  7
承認
100
AcDbText
  0
LINE
  5
DA49
330
D9CD
100
AcDbEntity
  8
図面枠
100
AcDbLine
 10
40.34181086041552
 20
-31.68490895600752
 30
0.0
 11
145.3418108604155
 21
-31.68490895600746
 31
0.0
  0
TEXT
  5
DA4A
330
D9CD
100
AcDbEntity
  8
図面枠
100
AcDbText
 10
49.22181086041554
 20
-48.18490895600786
 30
0.0
 40
3.0
  1
外形寸法
 41
0.9
  7
承認
100
AcDbText
  0
LINE
  5
DA4B
330
D9CD
100
AcDbEntity
  8
図面枠
100
AcDbLine
 10
40.34181086041552
 20
-56.68490895600785
 30
0.0
 11
145.3418108604155
 21
-56.68490895600761
 31
0.0
  0
TEXT
  5
DA4C
330
D9CD
100
AcDbEntity
  8
図面枠
100
AcDbText
 10
47.60181086041552
 20
-60.68490895600785
 30
0.0
 40
3.0
  1
穴あけ寸法
 41
0.9
  7
承認
100
AcDbText
  0
LINE
  5
DA4D
330
D9CD
100
AcDbEntity
  8
図面枠
100
AcDbLine
 10
70.34181086041556
 20
-31.68490895600749
 30
0.0
 11
70.34181086041552
 21
-81.68490895600747
 31
0.0
  0
TEXT
  5
DA4E
330
D9CD
100
AcDbEntity
  8
図面枠
100
AcDbText
 10
49.56895371755837
 20
-65.80990895600781
 30
0.0
 40
3.0
  1
MC加工
 41
0.9
  7
承認
100
AcDbText
  0
LINE
  5
DA4F
330
D9CD
100
AcDbEntity
  8
図面枠
100
AcDbLine
 10
40.34181086041558
 20
-51.68490895600785
 30
0.0
 11
145.3418108604156
 21
-51.68490895600761
 31
0.0
  0
LINE
  5
DA50
330
D9CD
100
AcDbEntity
  8
図面枠
100
AcDbLine
 10
145.3418108604155
 20
-41.6849089560079
 30
0.0
 11
40.34181086041551
 21
-41.68490895600785
 31
0.0
  0
TEXT
  5
DA51
330
D9CD
100
AcDbEntity
  8
図面枠
100
AcDbText
 10
52.46181086041553
 20
-55.68490895600779
 30
0.0
 40
3.0
  1
重量
 41
0.9
  7
承認
100
AcDbText
  0
LINE
  5
DA52
330
D9CD
100
AcDbEntity
  8
図面枠
100
AcDbLine
 10
40.34181086041551
 20
-61.68490895600785
 30
0.0
 11
145.3418108604155
 21
-61.68490895600761
 31
0.0
  0
LINE
  5
DA53
330
D9CD
100
AcDbEntity
  8
図面枠
100
AcDbLine
 10
40.34181086041551
 20
-66.93490895600786
 30
0.0
 11
145.3418108604155
 21
-66.93490895600763
 31
0.0
  0
TEXT
  5
DA54
330
D9CD
100
AcDbEntity
  8
図面枠
100
AcDbText
 10
52.46181086041549
 20
-75.80990895600765
 30
0.0
 40
3.0
  1
備考
 41
0.9
  7
承認
100
AcDbText
  0
LINE
  5
DA55
330
D9CD
100
AcDbEntity
  8
図面枠
100
AcDbLine
 10
40.34181086041552
 20
-31.68490895600752
 30
0.0
 11
40.34181086041552
 21
-81.68490895600774
 31
0.0
  0
TEXT
  5
DA56
330
D9CD
100
AcDbEntity
  8
図面枠
100
AcDbText
 10
-49.9781891395845
 20
-77.83490901268722
 30
0.0
 40
3.0
  1
%%U※改良の為、予告なく仕様・デザインを変更することがあります。ご了承ください。
 41
0.6
100
AcDbText
  0
TEXT
  5
DA57
330
D9CD
100
AcDbEntity
  8
図面枠
100
AcDbText
 10
-49.9781891395845
 20
-71.83490901268722
 30
0.0
 40
3.0
  1
%%U※固定部分は十分な強度が必要です。
 41
0.6
100
AcDbText
  0
TEXT
  5
DA58
330
D9CD
100
AcDbEntity
  8
図面枠
100
AcDbText
 10
72.64546288759117
 20
-37.97062324172186
 30
0.0
 40
3.0
  1
A4  尺度 1/ 5
 41
0.6
  7
0.9横
100
AcDbText
  0
LINE
  5
DA59
330
D9CD
100
AcDbEntity
  8
図面枠
100
AcDbLine
 10
112.6462577719095
 20
-41.68490895600789
 30
0.0
 11
112.6462577719095
 21
-31.68490895600788
 31
0.0
  0
LINE
  5
DA5A
330
D9CD
100
AcDbEntity
  8
図面枠
100
AcDbLine
 10
91.64625777190954
 20
-41.68490895600789
 30
0.0
 11
91.64625777190954
 21
-31.68490895600788
 31
0.0
  0
TEXT
  5
DA5B
330
D9CD
100
AcDbEntity
  8
図面枠
100
AcDbText
 10
93.83197205762384
 20
-37.97062324172217
 30
0.0
 40
3.0
  1
2014/01/10
 41
0.6
  7
0.9横
100
AcDbText
  0
HATCH
  5
DA5C
330
D9CD
100
AcDbEntity
  8
0
 62
   172
100
AcDbHatch
 10
0.0
 20
0.0
 30
0.0
210
0.0
220
0.0
230
1.0
  2
SOLID
 70
     1
 71
     0
 91
        1
 92
        1
 93
        4
 72
     1
 10
118.253749011712
 20
-36.74833715935049
 11
119.7969338885173
 21
-39.21794920239604
 72
     1
 10
119.7969338885173
 20
-39.21794920239594
 11
122.8113036421279
 21
-34.39394920239588
 72
     1
 10
122.8113036421279
 20
-34.39394920239609
 11
119.7249338885173
 21
-34.39394920239609
 72
     1
 10
119.7249338885173
 20
-34.39394920239609
 11
118.253749011712
 21
-36.7483371593506
 97
        0
 75
     0
 76
     1
 98
        1
 10
99.31219299948459
 20
-55.5514407839448
1001
ACAD
1010
0.0
1020
0.0
1030
0.0
1001
GENIUS_GENOBJ-N-HTC_13
1002
{
1000
OWNER
1000
GEN
1002
}
1001
GENIUS_GENODEF_13
1002
{
1000
HIER
1070
     0
1002
}
1002
{
1000
MANEDIT
1070
     0
1002
}
1002
{
1000
NOSEL
1070
     0
1002
}
1002
{
1000
BEHIND
1070
     0
1002
}
1002
{
1000
OTHER
1070
     0
1002
}
1002
{
1000
REACTOR
1002
}
1001
GENIUS_GENHATCH_13
1002
{
1000
DATA
1040
45.0
1042
1.900000000000004
1000
_U
1070
     0
1011
120.9538202150252
1021
-35.27456775133393
1031
0.0
1002
}
1002
{
1000
UCS
1010
0.0
1020
0.0
1030
0.0
1010
1.0
1020
0.0
1030
0.0
1010
0.0
1020
1.0
1030
0.0
1002
}
  0
TEXT
  5
DA5D
330
D9CD
100
AcDbEntity
  8
0
 62
   172
100
AcDbText
 10
122.959647990577
 20
-36.73225054840473
 30
0.0
 40
1.511999999999999
  1
株式
100
AcDbText
  0
TEXT
  5
DA5E
330
D9CD
100
AcDbEntity
  8
0
 62
   172
100
AcDbText
 10
122.9329207178498
 20
-38.7444323665865
 30
0.0
 40
1.511999999999999
  1
会社
100
AcDbText
  0
HATCH
  5
DA5F
330
D9CD
100
AcDbEntity
  8
0
 62
   172
100
AcDbHatch
 10
0.0
 20
0.0
 30
0.0
210
0.0
220
0.0
230
1.0
  2
SOLID
 70
     1
 71
     0
 91
        3
 92
        1
 93
       10
 72
     2
 10
140.2321338885173
 20
-35.62514920239593
 40
0.4319999999999919
 50
359.9999999999994
 51
450.0000000000008
 73
     0
 72
     1
 10
140.2321338885173
 20
-36.05714920239618
 11
139.9729338885173
 21
-36.05714920239618
 72
     1
 10
139.9729338885174
 20
-36.05714920239618
 11
139.9729338885174
 21
-37.63394920239622
 72
     1
 10
139.9729338885174
 20
-37.633949202396
 11
140.5345338885174
 21
-37.633949202396
 72
     1
 10
140.5345338885173
 20
-37.633949202396
 11
140.5345338885173
 21
-38.92994920239605
 72
     1
 10
140.5345338885173
 20
-38.92994920239615
 11
143.1049338885173
 21
-38.92994920239615
 72
     2
 10
143.0402584907267
 20
-37.6052738046055
 40
1.326253300312942
 50
272.7951656096049
 51
357.2048343903955
 73
     1
 72
     1
 10
144.3649338885173
 20
-37.66994920239606
 11
144.3649338885173
 21
-35.07794920239606
 72
     1
 10
144.3649338885173
 20
-35.07794920239596
 11
140.6641338885173
 21
-35.07794920239596
 72
     1
 10
140.6641338885173
 20
-35.07794920239596
 11
140.6641338885173
 21
-35.62514920239594
 97
        0
 92
       16
 93
        5
 72
     2
 10
142.4569338885173
 20
-36.91394920239608
 40
0.3960000000000001
 50
0.0000000000006107
 51
90.0
 73
     0
 72
     1
 10
142.4569338885173
 20
-37.30994920239604
 11
141.3193338885173
 21
-37.30994920239604
 72
     2
 10
140.8036838932765
 20
-36.26278720639378
 40
1.167237406641532
 50
296.2168428093594
 51
343.7226386468612
 73
     1
 72
     1
 10
141.9241338885173
 20
-36.58994920239611
 11
142.8529338885174
 21
-36.58994920239611
 72
     1
 10
142.8529338885174
 20
-36.58994920239611
 11
142.8529338885174
 21
-36.91394920239619
 97
        0
 92
       16
 93
       14
 72
     2
 10
143.0329338885173
 20
-37.59794920239594
 40
0.9719999999999997
 50
360.0
 51
450.0
 73
     0
 72
     1
 10
143.0329338885173
 20
-38.56994920239614
 11
140.8945338885174
 21
-38.56994920239614
 72
     1
 10
140.8945338885173
 20
-38.56994920239614
 11
140.8945338885173
 21
-37.66994920239616
 72
     1
 10
140.8945338885173
 20
-37.66994920239606
 11
142.6009338885173
 21
-37.66994920239606
 72
     2
 10
142.6009338885173
 20
-37.05794920239597
 40
0.6120000000000021
 50
270.0
 51
359.9999999999998
 73
     1
 72
     1
 10
143.2129338885173
 20
-37.05794920239597
 11
143.2129338885173
 21
-36.229949202396
 72
     1
 10
143.2129338885173
 20
-36.22994920239611
 11
141.7009338885173
 21
-36.22994920239611
 72
     2
 10
140.4726938049153
 20
-35.94190110207362
 40
1.26156466780984
 50
13.19854039234393
 51
87.19031742312592
 73
     0
 72
     1
 10
140.5345338885173
 20
-37.2019492023961
 11
140.3329338885173
 21
-37.2019492023961
 72
     1
 10
140.3329338885173
 20
-37.2019492023961
 11
140.3329338885173
 21
-36.41714920239607
 72
     2
 10
140.3329338885173
 20
-35.72594920239609
 40
0.6912000000000017
 50
270.0000000000007
 51
359.9999999999998
 73
     1
 72
     1
 10
141.0241338885173
 20
-35.72594920239609
 11
141.0241338885173
 21
-35.43794920239608
 72
     1
 10
141.0241338885173
 20
-35.43794920239609
 11
144.0049338885173
 21
-35.43794920239609
 72
     1
 10
144.0049338885173
 20
-35.43794920239609
 11
144.0049338885173
 21
-37.59794920239615
 97
        0
 75
     0
 76
     1
 98
        1
 10
99.47219299948457
 20
-48.35144078394485
1001
ACAD
1010
0.0
1020
0.0
1030
0.0
1001
GENIUS_GENOBJ-N-HTC_13
1002
{
1000
OWNER
1000
GEN
1002
}
1001
GENIUS_GENODEF_13
1002
{
1000
HIER
1070
     0
1002
}
1002
{
1000
MANEDIT
1070
     0
1002
}
1002
{
1000
NOSEL
1070
     0
1002
}
1002
{
1000
BEHIND
1070
     0
1002
}
1002
{
1000
OTHER
1070
     0
1002
}
1002
{
1000
REACTOR
1002
}
1001
GENIUS_GENHATCH_13
1002
{
1000
DATA
1040
45.0
1042
1.900000000000004
1000
_U
1070
     0
1011
143.2178069264451
1021
-35.33112019318807
1031
0.0
1002
}
1002
{
1000
UCS
1010
0.0
1020
0.0
1030
0.0
1010
1.0
1020
0.0
1030
0.0
1010
0.0
1020
1.0
1030
0.0
1002
}
  0
HATCH
  5
DA60
330
D9CD
100
AcDbEntity
  8
0
 62
   172
100
AcDbHatch
 10
0.0
 20
0.0
 30
0.0
210
0.0
220
0.0
230
1.0
  2
SOLID
 70
     1
 71
     0
 91
        2
 92
        1
 93
        8
 72
     1
 10
137.3809338885173
 20
-35.07794920239596
 11
135.7249338885173
 21
-35.07794920239596
 72
     1
 10
135.7249338885173
 20
-35.07794920239596
 11
135.7249338885173
 21
-38.92994920239605
 72
     1
 10
135.7249338885173
 20
-38.92994920239615
 11
137.3809338885173
 21
-38.92994920239615
 72
     1
 10
137.3809338885173
 20
-38.92994920239615
 11
137.3809338885173
 21
-37.63394920239612
 72
     1
 10
137.3809338885173
 20
-37.633949202396
 11
139.5769338885173
 21
-37.633949202396
 72
     1
 10
139.5769338885173
 20
-37.633949202396
 11
139.5769338885173
 21
-36.013949202396
 72
     1
 10
139.5769338885173
 20
-36.01394920239612
 11
137.3809338885173
 21
-36.01394920239612
 72
     1
 10
137.3809338885173
 20
-36.01394920239612
 11
137.3809338885173
 21
-35.07794920239618
 97
        0
 92
       16
 93
        8
 72
     1
 10
139.1809338885173
 20
-37.23794920239604
 11
136.9849338885173
 21
-37.23794920239604
 72
     1
 10
136.9849338885173
 20
-37.23794920239604
 11
136.9849338885173
 21
-38.5339492023961
 72
     1
 10
136.9849338885173
 20
-38.5339492023961
 11
136.1209338885174
 21
-38.5339492023961
 72
     1
 10
136.1209338885173
 20
-38.5339492023961
 11
136.1209338885173
 21
-35.47394920239604
 72
     1
 10
136.1209338885173
 20
-35.47394920239603
 11
136.9849338885173
 21
-35.47394920239603
 72
     1
 10
136.9849338885173
 20
-35.47394920239603
 11
136.9849338885173
 21
-36.40994920239594
 72
     1
 10
136.9849338885173
 20
-36.40994920239606
 11
139.1809338885173
 21
-36.40994920239606
 72
     1
 10
139.1809338885173
 20
-36.40994920239606
 11
139.1809338885173
 21
-37.23794920239603
 97
        0
 75
     0
 76
     1
 98
        1
 10
99.47219299948457
 20
-48.35144078394485
1001
ACAD
1010
0.0
1020
0.0
1030
0.0
1001
GENIUS_GENOBJ-N-HTC_13
1002
{
1000
OWNER
1000
GEN
1002
}
1001
GENIUS_GENODEF_13
1002
{
1000
HIER
1070
     0
1002
}
1002
{
1000
MANEDIT
1070
     0
1002
}
1002
{
1000
NOSEL
1070
     0
1002
}
1002
{
1000
BEHIND
1070
     0
1002
}
1002
{
1000
OTHER
1070
     0
1002
}
1002
{
1000
REACTOR
1002
}
1001
GENIUS_GENHATCH_13
1002
{
1000
DATA
1040
45.0
1042
1.900000000000004
1000
_U
1070
     0
1011
139.1121666254164
1021
-36.2552641474318
1031
0.0
1002
}
1002
{
1000
UCS
1010
0.0
1020
0.0
1030
0.0
1010
1.0
1020
0.0
1030
0.0
1010
0.0
1020
1.0
1030
0.0
1002
}
  0
HATCH
  5
DA61
330
D9CD
100
AcDbEntity
  8
0
 62
   172
100
AcDbHatch
 10
0.0
 20
0.0
 30
0.0
210
0.0
220
0.0
230
1.0
  2
SOLID
 70
     1
 71
     0
 91
        4
 92
        1
 93
        5
 72
     1
 10
131.8729338885173
 20
-38.92994920239615
 11
134.2489338885173
 21
-38.92994920239615
 72
     2
 10
134.2489338885173
 20
-37.777949202396
 40
1.152
 50
270.0
 51
360.0
 73
     1
 72
     1
 10
135.4009338885173
 20
-37.777949202396
 11
135.4009338885173
 21
-36.15794920239599
 72
     1
 10
135.4009338885173
 20
-36.15794920239601
 11
131.8729338885173
 21
-36.15794920239601
 72
     1
 10
131.8729338885173
 20
-36.15794920239601
 11
131.8729338885173
 21
-38.92994920239605
 97
        0
 92
       16
 93
        4
 72
     1
 10
132.8809338885173
 20
-37.27394920239599
 11
132.3049338885173
 21
-37.27394920239599
 72
     1
 10
132.3049338885173
 20
-37.27394920239599
 11
132.3049338885173
 21
-36.55394920239596
 72
     1
 10
132.3049338885173
 20
-36.55394920239607
 11
132.8809338885173
 21
-36.55394920239607
 72
     1
 10
132.8809338885173
 20
-36.55394920239607
 11
132.8809338885173
 21
-37.27394920239611
 97
        0
 92
       16
 93
        4
 72
     1
 10
133.8889338885173
 20
-37.27394920239599
 11
133.2769338885173
 21
-37.27394920239599
 72
     1
 10
133.2769338885173
 20
-37.27394920239599
 11
133.2769338885173
 21
-36.55394920239596
 72
     1
 10
133.2769338885173
 20
-36.55394920239607
 11
133.8889338885173
 21
-36.55394920239607
 72
     1
 10
133.8889338885173
 20
-36.55394920239607
 11
133.8889338885173
 21
-37.27394920239611
 97
        0
 92
       16
 93
        8
 72
     2
 10
134.0689338885173
 20
-37.59794920239594
 40
0.9
 50
360.0
 51
450.0
 73
     0
 72
     1
 10
134.0689338885173
 20
-38.49794920239603
 11
132.3049338885174
 21
-38.49794920239603
 72
     1
 10
132.3049338885173
 20
-38.49794920239603
 11
132.3049338885173
 21
-37.81394920239605
 72
     1
 10
132.3049338885173
 20
-37.81394920239605
 11
133.8529338885173
 21
-37.81394920239605
 72
     2
 10
133.8529338885174
 20
-37.38194920239604
 40
0.4320000000000002
 50
270.0
 51
360.0
 73
     1
 72
     1
 10
134.2849338885173
 20
-37.38194920239604
 11
134.2849338885173
 21
-36.55394920239607
 72
     1
 10
134.2849338885173
 20
-36.55394920239607
 11
134.9689338885173
 21
-36.55394920239607
 72
     1
 10
134.9689338885173
 20
-36.55394920239607
 11
134.9689338885173
 21
-37.59794920239615
 97
        0
 75
     0
 76
     1
 98
        1
 10
99.47219299948457
 20
-48.35144078394485
1001
ACAD
1010
0.0
1020
0.0
1030
0.0
1001
GENIUS_GENOBJ-N-HTC_13
1002
{
1000
OWNER
1000
GEN
1002
}
1001
GENIUS_GENODEF_13
1002
{
1000
HIER
1070
     0
1002
}
1002
{
1000
MANEDIT
1070
     0
1002
}
1002
{
1000
NOSEL
1070
     0
1002
}
1002
{
1000
BEHIND
1070
     0
1002
}
1002
{
1000
OTHER
1070
     0
1002
}
1002
{
1000
REACTOR
1002
}
1001
GENIUS_GENHATCH_13
1002
{
1000
DATA
1040
45.0
1042
1.900000000000004
1000
_U
1070
     0
1011
134.3488713988719
1021
-36.41617055123786
1031
0.0
1002
}
1002
{
1000
UCS
1010
0.0
1020
0.0
1030
0.0
1010
1.0
1020
0.0
1030
0.0
1010
0.0
1020
1.0
1030
0.0
1002
}
  0
HATCH
  5
DA62
330
D9CD
100
AcDbEntity
  8
0
 62
   172
100
AcDbHatch
 10
0.0
 20
0.0
 30
0.0
210
0.0
220
0.0
230
1.0
  2
SOLID
 70
     1
 71
     0
 91
        2
 92
        1
 93
        4
 72
     1
 10
127.4809338885173
 20
-36.66194920239603
 11
131.0809338885173
 21
-36.66194920239603
 72
     1
 10
131.0809338885173
 20
-36.66194920239603
 11
131.0809338885173
 21
-35.07794920239596
 72
     1
 10
131.0809338885173
 20
-35.07794920239596
 11
127.4809338885174
 21
-35.07794920239596
 72
     1
 10
127.4809338885173
 20
-35.07794920239596
 11
127.4809338885173
 21
-36.66194920239603
 97
        0
 92
       16
 93
        4
 72
     1
 10
130.6489338885173
 20
-36.22994920239611
 11
127.9129338885173
 21
-36.22994920239611
 72
     1
 10
127.9129338885173
 20
-36.22994920239611
 11
127.9129338885173
 21
-35.50994920239608
 72
     1
 10
127.9129338885173
 20
-35.5099492023961
 11
130.6489338885173
 21
-35.5099492023961
 72
     1
 10
130.6489338885173
 20
-35.5099492023961
 11
130.6489338885173
 21
-36.22994920239611
 97
        0
 75
     0
 76
     1
 98
        1
 10
99.47219299948457
 20
-48.35144078394485
1001
ACAD
1010
0.0
1020
0.0
1030
0.0
1001
GENIUS_GENOBJ-N-HTC_13
1002
{
1000
OWNER
1000
GEN
1002
}
1001
GENIUS_GENODEF_13
1002
{
1000
HIER
1070
     0
1002
}
1002
{
1000
MANEDIT
1070
     0
1002
}
1002
{
1000
NOSEL
1070
     0
1002
}
1002
{
1000
BEHIND
1070
     0
1002
}
1002
{
1000
OTHER
1070
     0
1002
}
1002
{
1000
REACTOR
1002
}
1001
GENIUS_GENHATCH_13
1002
{
1000
DATA
1040
45.0
1042
1.900000000000004
1000
_U
1070
     0
1011
130.7857183293916
1021
-35.33184178838357
1031
0.0
1002
}
1002
{
1000
UCS
1010
0.0
1020
0.0
1030
0.0
1010
1.0
1020
0.0
1030
0.0
1010
0.0
1020
1.0
1030
0.0
1002
}
  0
HATCH
  5
DA63
330
D9CD
100
AcDbEntity
  8
0
 62
   172
100
AcDbHatch
 10
0.0
 20
0.0
 30
0.0
210
0.0
220
0.0
230
1.0
  2
SOLID
 70
     1
 71
     0
 91
        2
 92
        1
 93
        4
 72
     1
 10
127.0489338885173
 20
-38.92994920239615
 11
131.5129338885173
 21
-38.92994920239615
 72
     1
 10
131.5129338885173
 20
-38.92994920239615
 11
131.5129338885173
 21
-37.23794920239615
 72
     1
 10
131.5129338885173
 20
-37.23794920239604
 11
127.0489338885173
 21
-37.23794920239604
 72
     1
 10
127.0489338885173
 20
-37.23794920239604
 11
127.0489338885173
 21
-38.92994920239605
 97
        0
 92
       16
 93
        4
 72
     1
 10
131.0809338885173
 20
-38.49794920239603
 11
127.4809338885174
 21
-38.49794920239603
 72
     1
 10
127.4809338885173
 20
-38.49794920239603
 11
127.4809338885173
 21
-37.66994920239605
 72
     1
 10
127.4809338885173
 20
-37.66994920239606
 11
131.0809338885173
 21
-37.66994920239606
 72
     1
 10
131.0809338885173
 20
-37.66994920239606
 11
131.0809338885173
 21
-38.49794920239605
 97
        0
 75
     0
 76
     1
 98
        1
 10
99.47219299948457
 20
-48.35144078394485
1001
ACAD
1010
0.0
1020
0.0
1030
0.0
1001
GENIUS_GENOBJ-N-HTC_13
1002
{
1000
OWNER
1000
GEN
1002
}
1001
GENIUS_GENODEF_13
1002
{
1000
HIER
1070
     0
1002
}
1002
{
1000
MANEDIT
1070
     0
1002
}
1002
{
1000
NOSEL
1070
     0
1002
}
1002
{
1000
BEHIND
1070
     0
1002
}
1002
{
1000
OTHER
1070
     0
1002
}
1002
{
1000
REACTOR
1002
}
1001
GENIUS_GENHATCH_13
1002
{
1000
DATA
1040
45.0
1042
1.900000000000004
1000
_U
1070
     0
1011
131.1679249801274
1021
-37.32799251436254
1031
0.0
1002
}
1002
{
1000
UCS
1010
0.0
1020
0.0
1030
0.0
1010
1.0
1020
0.0
1030
0.0
1010
0.0
1020
1.0
1030
0.0
1002
}
  0
HATCH
  5
DA64
330
D9CD
100
AcDbEntity
  8
0
 62
   172
100
AcDbHatch
 10
0.0
 20
0.0
 30
0.0
210
0.0
220
0.0
230
1.0
  2
SOLID
 70
     1
 71
     0
 91
        1
 92
        1
 93
        3
 72
     1
 10
113.6689338885173
 20
-39.21794920239594
 11
119.6089338885173
 21
-39.21794920239594
 72
     1
 10
119.6089338885174
 20
-39.21794920239594
 11
116.6209338885174
 21
-34.43614962962121
 72
     1
 10
116.6209338885173
 20
-34.43614962962133
 11
113.6689338885173
 21
-39.21794920239604
 97
        0
 75
     0
 76
     1
 98
        1
 10
99.19619299948465
 20
-48.35144078394485
1001
ACAD
1010
0.0
1020
0.0
1030
0.0
1001
GENIUS_GENOBJ-N-HTC_13
1002
{
1000
OWNER
1000
GEN
1002
}
1001
GENIUS_GENODEF_13
1002
{
1000
HIER
1070
     0
1002
}
1002
{
1000
MANEDIT
1070
     0
1002
}
1002
{
1000
NOSEL
1070
     0
1002
}
1002
{
1000
BEHIND
1070
     0
1002
}
1002
{
1000
OTHER
1070
     0
1002
}
1002
{
1000
REACTOR
1002
}
1001
GENIUS_GENHATCH_13
1002
{
1000
DATA
1040
45.0
1042
1.900000000000004
1000
_U
1070
     0
1011
117.6939303429254
1021
-37.16772288603826
1031
0.0
1002
}
1002
{
1000
UCS
1010
0.0
1020
0.0
1030
0.0
1010
1.0
1020
0.0
1030
0.0
1010
0.0
1020
1.0
1030
0.0
1002
}
  0
ENDBLK
  5
DA68
330
D9CD
100
AcDbEntity
  8
0
100
AcDbBlockEnd
  0
ENDSEC
  0
SECTION
  2
ENTITIES
  0
LINE
  5
77E4
330
37
100
AcDbEntity
  8
0
100
AcDbLine
 10
628.9491070175812
 20
216.8929914586872
 30
0.0
 11
798.9491070175811
 21
216.8929914586872
 31
0.0
1001
GENIUS_GENREC_14
1002
{
1000
PYDIR
1011
628.9491070175812
1021
241.8929914586085
1031
0.0
1002
}
1002
{
1000
PXDIR
1011
798.9491070175811
1021
216.8929914586872
1031
0.0
1002
}
1002
{
1000
PORI
1011
628.9491070175812
1021
216.8929914586872
1031
0.0
1002
}
1002
{
1000
PINS
1011
628.9491070175812
1021
216.8929914586872
1031
0.0
1002
}
1002
{
1000
PINS2
1011
798.9491070175811
1021
241.8929914586085
1031
0.0
1002
}
1002
{
1000
C
1070
     1
1002
}
1001
GENIUS_GENODEF_13
1002
{
1000
HIER
1070
     0
1002
}
1002
{
1000
MANEDIT
1070
     0
1002
}
1002
{
1000
NOSEL
1070
     0
1002
}
1002
{
1000
BEHIND
1070
     0
1002
}
1002
{
1000
OTHER
1070
     0
1002
}
1002
{
1000
REACTOR
1002
}
1001
GENIUS_GENOBJ-N-REC_13
1002
{
1000
OWNER
1000
GEN
1002
}
  0
LINE
  5
77E5
330
37
100
AcDbEntity
  8
0
100
AcDbLine
 10
798.9491070175811
 20
241.8929914586085
 30
0.0
 11
628.9491070175812
 21
241.8929914586085
 31
0.0
1001
GENIUS_GENREC_14
1002
{
1000
PYDIR
1011
628.9491070175812
1021
241.8929914586085
1031
0.0
1002
}
1002
{
1000
PXDIR
1011
798.9491070175811
1021
216.8929914586872
1031
0.0
1002
}
1002
{
1000
PORI
1011
628.9491070175812
1021
216.8929914586872
1031
0.0
1002
}
1002
{
1000
PINS
1011
628.9491070175812
1021
216.8929914586872
1031
0.0
1002
}
1002
{
1000
PINS2
1011
798.9491070175811
1021
241.8929914586085
1031
0.0
1002
}
1002
{
1000
C
1070
     1
1002
}
1001
GENIUS_GENODEF_13
1002
{
1000
HIER
1070
     0
1002
}
1002
{
1000
MANEDIT
1070
     0
1002
}
1002
{
1000
NOSEL
1070
     0
1002
}
1002
{
1000
BEHIND
1070
     0
1002
}
1002
{
1000
OTHER
1070
     0
1002
}
1002
{
1000
REACTOR
1002
}
1001
GENIUS_GENOBJ-N-REC_13
1002
{
1000
OWNER
1000
GEN
1002
}
  0
HATCH
  5
77E6
330
37
100
AcDbEntity
  8
弱線
100
AcDbHatch
 10
0.0
 20
0.0
 30
0.0
210
0.0
220
0.0
230
1.0
  2
DASH
 70
     0
 71
     0
 91
        1
 92
        1
 93
        8
 72
     1
 10
798.9491070175811
 20
216.8929914586872
 11
798.9491070175811
 21
241.8929914586085
 72
     1
 10
798.9491070175811
 20
241.8929914586085
 11
658.9491070172307
 21
241.8929914586697
 72
     1
 10
658.9491070172312
 20
241.8929914586697
 11
628.9491070175817
 21
241.8929914586085
 72
     1
 10
628.9491070175812
 20
241.8929914586085
 11
628.9491070175812
 21
216.8929914586872
 72
     1
 10
628.9491070175812
 20
216.8929914586872
 11
678.9491070175247
 21
216.8929914586479
 72
     1
 10
678.9491070175247
 20
216.8929914586479
 11
748.9491070175247
 21
216.8929914586479
 72
     1
 10
748.9491070175247
 20
216.8929914586479
 11
754.9532745768715
 21
216.8929914586872
 72
     1
 10
754.9532745768715
 20
216.8929914586872
 11
798.9491070175811
 21
216.8929914586872
 97
        0
 75
     0
 76
     1
 52
0.0
 41
1.0
 77
     0
 78
     1
 53
0.0
 43
-2580.355026843605
 44
-1266.011215952404
 45
3.174999999999998
 46
3.174999999999998
 79
     2
 49
3.174999999999998
 49
-3.174999999999998
 98
        1
 10
-2580.355026843605
 20
-1266.011215952404
1001
GENIUS_GENOBJ-N-HTC_13
1002
{
1000
OWNER
1000
GEN
1002
}
1001
GENIUS_GENODEF_13
1002
{
1000
HIER
1070
     0
1002
}
1002
{
1000
MANEDIT
1070
     0
1002
}
1002
{
1000
NOSEL
1070
     0
1002
}
1002
{
1000
BEHIND
1070
     0
1002
}
1002
{
1000
OTHER
1070
     0
1002
}
1002
{
1000
REACTOR
1002
}
1001
GENIUS_GENHATCH_13
1002
{
1000
DATA
1040
0.0
1042
1.0
1000
DASH
1070
     0
1011
754.9532745768715
1021
226.3657994863893
1031
0.0
1002
}
1002
{
1000
UCS
1010
0.0
1020
0.0
1030
0.0
1010
1.0
1020
0.0
1030
0.0
1010
0.0
1020
1.0
1030
0.0
1002
}
  0
LINE
  5
77F8
330
37
100
AcDbEntity
  8
AM_3
 48
0.5
100
AcDbLine
 10
756.8257106857366
 20
241.8929914586447
 30
0.0
 11
756.8257106857366
 21
216.8929914587234
 31
0.0
  0
LINE
  5
77F9
330
37
100
AcDbEntity
  8
AM_3
 48
0.5
100
AcDbLine
 10
721.8257106857366
 20
241.8929914586447
 30
0.0
 11
721.8257106857366
 21
216.8929914587234
 31
0.0
  0
LWPOLYLINE
  5
8DF2
330
37
100
AcDbEntity
  8
0
100
AcDbPolyline
 90
        6
 70
     0
 43
0.0
 10
723.3257106857378
 20
204.3929914586871
 10
723.3257106857378
 20
167.8929914586085
 10
724.3257106857377
 20
166.8929914586085
 10
755.3257106857378
 20
166.8929914586085
 10
756.3257106857378
 20
167.8929914586085
 10
756.3257106857378
 20
204.3929914586871
  0
LWPOLYLINE
  5
8DF3
330
37
100
AcDbEntity
  8
0
100
AcDbPolyline
 90
        4
 70
     1
 43
0.0
 10
718.4109045464598
 20
864.196675636348
 10
778.210904546459
 20
864.196675636348
 10
778.210904546459
 20
868.1966756363477
 10
718.4109045464598
 20
868.1966756363477
1001
GENIUS_GENREC_14
1002
{
1000
PYDIR
1011
718.4109045464598
1021
868.1966756363477
1031
0.0
1002
}
1002
{
1000
PXDIR
1011
778.210904546459
1021
864.196675636348
1031
0.0
1002
}
1002
{
1000
PORI
1011
718.4109045464598
1021
864.196675636348
1031
0.0
1002
}
1002
{
1000
PINS
1011
718.4109045464598
1021
864.196675636348
1031
0.0
1002
}
1002
{
1000
PINS2
1011
778.210904546459
1021
868.1966756363477
1031
0.0
1002
}
1002
{
1000
C
1070
     1
1002
}
1001
GENIUS_GENODEF_13
1002
{
1000
HIER
1070
     0
1002
}
1002
{
1000
MANEDIT
1070
     0
1002
}
1002
{
1000
NOSEL
1070
     0
1002
}
1002
{
1000
BEHIND
1070
     0
1002
}
1002
{
1000
OTHER
1070
     0
1002
}
1002
{
1000
REACTOR
1002
}
1001
GENIUS_GENOBJ-N-REC_13
1002
{
1000
OWNER
1000
GEN
1002
}
  0
LWPOLYLINE
  5
8DF4
330
37
100
AcDbEntity
  8
0
100
AcDbPolyline
 90
        4
 70
     0
 43
0.0
 10
727.9926293417811
 20
864.196675636348
 10
727.9926293417811
 20
855.6966756363477
 10
768.6291797511337
 20
855.6966756363477
 10
768.6291797511337
 20
864.196675636348
  0
LWPOLYLINE
  5
8DF5
330
37
100
AcDbEntity
  8
弱線
100
AcDbPolyline
 90
        2
 70
     0
 43
0.0
 10
733.9437143673326
 20
864.196675636348
 10
733.9437143673326
 20
855.6966756363477
  0
LWPOLYLINE
  5
8DF6
330
37
100
AcDbEntity
  8
弱線
100
AcDbPolyline
 90
        2
 70
     0
 43
0.0
 10
748.3109045464591
 20
864.196675636348
 10
748.3109045464591
 20
855.6966756363477
  0
LWPOLYLINE
  5
8DF7
330
37
100
AcDbEntity
  8
弱線
100
AcDbPolyline
 90
        2
 70
     0
 43
0.0
 10
762.6780947255513
 20
864.196675636348
 10
762.6780947255513
 20
855.6966756363477
  0
LWPOLYLINE
  5
8E18
330
37
100
AcDbEntity
  8
0
100
AcDbPolyline
 90
        4
 70
     1
 43
0.0
 10
709.425710685738
 20
212.8929914586872
 10
769.2257106857373
 20
212.8929914586872
 10
769.2257106857373
 20
216.8929914586872
 10
709.425710685738
 20
216.8929914586872
1001
GENIUS_GENREC_14
1002
{
1000
PYDIR
1011
709.425710685738
1021
216.8929914586872
1031
0.0
1002
}
1002
{
1000
PXDIR
1011
769.2257106857373
1021
212.8929914586872
1031
0.0
1002
}
1002
{
1000
PORI
1011
709.425710685738
1021
212.8929914586872
1031
0.0
1002
}
1002
{
1000
PINS
1011
709.425710685738
1021
212.8929914586872
1031
0.0
1002
}
1002
{
1000
PINS2
1011
769.2257106857373
1021
216.8929914586872
1031
0.0
1002
}
1002
{
1000
C
1070
     1
1002
}
1001
GENIUS_GENODEF_13
1002
{
1000
HIER
1070
     0
1002
}
1002
{
1000
MANEDIT
1070
     0
1002
}
1002
{
1000
NOSEL
1070
     0
1002
}
1002
{
1000
BEHIND
1070
     0
1002
}
1002
{
1000
OTHER
1070
     0
1002
}
1002
{
1000
REACTOR
1002
}
1001
GENIUS_GENOBJ-N-REC_13
1002
{
1000
OWNER
1000
GEN
1002
}
  0
LWPOLYLINE
  5
8E19
330
37
100
AcDbEntity
  8
0
100
AcDbPolyline
 90
        4
 70
     0
 43
0.0
 10
719.0074354810596
 20
212.8929914586872
 10
719.0074354810596
 20
204.3929914586871
 10
759.6439858904123
 20
204.3929914586871
 10
759.6439858904123
 20
212.8929914586872
  0
LWPOLYLINE
  5
8E1A
330
37
100
AcDbEntity
  8
弱線
100
AcDbPolyline
 90
        2
 70
     0
 43
0.0
 10
724.9585205066107
 20
212.8929914586872
 10
724.9585205066107
 20
204.3929914586871
  0
LWPOLYLINE
  5
8E1B
330
37
100
AcDbEntity
  8
弱線
100
AcDbPolyline
 90
        2
 70
     0
 43
0.0
 10
739.3257106857378
 20
212.8929914586872
 10
739.3257106857378
 20
204.3929914586871
  0
LWPOLYLINE
  5
8E1C
330
37
100
AcDbEntity
  8
弱線
100
AcDbPolyline
 90
        2
 70
     0
 43
0.0
 10
753.6929008648297
 20
212.8929914586872
 10
753.6929008648297
 20
204.3929914586871
  0
LWPOLYLINE
  5
8E23
330
37
100
AcDbEntity
  8
0
 48
0.5
100
AcDbPolyline
 90
        6
 70
     0
 43
0.0
 10
764.8109045459746
 20
970.9967502901973
 10
764.8109045459746
 20
936.4967502901981
 10
763.8109045459746
 20
935.4967502901981
 10
732.8109045459755
 20
935.4967502901981
 10
731.8109045459755
 20
936.4967502901981
 10
731.8109045459755
 20
970.9967502901982
1001
GENIUS_GENREC_14
1002
{
1000
PYDIR
1011
732.8109045459746
1021
987.9967502902021
1031
0.0
1002
}
1002
{
1000
PXDIR
1011
764.8109045459752
1021
1137.996750290201
1031
0.0
1002
}
1002
{
1000
PORI
1011
732.8109045459746
1021
1137.996750290201
1031
0.0
1002
}
1002
{
1000
PINS
1011
748.8109045459755
1021
1137.996750290201
1031
0.0
1002
}
1002
{
1000
HVAL
1000
150
1002
}
1002
{
1000
H
1070
     2
1002
}
1002
{
1000
WVAL
1000
32
1002
}
1002
{
1000
W
1070
     2
1002
}
1002
{
1000
C
1070
     2
1002
}
1001
GENIUS_GENODEF_13
1002
{
1000
HIER
1070
     0
1002
}
1002
{
1000
MANEDIT
1070
     0
1002
}
1002
{
1000
NOSEL
1070
     0
1002
}
1002
{
1000
BEHIND
1070
     0
1002
}
1002
{
1000
REACTOR
1002
}
1001
GENIUS_GENOBJ-N-REC_13
1002
{
1000
OWNER
1000
GEN
1002
}
  0
LWPOLYLINE
  5
8F11
330
37
100
AcDbEntity
  8
弱線
100
AcDbPolyline
 90
        3
 70
     0
 43
0.0
 10
731.8109045459755
 20
970.9967502901982
 42
-0.3029250720681553
 10
748.3109045459741
 20
970.9967502901983
 42
0.3029250720682098
 10
764.8109045459762
 20
970.9967502901983
  0
LWPOLYLINE
  5
8F12
330
37
100
AcDbEntity
  8
弱線
100
AcDbPolyline
 90
        3
 70
     0
 43
0.0
 10
731.8109045459755
 20
975.9967502901982
 42
-0.3029250720681553
 10
748.3109045459741
 20
975.9967502901984
 42
0.3029250720682098
 10
764.8109045459762
 20
975.9967502901984
  0
LWPOLYLINE
  5
8F13
330
37
100
AcDbEntity
  8
0
 48
0.5
100
AcDbPolyline
 90
        6
 70
     0
 43
0.0
 10
731.8109045459755
 20
975.9967502901982
 10
731.8109045459755
 20
1010.496750290198
 10
732.8109045459755
 20
1011.496750290198
 10
763.8109045459747
 20
1011.496750290198
 10
764.8109045459747
 20
1010.496750290198
 10
764.8109045459747
 20
975.9967502901972
1001
GENIUS_GENREC_14
1002
{
1000
PYDIR
1011
732.8109045459746
1021
987.9967502902021
1031
0.0
1002
}
1002
{
1000
PXDIR
1011
764.8109045459752
1021
1137.996750290201
1031
0.0
1002
}
1002
{
1000
PORI
1011
732.8109045459746
1021
1137.996750290201
1031
0.0
1002
}
1002
{
1000
PINS
1011
748.8109045459755
1021
1137.996750290201
1031
0.0
1002
}
1002
{
1000
HVAL
1000
150
1002
}
1002
{
1000
H
1070
     2
1002
}
1002
{
1000
WVAL
1000
32
1002
}
1002
{
1000
W
1070
     2
1002
}
1002
{
1000
C
1070
     2
1002
}
1001
GENIUS_GENODEF_13
1002
{
1000
HIER
1070
     0
1002
}
1002
{
1000
MANEDIT
1070
     0
1002
}
1002
{
1000
NOSEL
1070
     0
1002
}
1002
{
1000
BEHIND
1070
     0
1002
}
1002
{
1000
REACTOR
1002
}
1001
GENIUS_GENOBJ-N-REC_13
1002
{
1000
OWNER
1000
GEN
1002
}
  0
HATCH
  5
8F16
330
37
100
AcDbEntity
  8
弱線
100
AcDbHatch
 10
0.0
 20
0.0
 30
0.0
210
0.0
220
0.0
230
1.0
  2
_U
 70
     0
 71
     0
 91
        1
 92
        1
 93
        7
 72
     2
 10
756.560904545975
 20
988.3644131163904
 40
14.86679467075509
 50
236.2942471887679
 51
303.7057528112324
 73
     1
 72
     1
 10
764.8109045459762
 20
975.9967502901984
 11
764.8109045459747
 21
1010.496750290198
 72
     1
 10
764.8109045459747
 20
1010.496750290198
 11
763.8109045459747
 21
1011.496750290198
 72
     1
 10
763.8109045459747
 20
1011.496750290198
 11
732.8109045459755
 21
1011.496750290198
 72
     1
 10
732.8109045459755
 20
1011.496750290198
 11
731.8109045459755
 21
1010.496750290198
 72
     1
 10
731.8109045459755
 20
1010.496750290198
 11
731.8109045459755
 21
975.9967502901982
 72
     2
 10
740.0609045459747
 20
963.6290874640051
 40
14.86679467075477
 50
236.2942471887745
 51
303.7057528112239
 73
     0
 97
        0
 75
     0
 76
     0
 52
5.0
 41
2.0
 77
     0
 78
     1
 53
4.999999999999998
 43
-123.2576075096804
 44
-96.85289123286384
 45
-0.1743114854953163
 46
1.992389396183491
 79
     0
 98
        1
 10
-123.2576075096804
 20
-96.85289123286384
1001
GENIUS_GENODEF_13
1002
{
1000
HIER
1070
     0
1002
}
1002
{
1000
MANEDIT
1070
     0
1002
}
1002
{
1000
NOSEL
1070
     0
1002
}
1002
{
1000
BEHIND
1070
     0
1002
}
1002
{
1000
OTHER
1070
     0
1002
}
1002
{
1000
REACTOR
1002
}
1001
GENIUS_GENOBJ-N-HTC_13
1002
{
1000
OWNER
1000
GEN
1002
}
1001
GENIUS_GENHATCH_13
1002
{
1000
DATA
1040
45.0
1042
2.5
1000
_U
1070
     0
1011
742.2125814744068
1021
997.1207794249041
1031
0.0
1002
}
1002
{
1000
UCS
1010
0.0
1020
0.0
1030
0.0
1010
1.0
1020
0.0
1030
0.0
1010
0.0
1020
1.0
1030
0.0
1002
}
1001
ACAD
1010
0.0
1020
0.0
1030
0.0
  0
HATCH
  5
8F19
330
37
100
AcDbEntity
  8
弱線
100
AcDbHatch
 10
0.0
 20
0.0
 30
0.0
210
0.0
220
0.0
230
1.0
  2
_U
 70
     0
 71
     0
 91
        1
 92
        1
 93
        7
 72
     1
 10
732.8109045459755
 20
935.4967502901981
 11
763.8109045459746
 21
935.4967502901981
 72
     1
 10
763.8109045459746
 20
935.4967502901981
 11
764.8109045459746
 21
936.4967502901981
 72
     1
 10
764.8109045459746
 20
936.4967502901981
 11
764.8109045459746
 21
970.9967502901973
 72
     2
 10
756.5609045459751
 20
983.3644131163904
 40
14.86679467075496
 50
56.29424718877499
 51
123.7057528112325
 73
     0
 72
     2
 10
740.0609045459747
 20
958.6290874640054
 40
14.86679467075484
 50
56.29424718877572
 51
123.7057528112255
 73
     1
 72
     1
 10
731.8109045459755
 20
970.9967502901982
 11
731.8109045459755
 21
936.4967502901981
 72
     1
 10
731.8109045459755
 20
936.4967502901981
 11
732.8109045459755
 21
935.4967502901981
 97
        0
 75
     0
 76
     0
 52
5.0
 41
2.0
 77
     0
 78
     1
 53
4.999999999999998
 43
-123.2576075096804
 44
-96.85289123286384
 45
-0.1743114854953163
 46
1.992389396183491
 79
     0
 98
        1
 10
-123.2576075096804
 20
-96.85289123286384
1001
GENIUS_GENODEF_13
1002
{
1000
HIER
1070
     0
1002
}
1002
{
1000
MANEDIT
1070
     0
1002
}
1002
{
1000
NOSEL
1070
     0
1002
}
1002
{
1000
BEHIND
1070
     0
1002
}
1002
{
1000
OTHER
1070
     0
1002
}
1002
{
1000
REACTOR
1002
}
1001
GENIUS_GENOBJ-N-HTC_13
1002
{
1000
OWNER
1000
GEN
1002
}
1001
GENIUS_GENHATCH_13
1002
{
1000
DATA
1040
45.0
1042
2.5
1000
_U
1070
     0
1011
744.6263432938284
1021
951.2786448892311
1031
0.0
1002
}
1002
{
1000
UCS
1010
0.0
1020
0.0
1030
0.0
1010
1.0
1020
0.0
1030
0.0
1010
0.0
1020
1.0
1030
0.0
1002
}
1001
ACAD
1010
0.0
1020
0.0
1030
0.0
  0
INSERT
  5
C805
330
37
100
AcDbEntity
  8
0
100
AcDbBlockReference
  2
A$C663F0F08
 10
748.3109045464591
 20
868.1966756363477
 30
0.0
 41
5.0
 42
5.0
 43
5.0
  0
HATCH
  5
C869
330
37
100
AcDbEntity
  8
弱線
100
AcDbHatch
 10
0.0
 20
0.0
 30
0.0
210
0.0
220
0.0
230
1.0
  2
_U
 70
     0
 71
     0
 91
        1
 92
        1
 93
        6
 72
     1
 10
723.3257106857378
 20
167.8929914586088
 11
724.3257106857377
 21
166.8929914586085
 72
     1
 10
724.3257106857377
 20
166.8929914586085
 11
755.3257106857378
 21
166.8929914586085
 72
     1
 10
755.3257106857378
 20
166.8929914586085
 11
756.3257106857379
 21
167.8929914586088
 72
     1
 10
756.3257106857379
 20
167.8929914586088
 11
756.3257106857378
 21
204.3929914586871
 72
     1
 10
756.3257106857378
 20
204.3929914586871
 11
723.3257106857378
 21
204.3929914586871
 72
     1
 10
723.3257106857378
 20
204.3929914586871
 11
723.3257106857378
 21
167.8929914586088
 97
        0
 75
     0
 76
     0
 52
5.0
 41
3.0
 77
     0
 78
     1
 53
4.999999999999999
 43
0.0
 44
0.0
 45
-0.2614672282429745
 46
2.988584094275235
 79
     0
 98
        1
 10
-1869.234283232831
 20
-184.5903748993605
1001
ACAD
1010
0.0
1020
0.0
1030
0.0
1001
GENIUS_GENODEF_13
1002
{
1000
HIER
1070
     0
1002
}
1002
{
1000
MANEDIT
1070
     0
1002
}
1002
{
1000
NOSEL
1070
     0
1002
}
1002
{
1000
BEHIND
1070
     0
1002
}
1002
{
1000
OTHER
1070
     0
1002
}
1002
{
1000
REACTOR
1002
}
1001
GENIUS_GENOBJ-N-HTC_13
1002
{
1000
OWNER
1000
GEN
1002
}
1001
GENIUS_GENHATCH_13
1002
{
1000
DATA
1040
45.0
1042
2.5
1000
_U
1070
     0
1011
746.1786606682197
1021
164.4590980038945
1031
0.0
1002
}
1002
{
1000
UCS
1010
0.0
1020
0.0
1030
0.0
1010
1.0
1020
0.0
1030
0.0
1010
0.0
1020
1.0
1030
0.0
1002
}
  0
INSERT
  5
DA69
330
37
100
AcDbEntity
  8
0
100
AcDbBlockReference
  2
A$C631E3D22
 10
264.825710686236
 20
241.8929914586085
 30
0.0
 41
5.0
 42
5.0
 43
5.0
  0
LWPOLYLINE
  5
DFB4
330
37
100
AcDbEntity
  8
0
100
AcDbPolyline
 90
       13
 70
     1
 43
0.0
 10
739.5383858470007
 20
367.2548104943077
 42
0.0411841181432871
 10
742.0155167044416
 20
479.8028904273491
 42
0.1933720073653664
 10
688.512843543403
 20
605.5780735380888
 42
0.195061805425049
 10
677.7394968199152
 20
609.8929914586102
 10
655.3257106857416
 20
609.8929914586102
 10
655.3257106857416
 20
643.8929914586107
 10
687.3069405444232
 20
643.8929914586107
 42
-0.1168791231270289
 10
695.4379082693608
 20
641.6585321258172
 42
-0.1033407794797284
 10
725.7959069495018
 20
613.2487434274398
 42
-0.1398537759733562
 10
775.4900598482254
 20
490.9267808610646
 42
-0.0481368422262905
 10
764.3257106857378
 20
241.8929914586105
 10
660.3257106857417
 20
241.8929914586105
 10
660.3257106857441
 20
243.3929914586121
 42
0.2268209227950378
  0
LWPOLYLINE
  5
DFB5
330
37
100
AcDbEntity
  8
0
100
AcDbPolyline
 90
       10
 70
     1
 43
0.0
 10
655.3257106857416
 20
643.7691139769305
 10
655.3257106857416
 20
643.7691139769305
 42
0.4279389046610665
 10
654.8024027183924
 20
644.2685704201345
 10
625.8024027183924
 20
642.9152370868012
 42
0.4006201480130665
 10
625.3257106857416
 20
642.415780643597
 10
625.3257106857416
 20
642.415780643597
 10
625.3257106857416
 20
611.3702022736241
 42
0.4006201480130672
 10
625.8024027183924
 20
610.8707458304201
 10
654.8024027183924
 20
609.5174124970866
 42
0.4279389046610641
 10
655.3257106857416
 20
610.0168689402908
1001
GENIUS_GENOREF_13
1005
0
1005
0
  0
LINE
  5
DFB6
330
37
100
AcDbEntity
  8
中心線
100
AcDbLine
 10
739.3257106857378
 20
244.8929914586105
 30
0.0
 11
739.3257106857378
 21
238.8929914586105
 31
0.0
  0
LINE
  5
DFB8
330
37
100
AcDbEntity
  8
0
 48
2.0
100
AcDbLine
 10
313.8257106862365
 20
241.8929914586085
 30
0.0
 11
264.8257106862366
 21
241.8929914586085
 31
0.0
  0
LINE
  5
DFB9
330
37
100
AcDbEntity
  8
0
 48
2.0
100
AcDbLine
 10
264.8257106862366
 20
241.8929914586085
 30
0.0
 11
272.3257106862366
 21
626.8929914586379
 31
0.0
  0
LINE
  5
DFBA
330
37
100
AcDbEntity
  8
0
 48
2.0
100
AcDbLine
 10
313.8257106862365
 20
241.8929914586085
 30
0.0
 11
306.3257106862366
 21
626.8929914586379
 31
0.0
  0
LINE
  5
DFBB
330
37
100
AcDbEntity
  8
中心線
100
AcDbLine
 10
289.3257106862366
 20
244.8929914586086
 30
0.0
 11
289.3257106862366
 21
238.8929914586086
 31
0.0
  0
LWPOLYLINE
  5
DFBD
330
37
100
AcDbEntity
  8
0
100
AcDbPolyline
 90
       10
 70
     1
 43
0.0
 10
272.4495881679168
 20
971.7474347851595
 10
272.4495881679168
 20
971.7474347851595
 42
0.4279389046610665
 10
271.9501317247126
 20
971.2241268178097
 10
273.3034650580462
 20
942.2241268178101
 42
0.4006201480130665
 10
273.8029215012502
 20
941.7474347851596
 10
273.8029215012502
 20
941.7474347851596
 10
304.8484998712229
 20
941.7474347851596
 42
0.4006201480130672
 10
305.3479563144269
 20
942.2241268178101
 10
306.7012896477604
 20
971.2241268178097
 42
0.4279389046610641
 10
306.2018332045564
 20
971.7474347851595
1001
GENIUS_GENOREF_13
1005
0
1005
0
  0
LINE
  5
DFBE
330
37
100
AcDbEntity
  8
中心線
100
AcDbLine
 10
287.8257106862366
 20
1055.747434785156
 30
0.0
 11
290.8257106862365
 21
1055.747434785156
 31
0.0
  0
LINE
  5
DFBF
330
37
100
AcDbEntity
  8
中心線
100
AcDbLine
 10
289.3257106862366
 20
1057.247434785156
 30
0.0
 11
289.3257106862366
 21
1054.247434785156
 31
0.0
  0
LWPOLYLINE
  5
DFC0
330
37
100
AcDbEntity
  8
0
100
AcDbPolyline
 90
        3
 70
     0
 43
0.0
 10
264.8257106862366
 20
1077.750411143166
 10
264.8257106862366
 20
1077.750411143166
 10
264.8257106862366
 20
976.7474347851623
1001
GENIUS_GENREC_14
1002
{
1000
PYDIR
1011
264.8257106862366
1021
1077.750411143166
1031
0.0
1002
}
1002
{
1000
PXDIR
1011
313.8257106862365
1021
976.7474347851623
1031
0.0
1002
}
1002
{
1000
PORI
1011
264.8257106862366
1021
976.7474347851623
1031
0.0
1002
}
1002
{
1000
PINS
1011
264.8257106862366
1021
976.7474347851623
1031
0.0
1002
}
1002
{
1000
PINS2
1011
313.8257106862365
1021
1080.74743478517
1031
0.0
1002
}
1002
{
1000
C
1070
     1
1002
}
1001
GENIUS_GENODEF_13
1002
{
1000
HIER
1070
     0
1002
}
1002
{
1000
MANEDIT
1070
     0
1002
}
1002
{
1000
NOSEL
1070
     0
1002
}
1002
{
1000
BEHIND
1070
     0
1002
}
1002
{
1000
OTHER
1070
     0
1002
}
1002
{
1000
REACTOR
1002
}
1001
GENIUS_GENOBJ-N-REC_13
1002
{
1000
OWNER
1000
GEN
1002
}
  0
LWPOLYLINE
  5
DFC1
330
37
100
AcDbEntity
  8
0
100
AcDbPolyline
 90
        3
 70
     0
 43
0.0
 10
264.8257106862366
 20
976.7474347851623
 10
264.8257106862366
 20
976.7474347851623
 10
272.0240567206274
 20
976.7474347851623
1001
GENIUS_GENREC_14
1002
{
1000
PYDIR
1011
263.8257106862365
1021
1080.74743478517
1031
0.0
1002
}
1002
{
1000
PXDIR
1011
312.8257106862366
1021
976.7474347851623
1031
0.0
1002
}
1002
{
1000
PORI
1011
264.8257106862366
1021
976.7474347851623
1031
0.0
1002
}
1002
{
1000
PINS
1011
264.8257106862366
1021
976.7474347851623
1031
0.0
1002
}
1002
{
1000
PINS2
1011
312.8257106862366
1021
1080.74743478517
1031
0.0
1002
}
1002
{
1000
C
1070
     1
1002
}
1001
GENIUS_GENODEF_13
1002
{
1000
HIER
1070
     0
1002
}
1002
{
1000
MANEDIT
1070
     0
1002
}
1002
{
1000
NOSEL
1070
     0
1002
}
1002
{
1000
BEHIND
1070
     0
1002
}
1002
{
1000
OTHER
1070
     0
1002
}
1002
{
1000
REACTOR
1002
}
1001
GENIUS_GENOBJ-N-REC_13
1002
{
1000
OWNER
1000
GEN
1002
}
  0
LWPOLYLINE
  5
DFC2
330
37
100
AcDbEntity
  8
0
100
AcDbPolyline
 90
        3
 70
     0
 43
0.0
 10
306.6273646518457
 20
976.7474347851623
 10
313.8102521554543
 20
976.7474347851623
 10
313.8102521554543
 20
976.7474347851623
1001
GENIUS_GENREC_14
1002
{
1000
PYDIR
1011
265.8257106862365
1021
1080.74743478517
1031
0.0
1002
}
1002
{
1000
PXDIR
1011
313.8102521554543
1021
976.7474347851623
1031
0.0
1002
}
1002
{
1000
PORI
1011
265.8257106862365
1021
976.7474347851623
1031
0.0
1002
}
1002
{
1000
PINS
1011
265.8257106862365
1021
976.7474347851623
1031
0.0
1002
}
1002
{
1000
PINS2
1011
314.8257106862366
1021
1080.74743478517
1031
0.0
1002
}
1002
{
1000
C
1070
     1
1002
}
1001
GENIUS_GENODEF_13
1002
{
1000
HIER
1070
     0
1002
}
1002
{
1000
MANEDIT
1070
     0
1002
}
1002
{
1000
NOSEL
1070
     0
1002
}
1002
{
1000
BEHIND
1070
     0
1002
}
1002
{
1000
OTHER
1070
     0
1002
}
1002
{
1000
REACTOR
1002
}
1001
GENIUS_GENOBJ-N-REC_13
1002
{
1000
OWNER
1000
GEN
1002
}
  0
LWPOLYLINE
  5
DFC3
330
37
100
AcDbEntity
  8
0
100
AcDbPolyline
 90
        2
 70
     0
 43
0.0
 10
313.8102521554543
 20
976.7474347851623
 10
313.8102521554543
 20
1077.751138826936
1001
GENIUS_GENREC_14
1002
{
1000
PYDIR
1011
264.8102521554542
1021
1080.74743478517
1031
0.0
1002
}
1002
{
1000
PXDIR
1011
313.8102521554543
1021
976.7474347851623
1031
0.0
1002
}
1002
{
1000
PORI
1011
264.8102521554542
1021
976.7474347851623
1031
0.0
1002
}
1002
{
1000
PINS
1011
264.8102521554542
1021
976.7474347851623
1031
0.0
1002
}
1002
{
1000
PINS2
1011
313.8102521554543
1021
1077.751138826936
1031
0.0
1002
}
1002
{
1000
C
1070
     1
1002
}
1001
GENIUS_GENODEF_13
1002
{
1000
HIER
1070
     0
1002
}
1002
{
1000
MANEDIT
1070
     0
1002
}
1002
{
1000
NOSEL
1070
     0
1002
}
1002
{
1000
BEHIND
1070
     0
1002
}
1002
{
1000
OTHER
1070
     0
1002
}
1002
{
1000
REACTOR
1002
}
1001
GENIUS_GENOBJ-N-REC_13
1002
{
1000
OWNER
1000
GEN
1002
}
  0
LWPOLYLINE
  5
DFC4
330
37
100
AcDbEntity
  8
0
100
AcDbPolyline
 90
        6
 70
     1
 43
0.0
 10
306.4503202279989
 20
971.7474347851595
 10
310.6599245274274
 20
1090.511048266374
 42
0.4254360597332705
 10
307.6621089318928
 20
1093.625510728215
 10
270.9893124405819
 20
1093.625510728215
 42
0.4254360597332705
 10
267.9914968450475
 20
1090.511048266374
 10
272.201101144474
 20
971.7474347851595
  0
LWPOLYLINE
  5
DFC5
330
37
100
AcDbEntity
  8
0
100
AcDbPolyline
 90
        3
 70
     0
 43
0.0
 10
264.8257106862368
 20
1074.750411143173
 10
264.8257106862368
 20
1077.750411143166
 42
-0.4144161677289829
 10
267.8207432337733
 20
1080.747506970716
 42
-0.4144161677289829
  0
LWPOLYLINE
  5
DFC6
330
37
100
AcDbEntity
  8
0
100
AcDbPolyline
 90
        3
 70
     0
 43
0.0
 10
310.8165652935577
 20
1080.747441940827
 42
-0.414469446818675
 10
313.8102521554543
 20
1077.751138826936
 10
313.8102521554543
 20
1077.751138826936
  0
LWPOLYLINE
  5
DFC7
330
37
100
AcDbEntity
  8
0
100
AcDbPolyline
 90
        2
 70
     0
 43
0.0
 10
310.816565329176
 20
1080.747441940827
 10
310.3098889483651
 20
1080.74744270716
  0
LWPOLYLINE
  5
DFC8
330
37
100
AcDbEntity
  8
0
100
AcDbPolyline
 90
        2
 70
     0
 43
0.0
 10
268.3415301764997
 20
1080.747506183038
 10
267.8207387038833
 20
1080.74750697072
  0
LINE
  5
E1D5
330
37
100
AcDbEntity
  8
弱線
100
AcDbLine
 10
609.825710685742
 20
640.0352195567302
 30
0.0
 11
608.0827525381604
 21
640.0352807206492
 31
0.0
  0
LINE
  5
E1D6
330
37
100
AcDbEntity
  8
弱線
100
AcDbLine
 10
607.3076216857421
 20
639.642071181694
 30
0.0
 11
607.3076232050785
 21
614.1439099629682
 31
0.0
  0
LWPOLYLINE
  5
E1D7
330
37
100
AcDbEntity
  8
0
100
AcDbPolyline
 90
       28
 70
     0
 43
0.0
 10
609.825710685742
 20
641.0419704586106
 10
608.4355454600802
 20
641.0419704586106
 10
607.9449529369035
 20
639.6420714586106
 10
607.3076216857421
 20
639.642071181694
 42
-0.201941003146582
 10
601.3080550811264
 20
636.6422880646682
 10
583.5849293122676
 20
636.642287484608
 42
-0.1212442646865258
 10
577.5507106857419
 20
638.3929914586103
 10
557.6888779707631
 20
638.3929914586103
 42
-0.1162670064868335
 10
556.2082438370363
 20
635.8614201953074
 10
551.048829685742
 20
633.9784964586105
 10
550.813906685742
 20
633.6429914586106
 10
550.813906685742
 20
620.1429914586106
 10
551.048829685742
 20
619.8074864586105
 10
553.4263658323474
 20
618.9421344248977
 42
-0.4663076788060272
 10
557.6184076857421
 20
607.4245934586106
 10
540.271056685742
 20
577.3760044586106
 10
540.454069685742
 20
576.6929914586102
 10
542.1852127388103
 20
575.693515550528
 10
557.1026566857416
 20
584.3379694586105
 10
569.742826685742
 20
577.0401634586105
 10
570.4258396857417
 20
577.2231764586107
 10
590.008650685742
 20
611.1436954586106
 42
-0.2679491830006636
 10
600.400955685742
 20
617.1436954586106
 10
601.308054685742
 20
617.1436954586106
 42
-0.2019410001722421
 10
607.3076232050782
 20
614.1439099629682
 10
607.9449529369035
 20
614.1444534586102
 10
608.4355454600802
 20
612.7440134586104
 10
609.825710685742
 20
612.7440134586104
  0
LWPOLYLINE
  5
E1D8
330
37
100
AcDbEntity
  8
弱線
100
AcDbPolyline
 90
        5
 70
     0
 43
0.0
 10
580.985158615397
 20
635.9875130667322
 42
0.0540571066179281
 10
574.8334337428903
 20
626.4222524656702
 42
-0.6647316702052556
 10
562.81400494242
 20
627.2282777947607
 42
0.1155786764145547
 10
557.1865653828798
 20
634.6695457586593
 42
-0.1684010842477683
 10
556.1979418327673
 20
635.8893268907527
  0
LINE
  5
E1D9
330
37
100
AcDbEntity
  8
弱線
100
AcDbLine
 10
607.9449529369035
 20
639.6420714586106
 30
0.0
 11
607.9449529369035
 21
614.1444534586102
 31
0.0
  0
LINE
  5
E1DA
330
37
100
AcDbEntity
  8
弱線
100
AcDbLine
 10
609.825710685742
 20
613.7507633604911
 30
0.0
 11
608.0828891732259
 21
613.7507022013664
 31
0.0
  0
LWPOLYLINE
  5
E1DB
330
37
100
AcDbEntity
  8
0
 48
0.5
100
AcDbPolyline
 90
        8
 70
     1
 43
0.0
 10
624.325710685742
 20
609.8929914586107
 10
610.3257106857419
 20
609.8929914586106
 10
609.825710685742
 20
610.3929914586106
 10
609.825710685742
 20
643.3929914586101
 10
610.3257106857419
 20
643.8929914586101
 10
624.325710685742
 20
643.8929914586106
 10
624.825710685742
 20
643.3929914586106
 10
624.825710685742
 20
610.3929914586107
1001
GENIUS_GENREC_14
1002
{
1000
PYDIR
1011
624.825710685742
1021
643.8929914586106
1031
0.0
1002
}
1002
{
1000
PXDIR
1011
609.825710685742
1021
609.8929914586106
1031
0.0
1002
}
1002
{
1000
PORI
1011
624.825710685742
1021
609.8929914586106
1031
0.0
1002
}
1002
{
1000
PINS
1011
624.825710685742
1021
609.8929914586106
1031
0.0
1002
}
1002
{
1000
HVAL
1000
33
1002
}
1002
{
1000
H
1070
     2
1002
}
1002
{
1000
WVAL
1000
15
1002
}
1002
{
1000
W
1070
     2
1002
}
1002
{
1000
C
1070
     1
1002
}
1001
GENIUS_GENOBJ-N-REC_13
1002
{
1000
OWNER
1000
GEN
1002
}
1001
GENIUS_GENODEF_13
1002
{
1000
HIER
1070
     0
1002
}
1002
{
1000
MANEDIT
1070
     0
1002
}
1002
{
1000
NOSEL
1070
     0
1002
}
1002
{
1000
BEHIND
1070
     0
1002
}
1002
{
1000
OTHER
1070
     0
1002
}
1002
{
1000
REACTOR
1002
}
  0
LINE
  5
E1DC
330
37
100
AcDbEntity
  8
弱線
 48
0.5
100
AcDbLine
 10
610.3257106857419
 20
643.8929914586101
 30
0.0
 11
610.3257106857419
 21
609.8929914586106
 31
0.0
  0
LINE
  5
E1DD
330
37
100
AcDbEntity
  8
弱線
 48
0.5
100
AcDbLine
 10
624.325710685742
 20
643.8929914586106
 30
0.0
 11
624.325710685742
 21
609.8929914586107
 31
0.0
  0
LWPOLYLINE
  5
E1DE
330
37
100
AcDbEntity
  8
0
 48
0.5
100
AcDbPolyline
 90
        4
 70
     0
 43
0.0
 10
624.825710685742
 20
639.3929914586106
 10
625.3257106857416
 20
639.3929914586106
 10
625.3257106857416
 20
614.3929914586106
 10
624.825710685742
 20
614.3929914586106
  0
HATCH
  5
E1DF
330
37
100
AcDbEntity
  8
弱線
 48
0.5
100
AcDbHatch
 10
0.0
 20
0.0
 30
0.0
210
0.0
220
0.0
230
1.0
  2
_U
 70
     0
 71
     0
 91
        1
 92
        1
 93
        4
 72
     1
 10
610.3257106857419
 20
643.8929914586101
 11
610.3257106857419
 21
609.8929914586106
 72
     1
 10
610.3257106857419
 20
609.8929914586106
 11
624.325710685742
 21
609.8929914586107
 72
     1
 10
624.325710685742
 20
609.8929914586107
 11
624.325710685742
 21
643.8929914586106
 72
     1
 10
624.325710685742
 20
643.8929914586106
 11
610.3257106857419
 21
643.8929914586101
 97
        0
 75
     0
 76
     0
 52
0.0
 41
3.0
 77
     0
 78
     1
 53
0.0
 43
-868.3585641616982
 44
-2232.060050935256
 45
0.0
 46
3.0
 79
     0
 98
        1
 10
-868.3585641616982
 20
-2232.060050935256
1001
GENIUS_GENODEF_13
1002
{
1000
HIER
1070
     0
1002
}
1002
{
1000
MANEDIT
1070
     0
1002
}
1002
{
1000
NOSEL
1070
     0
1002
}
1002
{
1000
BEHIND
1070
     0
1002
}
1002
{
1000
OTHER
1070
     0
1002
}
1002
{
1000
REACTOR
1002
}
1001
GENIUS_GENOBJ-N-HTC_13
1002
{
1000
OWNER
1000
GEN
1002
}
1001
GENIUS_GENHATCH_13
1002
{
1000
DATA
1040
45.0
1042
2.5
1000
_U
1070
     0
1011
620.6556668353157
1021
635.4363021995744
1031
0.0
1002
}
1002
{
1000
UCS
1010
0.0
1020
0.0
1030
0.0
1010
1.0
1020
0.0
1030
0.0
1010
0.0
1020
1.0
1030
0.0
1002
}
  0
LWPOLYLINE
  5
E1E0
330
37
100
AcDbEntity
  8
0
100
AcDbPolyline
 90
        8
 70
     0
 43
0.0
 10
559.373059072358
 20
648.8929914586107
 42
0.0800061372182834
 10
557.525710685742
 20
646.3929914586103
 10
557.025710685742
 20
646.092991458611
 10
557.025710685742
 20
638.3929914586103
 10
579.0257106857421
 20
638.3929914586103
 10
579.0257106857421
 20
646.092991458611
 10
578.5257106857421
 20
646.3929914586103
 42
0.0802777583198353
 10
576.681039352718
 20
648.8929914586107
  0
LINE
  5
E1E1
330
37
100
AcDbEntity
  8
0
100
AcDbLine
 10
579.0257106857421
 20
646.092991458611
 30
0.0
 11
557.025710685742
 21
646.092991458611
 31
0.0
  0
LINE
  5
E1E2
330
37
100
AcDbEntity
  8
弱線
100
AcDbLine
 10
578.5257106857421
 20
646.3929914586107
 30
0.0
 11
557.525710685742
 21
646.3929914586107
 31
0.0
  0
HATCH
  5
E1E3
330
37
100
AcDbEntity
  8
弱線
 48
0.3
100
AcDbHatch
 10
0.0
 20
0.0
 30
0.0
210
0.0
220
0.0
230
1.0
  2
_U
 70
     0
 71
     0
 91
        1
 92
        1
 93
        4
 72
     1
 10
578.5257106857421
 20
638.3929914586103
 11
557.525710685742
 21
638.3929914586103
 72
     1
 10
557.525710685742
 20
638.3929914586103
 11
557.525710685742
 21
646.0929914586109
 72
     1
 10
557.525710685742
 20
646.092991458611
 11
578.5257106857421
 21
646.092991458611
 72
     1
 10
578.5257106857421
 20
646.092991458611
 11
578.5257106857421
 21
638.3929914586111
 97
        0
 75
     0
 76
     0
 52
90.0
 41
2.5
 77
     0
 78
     1
 53
90.0
 43
-959.7991870521736
 44
-2348.841277425252
 45
-2.5
 46
0.0000000000000002
 79
     0
 98
        1
 10
1923.990259923647
 20
-1108.936299243508
1001
GENIUS_GENOBJ-N-HTC_13
1002
{
1000
OWNER
1000
GEN
1002
}
1001
GENIUS_GENODEF_13
1002
{
1000
HIER
1070
     0
1002
}
1002
{
1000
MANEDIT
1070
     0
1002
}
1002
{
1000
NOSEL
1070
     0
1002
}
1002
{
1000
BEHIND
1070
     0
1002
}
1002
{
1000
OTHER
1070
     0
1002
}
1002
{
1000
REACTOR
1002
}
1001
GENIUS_GENHATCH_13
1002
{
1000
DATA
1040
90.0
1042
-1.0
1000
_U
1070
     0
1011
566.0023174791417
1021
642.0901449303646
1031
0.0
1002
}
1002
{
1000
UCS
1010
0.0
1020
0.0
1030
0.0
1010
1.0
1020
0.0
1030
0.0
1010
0.0
1020
1.0
1030
0.0
1002
}
  0
LINE
  5
E1E4
330
37
100
AcDbEntity
  8
0
100
AcDbLine
 10
558.5257106857421
 20
653.8929914586106
 30
0.0
 11
577.525710685742
 21
653.8929914586106
 31
0.0
  0
LWPOLYLINE
  5
E1E5
330
37
100
AcDbEntity
  8
0
100
AcDbPolyline
 90
       10
 70
     1
 43
0.0
 10
559.9498691189537
 20
654.8424304140852
 10
558.5257106857421
 20
653.8929914586106
 10
558.5257106857421
 20
648.8929914586107
 10
577.525710685742
 20
648.8929914586107
 10
577.525710685742
 20
653.8929914586106
 10
576.1015522525307
 20
654.8424304140852
 42
-0.2892456994447618
 10
574.7964677706745
 20
657.7674635850647
 10
577.125710685742
 20
671.3929914586107
 10
558.9257106857421
 20
671.3929914586107
 10
561.2549536008096
 20
657.7674635850647
 42
-0.2892456994447619
  0
HATCH
  5
E1E6
330
37
100
AcDbEntity
  8
弱線
100
AcDbHatch
 10
0.0
 20
0.0
 30
0.0
210
0.0
220
0.0
230
1.0
  2
_U
 70
     0
 71
     0
 91
        1
 92
        1
 93
        4
 72
     1
 10
558.5257106857421
 20
653.8929914586106
 11
577.525710685742
 21
653.8929914586106
 72
     1
 10
577.525710685742
 20
653.8929914586106
 11
577.525710685742
 21
648.8929914586107
 72
     1
 10
577.525710685742
 20
648.8929914586107
 11
558.5257106857421
 21
648.8929914586107
 72
     1
 10
558.5257106857421
 20
648.8929914586107
 11
558.5257106857421
 21
653.8929914586106
 97
        0
 75
     0
 76
     0
 52
90.0
 41
2.5
 77
     0
 78
     1
 53
90.0
 43
-959.7991870521736
 44
-2348.841277425252
 45
-2.5
 46
0.0000000000000002
 79
     0
 98
        1
 10
761.1269667140171
 20
487.6303687385738
1001
GENIUS_GENOBJ-N-HTC_13
1002
{
1000
OWNER
1000
GEN
1002
}
1001
GENIUS_GENODEF_13
1002
{
1000
HIER
1070
     0
1002
}
1002
{
1000
MANEDIT
1070
     0
1002
}
1002
{
1000
NOSEL
1070
     0
1002
}
1002
{
1000
BEHIND
1070
     0
1002
}
1002
{
1000
OTHER
1070
     0
1002
}
1002
{
1000
REACTOR
1002
}
1001
GENIUS_GENHATCH_13
1002
{
1000
DATA
1040
90.0
1042
-1.0
1000
_U
1070
     0
1011
566.0399821254272
1021
652.8593569375829
1031
0.0
1002
}
1002
{
1000
UCS
1010
0.0
1020
0.0
1030
0.0
1010
1.0
1020
0.0
1030
0.0
1010
0.0
1020
1.0
1030
0.0
1002
}
  0
LWPOLYLINE
  5
E1E7
330
37
100
AcDbEntity
  8
0
100
AcDbPolyline
 90
        6
 70
     0
 43
0.0
 10
579.0257106857421
 20
679.3929914586107
 10
573.6726695066712
 20
728.0570021773378
 42
0.3824764488947462
 10
572.1816629727792
 20
729.3929914586107
 10
563.8697583987045
 20
729.3929914586107
 42
0.3824764488947462
 10
562.3787518648005
 20
728.0570021773309
 10
557.025710685742
 20
679.3929914586107
  0
ARC
  5
E1E8
330
37
100
AcDbEntity
  8
0
100
AcDbCircle
 10
557.025710685742
 20
677.8929914586107
 30
0.0
 40
1.5
100
AcDbArc
 50
90.0
 51
270.0
  0
ARC
  5
E1E9
330
37
100
AcDbEntity
  8
0
100
AcDbCircle
 10
579.0257106857421
 20
677.8929914586107
 30
0.0
 40
1.5
100
AcDbArc
 50
270.0
 51
90.0
  0
LWPOLYLINE
  5
E1EA
330
37
100
AcDbEntity
  8
0
100
AcDbPolyline
 90
        4
 70
     0
 43
0.0
 10
557.025710685742
 20
676.3929914586107
 10
558.775710685742
 20
671.3929914586107
 10
577.2757106857421
 20
671.3929914586107
 10
579.0257106857421
 20
676.3929914586107
  0
LINE
  5
E1EB
330
37
100
AcDbEntity
  8
0
100
AcDbLine
 10
579.0257106857421
 20
676.3929914586107
 30
0.0
 11
557.025710685742
 21
676.3929914586107
 31
0.0
  0
LINE
  5
E1EC
330
37
100
AcDbEntity
  8
0
100
AcDbLine
 10
579.0257106857565
 20
679.3929914586107
 30
0.0
 11
557.025710685742
 21
679.3929914586107
 31
0.0
  0
LWPOLYLINE
  5
E1EE
330
37
100
AcDbEntity
  8
0
100
AcDbPolyline
 90
        8
 70
     1
 43
0.0
 10
306.3257106862384
 20
926.9974347851595
 10
306.3257106862384
 20
940.4974347851602
 10
305.5757106862384
 20
941.2474347851601
 10
273.0757106862384
 20
941.2474347851595
 10
272.3257106862384
 20
940.4974347851595
 10
272.3257106862384
 20
926.9974347851595
 10
273.0757106862384
 20
926.2474347851595
 10
305.5757106862384
 20
926.2474347851595
1001
GENIUS_GENREC_14
1002
{
1000
PYDIR
1011
272.3257106862384
1021
926.2474347851595
1031
0.0
1002
}
1002
{
1000
PXDIR
1011
306.3257106862384
1021
941.2474347851595
1031
0.0
1002
}
1002
{
1000
PORI
1011
306.3257106862384
1021
926.2474347851595
1031
0.0
1002
}
1002
{
1000
PINS
1011
289.3257106862384
1021
926.2474347851595
1031
0.0
1002
}
1002
{
1000
HVAL
1000
36
1002
}
1002
{
1000
H
1070
     2
1002
}
1002
{
1000
WVAL
1000
16.5
1002
}
1002
{
1000
W
1070
     2
1002
}
1002
{
1000
C
1070
     3
1002
}
1001
GENIUS_GENOBJ-N-REC_13
1002
{
1000
OWNER
1000
GEN
1002
}
1001
GENIUS_GENODEF_13
1002
{
1000
HIER
1070
     0
1002
}
1002
{
1000
MANEDIT
1070
     0
1002
}
1002
{
1000
NOSEL
1070
     0
1002
}
1002
{
1000
BEHIND
1070
     0
1002
}
1002
{
1000
OTHER
1070
     0
1002
}
1002
{
1000
REACTOR
1002
}
  0
CIRCLE
  5
E1EF
330
37
100
AcDbEntity
  8
0
100
AcDbCircle
 10
289.3257106862384
 20
884.4474347851599
 30
0.0
 40
12.5
  0
LINE
  5
E1F0
330
37
100
AcDbEntity
  8
0
100
AcDbLine
 10
282.4030130643109
 20
867.2356307851599
 30
0.0
 11
296.2484083081658
 21
867.2356307851599
 31
0.0
  0
LWPOLYLINE
  5
E1F1
330
37
100
AcDbEntity
  8
0
100
AcDbPolyline
 90
       10
 70
     0
 43
0.0
 10
280.1644445232387
 20
875.9432474465524
 42
0.0672445587347603
 10
281.8765340643108
 20
868.0947947853887
 10
282.0675080643118
 20
867.4705537851599
 10
282.4030130643109
 20
867.2356307851599
 10
283.7905371745101
 20
860.2474347853867
 42
0.6421937799592128
 10
294.8608841979667
 20
860.2474347853867
 10
296.2484083081658
 20
867.2356307851599
 10
296.5839133081649
 20
867.4705537851599
 10
296.774887308166
 20
868.0947947853887
 42
0.067244558734709
 10
298.4869768492373
 20
875.9432474465464
 42
0.067244558734709
  0
LINE
  5
E1F2
330
37
100
AcDbEntity
  8
弱線
 48
0.5
100
AcDbLine
 10
272.8257106862384
 20
926.9974347851595
 30
0.0
 11
272.8257106862384
 21
940.4974347851595
 31
0.0
1001
GENIUS_GENODEF_13
1002
{
1000
HIER
1070
     0
1002
}
1002
{
1000
MANEDIT
1070
     0
1002
}
1002
{
1000
NOSEL
1070
     0
1002
}
1002
{
1000
BEHIND
1070
     0
1002
}
1002
{
1000
OTHER
1070
     0
1002
}
1002
{
1000
REACTOR
1002
}
1001
GENIUS_GENOBJ-N-HTC_13
1002
{
1000
OWNER
1000
GEN
1002
}
1001
GENIUS_GENHATCH_13
1002
{
1000
DATA
1040
90.0
1042
3.0
1000
_U
1070
     0
1011
292.8246481872664
1021
934.3863493537055
1031
0.0
1002
}
1002
{
1000
UCS
1010
0.0
1020
0.0
1030
0.0
1010
1.0
1020
0.0
1030
0.0
1010
0.0
1020
1.0
1030
0.0
1002
}
  0
LINE
  5
E1F3
330
37
100
AcDbEntity
  8
弱線
 48
0.5
100
AcDbLine
 10
275.8257106862384
 20
926.9974347851595
 30
0.0
 11
275.8257106862384
 21
940.4974347851595
 31
0.0
1001
GENIUS_GENODEF_13
1002
{
1000
HIER
1070
     0
1002
}
1002
{
1000
MANEDIT
1070
     0
1002
}
1002
{
1000
NOSEL
1070
     0
1002
}
1002
{
1000
BEHIND
1070
     0
1002
}
1002
{
1000
OTHER
1070
     0
1002
}
1002
{
1000
REACTOR
1002
}
1001
GENIUS_GENOBJ-N-HTC_13
1002
{
1000
OWNER
1000
GEN
1002
}
1001
GENIUS_GENHATCH_13
1002
{
1000
DATA
1040
90.0
1042
3.0
1000
_U
1070
     0
1011
292.8246481872664
1021
934.3863493537055
1031
0.0
1002
}
1002
{
1000
UCS
1010
0.0
1020
0.0
1030
0.0
1010
1.0
1020
0.0
1030
0.0
1010
0.0
1020
1.0
1030
0.0
1002
}
  0
LINE
  5
E1F4
330
37
100
AcDbEntity
  8
弱線
 48
0.5
100
AcDbLine
 10
278.8257106862384
 20
926.9974347851595
 30
0.0
 11
278.8257106862384
 21
940.4974347851595
 31
0.0
1001
GENIUS_GENODEF_13
1002
{
1000
HIER
1070
     0
1002
}
1002
{
1000
MANEDIT
1070
     0
1002
}
1002
{
1000
NOSEL
1070
     0
1002
}
1002
{
1000
BEHIND
1070
     0
1002
}
1002
{
1000
OTHER
1070
     0
1002
}
1002
{
1000
REACTOR
1002
}
1001
GENIUS_GENOBJ-N-HTC_13
1002
{
1000
OWNER
1000
GEN
1002
}
1001
GENIUS_GENHATCH_13
1002
{
1000
DATA
1040
90.0
1042
3.0
1000
_U
1070
     0
1011
292.8246481872664
1021
934.3863493537055
1031
0.0
1002
}
1002
{
1000
UCS
1010
0.0
1020
0.0
1030
0.0
1010
1.0
1020
0.0
1030
0.0
1010
0.0
1020
1.0
1030
0.0
1002
}
  0
LINE
  5
E1F5
330
37
100
AcDbEntity
  8
弱線
 48
0.5
100
AcDbLine
 10
281.8257106862384
 20
926.9974347851595
 30
0.0
 11
281.8257106862384
 21
940.4974347851595
 31
0.0
1001
GENIUS_GENODEF_13
1002
{
1000
HIER
1070
     0
1002
}
1002
{
1000
MANEDIT
1070
     0
1002
}
1002
{
1000
NOSEL
1070
     0
1002
}
1002
{
1000
BEHIND
1070
     0
1002
}
1002
{
1000
OTHER
1070
     0
1002
}
1002
{
1000
REACTOR
1002
}
1001
GENIUS_GENOBJ-N-HTC_13
1002
{
1000
OWNER
1000
GEN
1002
}
1001
GENIUS_GENHATCH_13
1002
{
1000
DATA
1040
90.0
1042
3.0
1000
_U
1070
     0
1011
292.8246481872664
1021
934.3863493537055
1031
0.0
1002
}
1002
{
1000
UCS
1010
0.0
1020
0.0
1030
0.0
1010
1.0
1020
0.0
1030
0.0
1010
0.0
1020
1.0
1030
0.0
1002
}
  0
LINE
  5
E1F6
330
37
100
AcDbEntity
  8
弱線
 48
0.5
100
AcDbLine
 10
284.8257106862384
 20
926.9974347851595
 30
0.0
 11
284.8257106862384
 21
940.4974347851595
 31
0.0
1001
GENIUS_GENODEF_13
1002
{
1000
HIER
1070
     0
1002
}
1002
{
1000
MANEDIT
1070
     0
1002
}
1002
{
1000
NOSEL
1070
     0
1002
}
1002
{
1000
BEHIND
1070
     0
1002
}
1002
{
1000
OTHER
1070
     0
1002
}
1002
{
1000
REACTOR
1002
}
1001
GENIUS_GENOBJ-N-HTC_13
1002
{
1000
OWNER
1000
GEN
1002
}
1001
GENIUS_GENHATCH_13
1002
{
1000
DATA
1040
90.0
1042
3.0
1000
_U
1070
     0
1011
292.8246481872664
1021
934.3863493537055
1031
0.0
1002
}
1002
{
1000
UCS
1010
0.0
1020
0.0
1030
0.0
1010
1.0
1020
0.0
1030
0.0
1010
0.0
1020
1.0
1030
0.0
1002
}
  0
LINE
  5
E1F7
330
37
100
AcDbEntity
  8
弱線
 48
0.5
100
AcDbLine
 10
287.8257106862384
 20
926.9974347851595
 30
0.0
 11
287.8257106862384
 21
940.4974347851595
 31
0.0
1001
GENIUS_GENODEF_13
1002
{
1000
HIER
1070
     0
1002
}
1002
{
1000
MANEDIT
1070
     0
1002
}
1002
{
1000
NOSEL
1070
     0
1002
}
1002
{
1000
BEHIND
1070
     0
1002
}
1002
{
1000
OTHER
1070
     0
1002
}
1002
{
1000
REACTOR
1002
}
1001
GENIUS_GENOBJ-N-HTC_13
1002
{
1000
OWNER
1000
GEN
1002
}
1001
GENIUS_GENHATCH_13
1002
{
1000
DATA
1040
90.0
1042
3.0
1000
_U
1070
     0
1011
292.8246481872664
1021
934.3863493537055
1031
0.0
1002
}
1002
{
1000
UCS
1010
0.0
1020
0.0
1030
0.0
1010
1.0
1020
0.0
1030
0.0
1010
0.0
1020
1.0
1030
0.0
1002
}
  0
LINE
  5
E1F8
330
37
100
AcDbEntity
  8
弱線
 48
0.5
100
AcDbLine
 10
290.8257106862384
 20
926.9974347851595
 30
0.0
 11
290.8257106862384
 21
940.4974347851595
 31
0.0
1001
GENIUS_GENODEF_13
1002
{
1000
HIER
1070
     0
1002
}
1002
{
1000
MANEDIT
1070
     0
1002
}
1002
{
1000
NOSEL
1070
     0
1002
}
1002
{
1000
BEHIND
1070
     0
1002
}
1002
{
1000
OTHER
1070
     0
1002
}
1002
{
1000
REACTOR
1002
}
1001
GENIUS_GENOBJ-N-HTC_13
1002
{
1000
OWNER
1000
GEN
1002
}
1001
GENIUS_GENHATCH_13
1002
{
1000
DATA
1040
90.0
1042
3.0
1000
_U
1070
     0
1011
292.8246481872664
1021
934.3863493537055
1031
0.0
1002
}
1002
{
1000
UCS
1010
0.0
1020
0.0
1030
0.0
1010
1.0
1020
0.0
1030
0.0
1010
0.0
1020
1.0
1030
0.0
1002
}
  0
LINE
  5
E1F9
330
37
100
AcDbEntity
  8
弱線
 48
0.5
100
AcDbLine
 10
293.8257106862384
 20
926.9974347851595
 30
0.0
 11
293.8257106862384
 21
940.4974347851595
 31
0.0
1001
GENIUS_GENODEF_13
1002
{
1000
HIER
1070
     0
1002
}
1002
{
1000
MANEDIT
1070
     0
1002
}
1002
{
1000
NOSEL
1070
     0
1002
}
1002
{
1000
BEHIND
1070
     0
1002
}
1002
{
1000
OTHER
1070
     0
1002
}
1002
{
1000
REACTOR
1002
}
1001
GENIUS_GENOBJ-N-HTC_13
1002
{
1000
OWNER
1000
GEN
1002
}
1001
GENIUS_GENHATCH_13
1002
{
1000
DATA
1040
90.0
1042
3.0
1000
_U
1070
     0
1011
292.8246481872664
1021
934.3863493537055
1031
0.0
1002
}
1002
{
1000
UCS
1010
0.0
1020
0.0
1030
0.0
1010
1.0
1020
0.0
1030
0.0
1010
0.0
1020
1.0
1030
0.0
1002
}
  0
LINE
  5
E1FA
330
37
100
AcDbEntity
  8
弱線
 48
0.5
100
AcDbLine
 10
296.8257106862384
 20
926.9974347851595
 30
0.0
 11
296.8257106862384
 21
940.4974347851595
 31
0.0
1001
GENIUS_GENODEF_13
1002
{
1000
HIER
1070
     0
1002
}
1002
{
1000
MANEDIT
1070
     0
1002
}
1002
{
1000
NOSEL
1070
     0
1002
}
1002
{
1000
BEHIND
1070
     0
1002
}
1002
{
1000
OTHER
1070
     0
1002
}
1002
{
1000
REACTOR
1002
}
1001
GENIUS_GENOBJ-N-HTC_13
1002
{
1000
OWNER
1000
GEN
1002
}
1001
GENIUS_GENHATCH_13
1002
{
1000
DATA
1040
90.0
1042
3.0
1000
_U
1070
     0
1011
292.8246481872664
1021
934.3863493537055
1031
0.0
1002
}
1002
{
1000
UCS
1010
0.0
1020
0.0
1030
0.0
1010
1.0
1020
0.0
1030
0.0
1010
0.0
1020
1.0
1030
0.0
1002
}
  0
LINE
  5
E1FB
330
37
100
AcDbEntity
  8
弱線
 48
0.5
100
AcDbLine
 10
299.8257106862384
 20
926.9974347851595
 30
0.0
 11
299.8257106862384
 21
940.4974347851595
 31
0.0
1001
GENIUS_GENODEF_13
1002
{
1000
HIER
1070
     0
1002
}
1002
{
1000
MANEDIT
1070
     0
1002
}
1002
{
1000
NOSEL
1070
     0
1002
}
1002
{
1000
BEHIND
1070
     0
1002
}
1002
{
1000
OTHER
1070
     0
1002
}
1002
{
1000
REACTOR
1002
}
1001
GENIUS_GENOBJ-N-HTC_13
1002
{
1000
OWNER
1000
GEN
1002
}
1001
GENIUS_GENHATCH_13
1002
{
1000
DATA
1040
90.0
1042
3.0
1000
_U
1070
     0
1011
292.8246481872664
1021
934.3863493537055
1031
0.0
1002
}
1002
{
1000
UCS
1010
0.0
1020
0.0
1030
0.0
1010
1.0
1020
0.0
1030
0.0
1010
0.0
1020
1.0
1030
0.0
1002
}
  0
LINE
  5
E1FC
330
37
100
AcDbEntity
  8
弱線
 48
0.5
100
AcDbLine
 10
302.8257106862384
 20
926.9974347851595
 30
0.0
 11
302.8257106862384
 21
940.4974347851595
 31
0.0
1001
GENIUS_GENODEF_13
1002
{
1000
HIER
1070
     0
1002
}
1002
{
1000
MANEDIT
1070
     0
1002
}
1002
{
1000
NOSEL
1070
     0
1002
}
1002
{
1000
BEHIND
1070
     0
1002
}
1002
{
1000
OTHER
1070
     0
1002
}
1002
{
1000
REACTOR
1002
}
1001
GENIUS_GENOBJ-N-HTC_13
1002
{
1000
OWNER
1000
GEN
1002
}
1001
GENIUS_GENHATCH_13
1002
{
1000
DATA
1040
90.0
1042
3.0
1000
_U
1070
     0
1011
292.8246481872664
1021
934.3863493537055
1031
0.0
1002
}
1002
{
1000
UCS
1010
0.0
1020
0.0
1030
0.0
1010
1.0
1020
0.0
1030
0.0
1010
0.0
1020
1.0
1030
0.0
1002
}
  0
LINE
  5
E1FD
330
37
100
AcDbEntity
  8
弱線
 48
0.5
100
AcDbLine
 10
305.8257106862384
 20
926.9974347851595
 30
0.0
 11
305.8257106862384
 21
940.4974347851595
 31
0.0
1001
GENIUS_GENODEF_13
1002
{
1000
HIER
1070
     0
1002
}
1002
{
1000
MANEDIT
1070
     0
1002
}
1002
{
1000
NOSEL
1070
     0
1002
}
1002
{
1000
BEHIND
1070
     0
1002
}
1002
{
1000
OTHER
1070
     0
1002
}
1002
{
1000
REACTOR
1002
}
1001
GENIUS_GENOBJ-N-HTC_13
1002
{
1000
OWNER
1000
GEN
1002
}
1001
GENIUS_GENHATCH_13
1002
{
1000
DATA
1040
90.0
1042
3.0
1000
_U
1070
     0
1011
292.8246481872664
1021
934.3863493537055
1031
0.0
1002
}
1002
{
1000
UCS
1010
0.0
1020
0.0
1030
0.0
1010
1.0
1020
0.0
1030
0.0
1010
0.0
1020
1.0
1030
0.0
1002
}
  0
LWPOLYLINE
  5
E1FE
330
37
100
AcDbEntity
  8
0
 48
0.5
100
AcDbPolyline
 90
        4
 70
     0
 43
0.0
 10
276.8257106862384
 20
941.2474347851595
 10
276.8257106862384
 20
941.7474347851596
 10
301.8257106862384
 20
941.7474347851596
 10
301.8257106862384
 20
941.2474347851601
  0
LWPOLYLINE
  5
E1FF
330
37
100
AcDbEntity
  8
弱線
 48
0.5
100
AcDbPolyline
 90
        2
 70
     0
 43
0.0
 10
272.3257106862384
 20
940.4974347851595
 10
306.3257106862384
 20
940.4974347851595
  0
LWPOLYLINE
  5
E200
330
37
100
AcDbEntity
  8
弱線
 48
0.5
100
AcDbPolyline
 90
        2
 70
     0
 43
0.0
 10
272.3257106862384
 20
926.9974347851595
 10
306.3257106862384
 20
926.9974347851595
  0
CIRCLE
  5
E201
330
37
100
AcDbEntity
  8
弱線
 48
0.5
100
AcDbCircle
 10
289.3257106862384
 20
884.4474347851599
 30
0.0
 40
11.0
  0
LWPOLYLINE
  5
E202
330
37
100
AcDbEntity
  8
0
100
AcDbPolyline
 90
        3
 70
     0
 43
0.0
 10
279.824488864642
 20
892.5700442117435
 10
279.5764140801803
 20
917.7297791805445
 42
0.201941003146583
 10
276.5766309631547
 20
923.7293457851595
  0
LINE
  5
E203
330
37
100
AcDbEntity
  8
弱線
100
AcDbLine
 10
276.1834825881185
 20
926.2474347851595
 30
0.0
 11
276.1834214241992
 21
924.504476637578
 31
0.0
  0
LINE
  5
E204
330
37
100
AcDbEntity
  8
弱線
100
AcDbLine
 10
276.5766309631547
 20
923.7293457851595
 30
0.0
 11
302.0747921818804
 21
923.7293473044957
 31
0.0
  0
LINE
  5
E205
330
37
100
AcDbEntity
  8
0
100
AcDbLine
 10
275.1767316862381
 20
926.2474347851595
 30
0.0
 11
275.1767316862381
 21
924.857269559498
 31
0.0
  0
LINE
  5
E206
330
37
100
AcDbEntity
  8
0
100
AcDbLine
 10
275.1767316862381
 20
924.857269559498
 30
0.0
 11
276.5766306862381
 21
924.366677036321
 31
0.0
  0
LINE
  5
E207
330
37
100
AcDbEntity
  8
0
100
AcDbLine
 10
276.5766306862381
 20
924.366677036321
 30
0.0
 11
276.5766309631547
 21
923.7293457851595
 31
0.0
  0
LINE
  5
E208
330
37
100
AcDbEntity
  8
0
100
AcDbLine
 10
302.0747921818804
 20
923.7293473044957
 30
0.0
 11
302.0742486862384
 21
924.366677036321
 31
0.0
  0
LINE
  5
E209
330
37
100
AcDbEntity
  8
0
100
AcDbLine
 10
302.0742486862384
 20
924.366677036321
 30
0.0
 11
303.4746886862383
 21
924.857269559498
 31
0.0
  0
LINE
  5
E20A
330
37
100
AcDbEntity
  8
0
100
AcDbLine
 10
303.4746886862383
 20
924.857269559498
 30
0.0
 11
303.4746886862383
 21
926.2474347851595
 31
0.0
  0
LINE
  5
E20B
330
37
100
AcDbEntity
  8
弱線
100
AcDbLine
 10
276.5766306862381
 20
924.366677036321
 30
0.0
 11
302.0742486862384
 21
924.366677036321
 31
0.0
  0
LINE
  5
E20C
330
37
100
AcDbEntity
  8
弱線
100
AcDbLine
 10
302.4679387843578
 20
926.2474347851595
 30
0.0
 11
302.4679999434823
 21
924.5046132726438
 31
0.0
  0
LWPOLYLINE
  5
E20D
330
37
100
AcDbEntity
  8
0
100
AcDbPolyline
 90
        3
 70
     0
 43
0.0
 10
298.8269342601825
 20
892.5700421619776
 10
299.0750090648548
 20
917.7297791805445
 42
-0.2019408768531908
 10
302.0747921818804
 20
923.7293473044957
  0
CIRCLE
  5
E20E
330
37
100
AcDbEntity
  8
弱線
 48
0.5
100
AcDbCircle
 10
289.3257106862384
 20
884.4474347851599
 30
0.0
 40
4.155952287035006
  0
LINE
  5
E210
330
37
100
AcDbEntity
  8
0
100
AcDbLine
 10
288.5257106862382
 20
630.8121754586236
 30
0.0
 11
288.5257106862382
 21
632.4153464586243
 31
0.0
  0
LINE
  5
E211
330
37
100
AcDbEntity
  8
0
100
AcDbLine
 10
290.1257106862386
 20
630.828419458624
 30
0.0
 11
290.1257106862386
 21
632.4153464586243
 31
0.0
  0
LINE
  5
E212
330
37
100
AcDbEntity
  8
0
100
AcDbLine
 10
288.5257106862382
 20
621.3706364586243
 30
0.0
 11
288.5257106862382
 21
622.9738074586228
 31
0.0
  0
LINE
  5
E213
330
37
100
AcDbEntity
  8
0
100
AcDbLine
 10
290.1257106862386
 20
621.3706364586243
 30
0.0
 11
290.1257106862386
 21
622.9738074586228
 31
0.0
  0
CIRCLE
  5
E214
330
37
100
AcDbEntity
  8
0
100
AcDbCircle
 10
289.3257106862384
 20
626.8929914586233
 30
0.0
 40
4.0
  0
CIRCLE
  5
E215
330
37
100
AcDbEntity
  8
0
100
AcDbCircle
 10
289.3257106862384
 20
626.8929914586233
 30
0.0
 40
5.58
  0
CIRCLE
  5
E216
330
37
100
AcDbEntity
  8
弱線
100
AcDbCircle
 10
289.3257106862384
 20
626.8929914586233
 30
0.0
 40
7.0
  0
LWPOLYLINE
  5
E217
330
37
100
AcDbEntity
  8
0
100
AcDbPolyline
 90
       12
 70
     0
 43
0.0
 10
295.0104981694203
 20
577.4002076365555
 42
0.1825704369676276
 10
297.2452673909627
 20
582.7132276558691
 10
298.0253733909624
 20
619.7227416558703
 42
-0.0857265540456006
 10
298.6753111346438
 20
623.0641647011648
 42
0.0910366057351916
 10
299.3274696862388
 20
626.6163274586242
 10
299.3257106862386
 20
638.3929909586231
 10
279.3257106862382
 20
638.3929909586231
 10
279.3274696862384
 20
626.6163274586242
 42
0.0910366057351916
 10
279.9796282378334
 20
623.0641647011648
 42
-0.0857265540456006
 10
280.6295659815148
 20
619.7227416558703
 10
281.4096719815145
 20
582.7132276558691
 42
0.1825704369676276
 10
283.6444412030569
 20
577.4002076365555
  0
LWPOLYLINE
  5
E218
330
37
100
AcDbEntity
  8
0
100
AcDbPolyline
 90
        9
 70
     0
 43
0.0
 10
281.4096719815145
 20
582.7132276558691
 42
-0.2267205279502641
 10
282.2914354688792
 20
584.3794205039357
 42
0.122934045893842
 10
284.3355149798133
 20
575.916269842864
 42
0.2792270949748338
 10
284.7786357458807
 20
575.647881558198
 10
289.3274696862387
 20
575.647881558198
 10
293.8763036265967
 20
575.647881558198
 42
0.2792270949748338
 10
294.3194243926639
 20
575.916269842864
 42
0.122934045893842
 10
296.363503903598
 20
584.3794205039357
 42
-0.2267205279502641
 10
297.2452673909627
 20
582.7132276558691
  0
LWPOLYLINE
  5
E219
330
37
100
AcDbEntity
  8
0
100
AcDbPolyline
 90
        3
 70
     0
 43
0.0
 10
294.1003939090683
 20
575.8053374163345
 42
0.1610810211060622
 10
289.3274696862387
 20
577.4009661831802
 42
0.1610810211060622
 10
284.5545454634089
 20
575.8053374163345
  0
LWPOLYLINE
  5
E21A
330
37
100
AcDbEntity
  8
0
100
AcDbPolyline
 90
        8
 70
     0
 43
0.0
 10
280.6730590728548
 20
648.8929909586237
 42
0.0800061372182903
 10
278.8257106862384
 20
646.3929909586231
 10
278.3257106862384
 20
646.0929909586239
 10
278.3257106862384
 20
638.3929909586231
 10
300.3257106862384
 20
638.3929909586231
 10
300.3257106862384
 20
646.0929909586239
 10
299.8257106862384
 20
646.3929909586231
 42
0.0802777583198434
 10
297.9810393532141
 20
648.8929909586237
  0
LINE
  5
E21B
330
37
100
AcDbEntity
  8
0
100
AcDbLine
 10
300.3257106862384
 20
646.0929909586239
 30
0.0
 11
278.3257106862384
 21
646.0929909586239
 31
0.0
  0
LINE
  5
E21C
330
37
100
AcDbEntity
  8
弱線
100
AcDbLine
 10
299.8257106862384
 20
646.3929909586235
 30
0.0
 11
278.8257106862384
 21
646.3929909586235
 31
0.0
  0
HATCH
  5
E21D
330
37
100
AcDbEntity
  8
弱線
 48
0.3
100
AcDbHatch
 10
0.0
 20
0.0
 30
0.0
210
0.0
220
0.0
230
1.0
  2
_U
 70
     0
 71
     0
 91
        1
 92
        1
 93
        4
 72
     1
 10
299.8257106862384
 20
638.3929909586231
 11
278.8257106862384
 21
638.3929909586231
 72
     1
 10
278.8257106862384
 20
638.3929909586231
 11
278.8257106862384
 21
646.0929909586233
 72
     1
 10
278.8257106862384
 20
646.0929909586239
 11
299.8257106862384
 21
646.0929909586239
 72
     1
 10
299.8257106862384
 20
646.0929909586239
 11
299.8257106862384
 21
638.3929909586234
 97
        0
 75
     0
 76
     0
 52
90.0
 41
2.5
 77
     0
 78
     1
 53
90.0
 43
-1265.804172968346
 44
-2236.232419163986
 45
-2.5
 46
0.0000000000000002
 79
     0
 98
        1
 10
1645.290259924143
 20
-1108.936299743496
1001
GENIUS_GENOBJ-N-HTC_13
1002
{
1000
OWNER
1000
GEN
1002
}
1001
GENIUS_GENODEF_13
1002
{
1000
HIER
1070
     0
1002
}
1002
{
1000
MANEDIT
1070
     0
1002
}
1002
{
1000
NOSEL
1070
     0
1002
}
1002
{
1000
BEHIND
1070
     0
1002
}
1002
{
1000
OTHER
1070
     0
1002
}
1002
{
1000
REACTOR
1002
}
1001
GENIUS_GENHATCH_13
1002
{
1000
DATA
1040
90.0
1042
-1.0
1000
_U
1070
     0
1011
287.3023174796381
1021
642.0901444303772
1031
0.0
1002
}
1002
{
1000
UCS
1010
0.0
1020
0.0
1030
0.0
1010
1.0
1020
0.0
1030
0.0
1010
0.0
1020
1.0
1030
0.0
1002
}
  0
LINE
  5
E21E
330
37
100
AcDbEntity
  8
0
100
AcDbLine
 10
279.8257106862384
 20
653.8929909586236
 30
0.0
 11
298.8257106862384
 21
653.8929909586236
 31
0.0
  0
LWPOLYLINE
  5
E21F
330
37
100
AcDbEntity
  8
0
100
AcDbPolyline
 90
       10
 70
     1
 43
0.0
 10
281.2498691194501
 20
654.8424299140982
 10
279.8257106862384
 20
653.8929909586236
 10
279.8257106862384
 20
648.8929909586237
 10
298.8257106862384
 20
648.8929909586237
 10
298.8257106862384
 20
653.8929909586236
 10
297.4015522530272
 20
654.8424299140982
 42
-0.2892456994447618
 10
296.0964677711709
 20
657.7674630850779
 10
298.4257106862383
 20
671.3929909586241
 10
280.2257106862385
 20
671.3929909586241
 10
282.5549536013059
 20
657.7674630850779
 42
-0.2892456994447619
  0
HATCH
  5
E220
330
37
100
AcDbEntity
  8
弱線
100
AcDbHatch
 10
0.0
 20
0.0
 30
0.0
210
0.0
220
0.0
230
1.0
  2
_U
 70
     0
 71
     0
 91
        1
 92
        1
 93
        4
 72
     1
 10
279.8257106862384
 20
653.8929909586236
 11
298.8257106862384
 21
653.8929909586236
 72
     1
 10
298.8257106862384
 20
653.8929909586236
 11
298.8257106862384
 21
648.8929909586237
 72
     1
 10
298.8257106862384
 20
648.8929909586237
 11
279.8257106862384
 21
648.8929909586237
 72
     1
 10
279.8257106862384
 20
648.8929909586237
 11
279.8257106862384
 21
653.8929909586236
 97
        0
 75
     0
 76
     0
 52
90.0
 41
2.5
 77
     0
 78
     1
 53
90.0
 43
-1265.804172968346
 44
-2235.932419163987
 45
-2.5
 46
0.0000000000000002
 79
     0
 98
        1
 10
482.4269667145133
 20
487.6303682385866
1001
GENIUS_GENOBJ-N-HTC_13
1002
{
1000
OWNER
1000
GEN
1002
}
1001
GENIUS_GENODEF_13
1002
{
1000
HIER
1070
     0
1002
}
1002
{
1000
MANEDIT
1070
     0
1002
}
1002
{
1000
NOSEL
1070
     0
1002
}
1002
{
1000
BEHIND
1070
     0
1002
}
1002
{
1000
OTHER
1070
     0
1002
}
1002
{
1000
REACTOR
1002
}
1001
GENIUS_GENHATCH_13
1002
{
1000
DATA
1040
90.0
1042
-1.0
1000
_U
1070
     0
1011
287.3399821259236
1021
652.859356437596
1031
0.0
1002
}
1002
{
1000
UCS
1010
0.0
1020
0.0
1030
0.0
1010
1.0
1020
0.0
1030
0.0
1010
0.0
1020
1.0
1030
0.0
1002
}
  0
ARC
  5
E221
330
37
100
AcDbEntity
  8
0
 48
0.5
100
AcDbCircle
 10
289.3257106862384
 20
626.8929914586233
 30
0.0
 40
14.14897900000028
100
AcDbArc
 50
134.9710207280744
 51
232.5138980864785
  0
ARC
  5
E222
330
37
100
AcDbEntity
  8
0
 48
0.5
100
AcDbCircle
 10
289.3257106862384
 20
626.8929914586233
 30
0.0
 40
14.14897900000028
100
AcDbArc
 50
307.5043526116774
 51
45.02643093493117
  0
LWPOLYLINE
  5
E223
330
37
100
AcDbEntity
  8
0
100
AcDbPolyline
 90
        6
 70
     0
 43
0.0
 10
300.3257106862384
 20
679.3929909586237
 10
294.9726695071677
 20
728.0570016773507
 42
0.3824764488947462
 10
293.4816629732759
 20
729.3929909586238
 10
285.1697583992009
 20
729.3929909586238
 42
0.3824764488947462
 10
283.6787518652968
 20
728.057001677344
 10
278.3257106862384
 20
679.3929909586237
  0
ARC
  5
E224
330
37
100
AcDbEntity
  8
0
100
AcDbCircle
 10
278.3257106862384
 20
677.8929909586237
 30
0.0
 40
1.5
100
AcDbArc
 50
90.0
 51
270.0
  0
ARC
  5
E225
330
37
100
AcDbEntity
  8
0
100
AcDbCircle
 10
300.3257106862384
 20
677.8929909586237
 30
0.0
 40
1.5
100
AcDbArc
 50
270.0
 51
90.0
  0
LWPOLYLINE
  5
E226
330
37
100
AcDbEntity
  8
0
100
AcDbPolyline
 90
        4
 70
     0
 43
0.0
 10
278.3257106862384
 20
676.3929909586241
 10
280.0757106862384
 20
671.3929909586241
 10
298.5757106862384
 20
671.3929909586241
 10
300.3257106862384
 20
676.3929909586241
  0
LINE
  5
E227
330
37
100
AcDbEntity
  8
0
100
AcDbLine
 10
300.3257106862384
 20
676.3929909586241
 30
0.0
 11
278.3257106862384
 21
676.3929909586241
 31
0.0
  0
LINE
  5
E228
330
37
100
AcDbEntity
  8
0
100
AcDbLine
 10
300.325710686253
 20
679.3929909586237
 30
0.0
 11
278.3257106862384
 21
679.3929909586237
 31
0.0
  0
ARC
  5
E22B
330
37
100
AcDbEntity
  8
0
100
AcDbCircle
 10
289.3257106862366
 20
626.8929914586233
 30
0.0
 40
17.0
100
AcDbArc
 50
300.1595887454836
 51
49.67978493002188
  0
ARC
  5
E22C
330
37
100
AcDbEntity
  8
0
100
AcDbCircle
 10
289.3257106862366
 20
626.8929914586233
 30
0.0
 40
17.0
100
AcDbArc
 50
130.3202150699597
 51
239.8542934968211
  0
ENDSEC
  0
SECTION
  2
OBJECTS
  0
DICTIONARY
  5
C
330
0
100
AcDbDictionary
281
     1
  3
ACAD_2007HEADERVARS_RT
350
EEE9
  3
ACAD_CIP_PREVIOUS_PRODUCT_INFO
350
C3CC
  3
ACAD_COLOR
350
30
  3
ACAD_DETAILVIEWSTYLE
350
C3BF
  3
ACAD_FIELDLIST
350
C421
  3
ACAD_GROUP
350
D
  3
ACAD_LAYOUT
350
2F
  3
ACAD_MATERIAL
350
10
  3
ACAD_MLEADERSTYLE
350
1757
  3
ACAD_MLINESTYLE
350
2C
  3
ACAD_PLOTSETTINGS
350
2E
  3
ACAD_PLOTSTYLENAME
350
E
  3
ACAD_SCALELIST
350
1735
  3
ACAD_SECTIONVIEWSTYLE
350
C3BD
  3
ACAD_TABLESTYLE
350
31
  3
ACAD_VISUALSTYLE
350
14
  3
ACDB_RECOMPOSE_DATA
350
EEE7
  3
AcDbVariableDictionary
350
454
  3
AcmDictionary
350
9F
  3
AEC_PROPERTY_SET_DEFS
350
ABE4
  3
AMG
350
42
  3
AMGSNAPSETTINGS
350
125
  3
ASE_INDEX_DICTIONARY
350
6FDD
  3
DWGPROPS
350
EEE8
  0
DICTIONARY
  5
104
330
2
100
AcDbDictionary
280
     1
281
     1
  3
ACAD_LAYERFILTERS
360
7FE1
  3
ACAD_LAYERSTATES
360
105
  3
ACLYDICTIONARY
360
7FE0
  3
AMLAYER_GROUPCOLORS
360
1956
  0
DICTIONARY
  5
2025
330
25
100
AcDbDictionary
280
     1
281
     1
  3
ADSK_XREC_LAYER_RECONCILED
360
730E
  0
DICTIONARY
  5
52A3
330
52A2
100
AcDbDictionary
280
     1
281
     1
  3
ADSK_XREC_LAYER_RECONCILED
360
730F
  0
DICTIONARY
  5
52A9
330
52A8
100
AcDbDictionary
280
     1
281
     1
  3
ADSK_XREC_LAYER_RECONCILED
360
7311
  0
DICTIONARY
  5
52AD
330
52AC
100
AcDbDictionary
280
     1
281
     1
  3
ADSK_XREC_LAYER_RECONCILED
360
7313
  0
DICTIONARY
  5
6356
330
5B8A
100
AcDbDictionary
280
     1
281
     1
  3
ADSK_XREC_LAYER_RECONCILED
360
7316
  0
DICTIONARY
  5
6339
330
6338
100
AcDbDictionary
280
     1
281
     1
  3
ADSK_XREC_LAYER_RECONCILED
360
731E
  0
DICTIONARY
  5
731F
330
6388
100
AcDbDictionary
280
     1
281
     1
  3
ADSK_XREC_LAYER_RECONCILED
360
7320
  0
DICTIONARY
  5
ADE3
330
ADE2
100
AcDbDictionary
280
     1
281
     1
  0
DICTIONARY
  5
4874
330
4873
100
AcDbDictionary
280
     1
281
     1
  3
ADSK_XREC_VTR_ANNOSCALE_DATA
360
4875
  3
ADSK_XREC_VTRVIEWINFO
360
4877
  0
DICTIONARY
  5
946
330
37
100
AcDbDictionary
280
     1
281
     1
  3
ACAD_SORTENTS
360
947
  0
DICTIONARY
  5
C801
330
C7D2
100
AcDbDictionary
280
     1
281
     1
  3
ACAD_SORTENTS
360
D189
  0
DICTIONARY
  5
DA65
330
D9CD
100
AcDbDictionary
280
     1
281
     1
  3
ACAD_SORTENTS
360
E9C9
  0
DICTIONARY
  5
EEE9
102
{ACAD_REACTORS
330
C
102
}
330
C
100
AcDbDictionary
281
     1
  3
DIMARCSYM
350
EEEA
  3
INTERFEREVPVS
350
EEEB
  0
XRECORD
  5
C3CC
102
{ACAD_REACTORS
330
C
102
}
330
C
100
AcDbXrecord
280
     1
300
AMECH_PP
300
2014
300
PDSP_F_S
  0
DICTIONARY
  5
30
102
{ACAD_REACTORS
330
C
102
}
330
C
100
AcDbDictionary
281
     1
  0
DICTIONARY
  5
C3BF
102
{ACAD_REACTORS
330
C
102
}
330
C
100
AcDbDictionary
281
     1
  3
Imperial24
350
C49F
  3
Metric50
350
C3C0
  0
FIELDLIST
  5
C421
102
{ACAD_REACTORS
330
C
102
}
330
C
100
AcDbIdSet
 90
        3
330
EEDB
330
EEDC
330
EEDD
100
AcDbFieldList
  0
DICTIONARY
  5
D
102
{ACAD_REACTORS
330
C
102
}
330
C
100
AcDbDictionary
281
     1
  0
DICTIONARY
  5
2F
102
{ACAD_REACTORS
330
C
102
}
330
C
100
AcDbDictionary
281
     1
  3
Model
350
3A
  3
レイアウト1
350
DFAE
  0
DICTIONARY
  5
10
102
{ACAD_REACTORS
330
C
102
}
330
C
100
AcDbDictionary
281
     1
  3
ByBlock
350
12
  3
ByLayer
350
11
  3
Global
350
13
  0
DICTIONARY
  5
1757
102
{ACAD_REACTORS
330
C
102
}
330
C
100
AcDbDictionary
281
     1
  3
Standard
350
1758
  0
DICTIONARY
  5
2C
102
{ACAD_REACTORS
330
C
102
}
330
C
100
AcDbDictionary
281
     1
  3
Standard
350
2D
  0
DICTIONARY
  5
2E
102
{ACAD_REACTORS
330
C
102
}
330
C
100
AcDbDictionary
281
     1
  3
PDF-A4
350
B739
  0
ACDBDICTIONARYWDFLT
  5
E
102
{ACAD_REACTORS
330
C
102
}
330
C
100
AcDbDictionary
281
     1
  3
Normal
350
F
100
AcDbDictionaryWithDefault
340
F
  0
DICTIONARY
  5
1735
102
{ACAD_REACTORS
330
C
102
}
330
C
100
AcDbDictionary
281
     1
  3
A0
350
5781
  3
A1
350
1736
  3
A2
350
523E
  3
A3
350
C3CF
  3
A4
350
C3D0
  3
A5
350
C3D1
  3
A6
350
C3D2
  3
A7
350
C3D3
  3
A8
350
C3D4
  3
A9
350
C3D5
  3
B0
350
C3D6
  3
B1
350
C3D7
  3
B2
350
C3D8
  3
B3
350
C3D9
  3
B4
350
C3DA
  3
B5
350
C3DB
  3
B6
350
C3DC
  3
B7
350
C3DD
  0
DICTIONARY
  5
C3BD
102
{ACAD_REACTORS
330
C
102
}
330
C
100
AcDbDictionary
281
     1
  3
Imperial24
350
C49D
  3
Metric50
350
C3BE
  0
DICTIONARY
  5
31
102
{ACAD_REACTORS
330
C
102
}
330
C
100
AcDbDictionary
281
     1
  3
Standard
350
32
  0
DICTIONARY
  5
14
102
{ACAD_REACTORS
330
C
102
}
330
C
100
AcDbDictionary
281
     1
  3
2dWireframe
350
1A
  3
3D Hidden
350
1C
  3
3dWireframe
350
1B
  3
Basic
350
19
  3
Brighten
350
20
  3
ColorChange
350
24
  3
Conceptual
350
1D
  3
Dim
350
1F
  3
EdgeColorOff
350
C3BC
  3
Facepattern
350
23
  3
Flat
350
15
  3
FlatWithEdges
350
16
  3
Gouraud
350
17
  3
GouraudWithEdges
350
18
  3
Hidden
350
C3B4
  3
JitterOff
350
C3BA
  3
Linepattern
350
22
  3
OverhangOff
350
C3BB
  3
Realistic
350
1E
  3
Shaded
350
C3B9
  3
Shaded with edges
350
C3B8
  3
Shades of Gray
350
C3B5
  3
Sketchy
350
C3B6
  3
Thicken
350
21
  3
Wireframe
350
C3B3
  3
X-Ray
350
C3B7
  0
XRECORD
  5
EEE7
102
{ACAD_REACTORS
330
C
102
}
330
C
100
AcDbXrecord
280
     1
 90
        1
330
32
  0
DICTIONARY
  5
454
102
{ACAD_REACTORS
330
C
102
}
330
C
100
AcDbDictionary
281
     1
  3
CANNOSCALE
350
177F
  3
CMLEADERSTYLE
350
177D
  3
CTABLESTYLE
350
455
  3
CVIEWDETAILSTYLE
350
C3FC
  3
CVIEWSECTIONSTYLE
350
C3FD
  3
DIMASSOC
350
E470
  3
HIDETEXT
350
E46E
  3
INDEXCTL
350
E46D
  3
LAYEREVAL
350
C3FE
  3
LAYERNOTIFY
350
C3FF
  3
LIGHTINGUNITS
350
1780
  3
MSLTSCALE
350
177E
  3
SOLIDHIST
350
E471
  3
SORTENTS
350
E46C
  3
XCLIPFRAME
350
EEE5
  0
DICTIONARY
  5
9F
102
{ACAD_REACTORS
330
C
102
}
330
C
100
AcDbDictionary
281
     1
  3
AcmStdDictionary
350
A1
  3
AMDTSECTSYM_ARROWCOLOR
350
C1
  0
DICTIONARY
  5
ABE4
102
{ACAD_REACTORS
330
C
102
}
330
C
100
AcDbDictionary
281
     1
  0
DICTIONARY
  5
42
102
{ACAD_REACTORS
330
C
102
}
330
C
100
AcDbDictionary
281
     1
  0
DICTIONARY
  5
125
102
{ACAD_REACTORS
330
C
102
}
330
C
100
AcDbDictionary
281
     1
  0
DICTIONARY
  5
6FDD
102
{ACAD_REACTORS
330
C
102
}
330
C
100
AcDbDictionary
281
     1
  3
ASEBlockHierarchyIndexRecord
350
6FDE
1001
DCO15
1040
1702823762.265
  0
XRECORD
  5
EEE8
102
{ACAD_REACTORS
330
C
102
}
330
C
100
AcDbXrecord
280
     1
  1
DWGPROPS COOKIE
  2

  3

  4

  6

  7

  8
HONPC031
  9

300
=
301
=
302
=
303
=
304
=
305
=
306
=
307
=
308
=
309
=
 40
1.177877534722222
 41
2455511.397581736
 42
2456669.451482998
  1

 90
        0
  0
DICTIONARY
  5
7FE1
102
{ACAD_REACTORS
330
104
102
}
330
104
100
AcDbDictionary
281
     1
  0
DICTIONARY
  5
105
102
{ACAD_REACTORS
330
104
102
}
330
104
100
AcDbDictionary
281
     1
  3
ACAD_VIEWS_セッティングイメージ
350
4878
  0
DICTIONARY
  5
7FE0
102
{ACAD_REACTORS
330
104
102
}
330
104
100
AcDbDictionary
281
     1
1001
ACAD
1000
<All
  0
DICTIONARY
  5
1956
102
{ACAD_REACTORS
330
104
102
}
330
104
100
AcDbDictionary
280
     1
281
     1
  0
XRECORD
  5
730E
102
{ACAD_REACTORS
330
2025
102
}
330
2025
100
AcDbXrecord
280
     1
290
     1
  0
XRECORD
  5
730F
102
{ACAD_REACTORS
330
52A3
102
}
330
52A3
100
AcDbXrecord
280
     1
290
     1
  0
XRECORD
  5
7311
102
{ACAD_REACTORS
330
52A9
102
}
330
52A9
100
AcDbXrecord
280
     1
290
     1
  0
XRECORD
  5
7313
102
{ACAD_REACTORS
330
52AD
102
}
330
52AD
100
AcDbXrecord
280
     1
290
     1
  0
XRECORD
  5
7316
102
{ACAD_REACTORS
330
6356
102
}
330
6356
100
AcDbXrecord
280
     1
290
     1
  0
XRECORD
  5
731E
102
{ACAD_REACTORS
330
6339
102
}
330
6339
100
AcDbXrecord
280
     1
290
     1
  0
XRECORD
  5
7320
102
{ACAD_REACTORS
330
731F
102
}
330
731F
100
AcDbXrecord
280
     1
290
     1
  0
XRECORD
  5
4875
102
{ACAD_REACTORS
330
4874
102
}
330
4874
100
AcDbXrecord
280
     1
340
1736
  0
XRECORD
  5
4877
102
{ACAD_REACTORS
330
4874
102
}
330
4874
100
AcDbXrecord
280
     1
300
<なし>
302
ACAD_VIEWS_セッティングイメージ
330
3A
294
     0
  0
SORTENTSTABLE
  5
947
102
{ACAD_REACTORS
330
946
102
}
330
946
100
AcDbSortentsTable
330
37
331
8F13
  5
9F5A
331
E1D7
  5
E144
331
E20E
  5
E187
331
E20A
  5
E183
331
8E23
  5
9F59
331
DFC5
  5
E163
331
DFC1
  5
E15F
331
8E1B
  5
9F57
331
E206
  5
E17F
331
E202
  5
E17B
331
E1FE
  5
E177
331
E1FA
  5
E173
331
DFBD
  5
E15B
331
8DF7
  5
9F53
331
DFB9
  5
E11D
331
8DF3
  5
9F4F
331
E1F6
  5
E16F
331
E1F2
  5
E16B
331
E1EE
  5
E167
331
E1EA
  5
E157
331
E225
  5
E135
331
DFB5
  5
E140
331
E221
  5
E131
331
E1E6
  5
E153
331
E1E2
  5
E14F
331
E21D
  5
E12D
331
E1DE
  5
E14B
331
E219
  5
E129
331
E215
  5
E125
331
E1DA
  5
E147
331
E211
  5
E121
331
8F16
  5
9FBE
331
8F12
  5
9FBD
331
E1D6
  5
E143
331
E20D
  5
E186
331
E209
  5
E182
331
DFC8
  5
E166
331
DFC4
  5
E162
331
DFC0
  5
E15E
331
8E1A
  5
9F56
331
E205
  5
E17E
331
E201
  5
E17A
331
E1FD
  5
E176
331
E1F9
  5
E172
331
DA69
  5
E267
331
8DF6
  5
9F52
331
8DF2
  5
9F4C
331
DFB8
  5
E11C
331
E1F5
  5
E16E
331
E1F1
  5
E16A
331
E22C
  5
E13E
331
E228
  5
E138
331
E1E9
  5
E156
331
E224
  5
E134
331
DFB4
  5
E13F
331
E220
  5
E130
331
77E6
  5
9F48
331
E1E5
  5
E152
331
E1E1
  5
E14E
331
E21C
  5
E12C
331
E1DD
  5
E14A
331
E218
  5
E128
331
E1D9
  5
E146
331
E214
  5
E124
331
E210
  5
E120
331
8F19
  5
9FBF
331
8F11
  5
9FBC
331
E1D5
  5
E142
331
E20C
  5
E185
331
E208
  5
E181
331
DFC7
  5
E165
331
DFC3
  5
E161
331
8E19
  5
9F55
331
E204
  5
E17D
331
E200
  5
E179
331
E1FC
  5
E175
331
E1F8
  5
E171
331
C805
  5
E24D
331
C869
  5
E24E
331
DFBF
  5
E15D
331
DFBB
  5
E11F
331
8DF5
  5
9F51
331
E1F4
  5
E16D
331
E1F0
  5
E169
331
E22B
  5
E13D
331
E227
  5
E137
331
E1EC
  5
E159
331
E1E8
  5
E155
331
E223
  5
E133
331
77F9
  5
9F4A
331
77E5
  5
9F47
331
E1E4
  5
E151
331
E21F
  5
E12F
331
E1E0
  5
E14D
331
E21B
  5
E12B
331
E1DC
  5
E149
331
E217
  5
E127
331
E1D8
  5
E145
331
E213
  5
E123
331
E20B
  5
E184
331
DFC6
  5
E164
331
DFC2
  5
E160
331
8E1C
  5
9F58
331
8E18
  5
9F54
331
E207
  5
E180
331
E203
  5
E17C
331
E1FF
  5
E178
331
E1FB
  5
E174
331
DFBE
  5
E15C
331
DFBA
  5
E11E
331
8DF4
  5
9F50
331
E1F7
  5
E170
331
E1F3
  5
E16C
331
E1EF
  5
E168
331
E226
  5
E136
331
DFB6
  5
E141
331
E1EB
  5
E158
331
E222
  5
E132
331
77F8
  5
9F49
331
77E4
  5
9F46
331
E1E7
  5
E154
331
E1E3
  5
E150
331
E21E
  5
E12E
331
E1DF
  5
E14C
331
E21A
  5
E12A
331
E216
  5
E126
331
E1DB
  5
E148
331
E212
  5
E122
  0
SORTENTSTABLE
  5
D189
102
{ACAD_REACTORS
330
C801
102
}
330
C801
100
AcDbSortentsTable
330
C7D2
  0
SORTENTSTABLE
  5
E9C9
102
{ACAD_REACTORS
330
DA65
102
}
330
DA65
100
AcDbSortentsTable
330
D9CD
  0
XRECORD
  5
EEEA
102
{ACAD_REACTORS
330
EEE9
102
}
330
EEE9
100
AcDbXrecord
280
     1
 70
     1
  0
XRECORD
  5
EEEB
102
{ACAD_REACTORS
330
EEE9
102
}
330
EEE9
100
AcDbXrecord
280
     1
340
1B
  0
ACDBDETAILVIEWSTYLE
  5
C49F
102
{ACAD_XDICTIONARY
360
EF2B
102
}
102
{ACAD_REACTORS
330
C3BF
330
EED4
102
}
330
C3BF
100
AcDbModelDocViewStyle
 70
     0
  3
Imperial24
290
     0
100
AcDbDetailViewStyle
 70
     0
 71
     0
 90
        3
 71
     1
340
26
 40
0.24
340
0
 40
0.24
300

 40
0.36
280
     3
 71
     2
340
2B
 90
       25
 71
     3
340
26
 40
0.24
 90
        1
 40
0.75
 90
        1
300
%<\AcVar ViewType \f "%tc1">% %<\AcVar ViewDetailId>%\PSCALE %<\AcVar ViewScale \f "%sn">%
 71
     4
340
2B
 90
       25
340
2B
 90
       25
280
     0
  0
ACDBDETAILVIEWSTYLE
  5
C3C0
102
{ACAD_XDICTIONARY
360
EF27
102
}
102
{ACAD_REACTORS
330
C3BF
330
EED5
102
}
330
C3BF
100
AcDbModelDocViewStyle
 70
     0
  3
Metric50
290
     0
100
AcDbDetailViewStyle
 70
     0
 71
     0
 90
        3
 71
     1
340
26
 40
5.0
340
0
 40
5.0
300

 40
0.0
280
     1
 71
     2
340
2B
 90
       25
 71
     3
340
26
 40
5.0
 90
        0
 40
15.0
 90
        1
300
%<\AcVar ViewDetailId>% (%<\AcVar ViewScale \f "%sn">%)
 71
     4
340
2B
 90
       25
340
2B
 90
       25
280
     0
  0
LAYOUT
  5
3A
102
{ACAD_XDICTIONARY
360
EF0D
102
}
102
{ACAD_REACTORS
330
2F
102
}
330
2F
100
AcDbPlotSettings
  1

  2
\\CAD02\Canon LBP5700 LIPS
  4
A4
  6

 40
5.873749732971191
 41
5.873747825622557
 42
5.873748779296875
 43
5.873748779296875
 44
209.9733276367186
 45
296.9259948730469
 46
0.0
 47
0.0
 48
0.0
 49
0.0
140
0.0
141
0.0
142
1.0
143
7.186075887391405
 70
 11952
 72
     1
 73
     1
 74
     0
  7
monochrome.ctb
 75
     0
147
0.1391580071892348
148
773.4815346900619
149
-884.4699293230366
100
AcDbLayout
  1
Model
 70
     1
 71
     0
 10
0.0
 20
0.0
 11
12.0
 21
9.0
 12
0.0
 22
0.0
 32
0.0
 14
0.0
 24
0.0
 34
0.0
 15
0.0
 25
0.0
 35
0.0
146
0.0
 13
0.0
 23
0.0
 33
0.0
 16
1.0
 26
0.0
 36
0.0
 17
0.0
 27
1.0
 37
0.0
 76
     0
330
37
331
28
1001
ACAD_PSEXT
1000
\\CAD02\Canon LBP5700 LIPS
1000
Canon LBP5700 LIPS
1000
\\CAD02
1000

1070
     0
  0
LAYOUT
  5
DFAE
102
{ACAD_XDICTIONARY
360
EF2D
102
}
102
{ACAD_REACTORS
330
2F
102
}
330
2F
100
AcDbPlotSettings
  1

  2
EPSON EP-802A
  4

  6

 40
0.0
 41
0.0
 42
0.0
 43
0.0
 44
0.0
 45
0.0
 46
0.0
 47
0.0
 48
0.0
 49
0.0
140
0.0
141
0.0
142
1.0
143
1.0
 70
   688
 72
     0
 73
     0
 74
     5
  7

 75
    16
147
1.0
148
0.0
149
0.0
100
AcDbLayout
  1
レイアウト1
 70
     1
 71
     1
 10
0.0
 20
0.0
 11
12.0
 21
9.0
 12
0.0
 22
0.0
 32
0.0
 14
0.0
 24
0.0
 34
0.0
 15
0.0
 25
0.0
 35
0.0
146
0.0
 13
0.0
 23
0.0
 33
0.0
 16
1.0
 26
0.0
 36
0.0
 17
0.0
 27
1.0
 37
0.0
 76
     0
330
DFAD
  0
MATERIAL
  5
12
102
{ACAD_XDICTIONARY
360
E481
102
}
102
{ACAD_REACTORS
330
10
102
}
330
10
100
AcDbMaterial
  1
ByBlock
 73
     1
 78
     1
172
     1
176
     1
270
     1
274
     1
  0
MATERIAL
  5
11
102
{ACAD_XDICTIONARY
360
E47F
102
}
102
{ACAD_REACTORS
330
10
102
}
330
10
100
AcDbMaterial
  1
ByLayer
 73
     1
 78
     1
172
     1
176
     1
270
     1
274
     1
  0
MATERIAL
  5
13
102
{ACAD_XDICTIONARY
360
E483
102
}
102
{ACAD_REACTORS
330
10
102
}
330
10
100
AcDbMaterial
  1
Global
 73
     1
 78
     1
172
     1
176
     1
270
     1
274
     1
  0
MLEADERSTYLE
  5
1758
102
{ACAD_REACTORS
330
1757
102
}
330
1757
100
AcDbMLeaderStyle
170
     2
171
     1
172
     0
 90
        2
 40
0.0
 41
0.0
173
     1
 91
-1056964608
340
29
 92
       -2
290
     1
 42
2.0
291
     1
 43
0.36
  3
Standard
 44
4.0
300

342
26
174
     1
178
     6
175
     1
176
     0
 93
-1056964608
 45
4.0
292
     0
297
     0
 46
4.0
 94
-1056964608
 47
1.0
 49
1.0
140
1.0
293
     1
141
0.0
294
     1
177
     0
142
1.0
295
     0
296
     0
143
0.125
1001
ACAD_MLEADERVER
1070
     2
  0
MLINESTYLE
  5
2D
102
{ACAD_REACTORS
330
2C
102
}
330
2C
100
AcDbMlineStyle
  2
STANDARD
 70
     0
  3

 62
   256
 51
90.0
 52
90.0
 71
     2
 49
0.5
 62
   256
  6
BYLAYER
 49
-0.5
 62
   256
  6
BYLAYER
  0
PLOTSETTINGS
  5
B739
102
{ACAD_XDICTIONARY
360
EF0F
102
}
102
{ACAD_REACTORS
330
2E
102
}
330
2E
100
AcDbPlotSettings
  1
PDF-A4
  2
Adobe PDF
  4
A4
  6

 40
3.174999952316281
 41
3.174999952316281
 42
3.175003051757812
 43
3.17498779296875
 44
209.9098358154297
 45
297.0318298339844
 46
2.5
 47
2.5
 48
0.0
 49
0.0
140
0.0
141
0.0
142
1.0
143
1.0
 70
  2736
 72
     1
 73
     0
 74
     5
  7
monochrome.ctb
 75
    16
147
1.0
148
0.0
149
0.0
1001
ACAD_PSEXT
1000
Adobe PDF
1000
Adobe PDF Converter
1000
My Documents
1000
Adobe PDF の作成
1070
     0
  0
ACDBPLACEHOLDER
  5
F
102
{ACAD_REACTORS
330
E
102
}
330
E
  0
SCALE
  5
5781
102
{ACAD_REACTORS
330
1735
102
}
330
1735
100
AcDbScale
 70
     0
300
1:7
140
1.0
141
7.0
290
     0
  0
SCALE
  5
1736
102
{ACAD_REACTORS
330
1735
102
}
330
1735
100
AcDbScale
 70
     0
300
1:1
140
1.0
141
1.0
290
     1
  0
SCALE
  5
523E
102
{ACAD_REACTORS
330
1735
102
}
330
1735
100
AcDbScale
 70
     0
300
1:5
140
1.0
141
5.0
290
     0
  0
SCALE
  5
C3CF
102
{ACAD_REACTORS
330
1735
102
}
330
1735
100
AcDbScale
 70
     0
300
1:2
140
1.0
141
2.0
290
     0
  0
SCALE
  5
C3D0
102
{ACAD_REACTORS
330
1735
102
}
330
1735
100
AcDbScale
 70
     0
300
1:4
140
1.0
141
4.0
290
     0
  0
SCALE
  5
C3D1
102
{ACAD_REACTORS
330
1735
102
}
330
1735
100
AcDbScale
 70
     0
300
1:8
140
1.0
141
8.0
290
     0
  0
SCALE
  5
C3D2
102
{ACAD_REACTORS
330
1735
102
}
330
1735
100
AcDbScale
 70
     0
300
1:10
140
1.0
141
10.0
290
     0
  0
SCALE
  5
C3D3
102
{ACAD_REACTORS
330
1735
102
}
330
1735
100
AcDbScale
 70
     0
300
1:16
140
1.0
141
16.0
290
     0
  0
SCALE
  5
C3D4
102
{ACAD_REACTORS
330
1735
102
}
330
1735
100
AcDbScale
 70
     0
300
1:20
140
1.0
141
20.0
290
     0
  0
SCALE
  5
C3D5
102
{ACAD_REACTORS
330
1735
102
}
330
1735
100
AcDbScale
 70
     0
300
1:30
140
1.0
141
30.0
290
     0
  0
SCALE
  5
C3D6
102
{ACAD_REACTORS
330
1735
102
}
330
1735
100
AcDbScale
 70
     0
300
1:40
140
1.0
141
40.0
290
     0
  0
SCALE
  5
C3D7
102
{ACAD_REACTORS
330
1735
102
}
330
1735
100
AcDbScale
 70
     0
300
1:50
140
1.0
141
50.0
290
     0
  0
SCALE
  5
C3D8
102
{ACAD_REACTORS
330
1735
102
}
330
1735
100
AcDbScale
 70
     0
300
1:100
140
1.0
141
100.0
290
     0
  0
SCALE
  5
C3D9
102
{ACAD_REACTORS
330
1735
102
}
330
1735
100
AcDbScale
 70
     0
300
2:1
140
2.0
141
1.0
290
     0
  0
SCALE
  5
C3DA
102
{ACAD_REACTORS
330
1735
102
}
330
1735
100
AcDbScale
 70
     0
300
4:1
140
4.0
141
1.0
290
     0
  0
SCALE
  5
C3DB
102
{ACAD_REACTORS
330
1735
102
}
330
1735
100
AcDbScale
 70
     0
300
8:1
140
8.0
141
1.0
290
     0
  0
SCALE
  5
C3DC
102
{ACAD_REACTORS
330
1735
102
}
330
1735
100
AcDbScale
 70
     0
300
10:1
140
10.0
141
1.0
290
     0
  0
SCALE
  5
C3DD
102
{ACAD_REACTORS
330
1735
102
}
330
1735
100
AcDbScale
 70
     0
300
100:1
140
100.0
141
1.0
290
     0
  0
ACDBSECTIONVIEWSTYLE
  5
C49D
102
{ACAD_XDICTIONARY
360
EF29
102
}
102
{ACAD_REACTORS
330
C3BD
330
EED2
102
}
330
C3BD
100
AcDbModelDocViewStyle
 70
     0
  3
Imperial24
290
     0
100
AcDbSectionViewStyle
 70
     0
 71
     0
 90
       78
 71
     1
340
26
 40
0.24
340
0
340
0
 40
0.24
300
I, O, Q, S, X, Z
 40
0.48
 90
        3
 40
0.18
 90
        1
 71
     2
340
2B
 90
       25
340
2B
 90
       50
 40
0.24
 40
0.0
 40
0.24
 71
     3
340
26
 40
0.24
 90
        1
 40
0.75
 90
        1
300
%<\AcVar ViewType \f "%tc1">% %<\AcVar ViewSectionStartId>%-%<\AcVar ViewSectionEndId>%\PSCALE %<\AcVar ViewScale \f "%sn">%
 71
     4
300
ANSI31
 40
1.0
 90
        0
290
     0
290
     0
 90
        6
 40
0.0
 40
1.570796326794896
 40
0.2617993877991494
 40
1.308996938995747
 40
-0.2617993877991494
 40
1.832595714594044
  0
ACDBSECTIONVIEWSTYLE
  5
C3BE
102
{ACAD_XDICTIONARY
360
EF25
102
}
102
{ACAD_REACTORS
330
C3BD
330
EED3
102
}
330
C3BD
100
AcDbModelDocViewStyle
 70
     0
  3
Metric50
290
     0
100
AcDbSectionViewStyle
 70
     0
 71
     0
 90
      102
 71
     1
340
26
 40
5.0
340
0
340
0
 40
5.0
300
I, O, Q, S, X, Z
 40
10.0
 90
        0
 40
2.5
 90
        0
 71
     2
340
2B
 90
       25
340
2B
 90
       50
 40
5.0
 40
2.5
 40
5.0
 71
     3
340
26
 40
5.0
 90
        0
 40
15.0
 90
        1
300
%<\AcVar ViewSectionStartId>%-%<\AcVar ViewSectionEndId>% (%<\AcVar ViewScale \f "%sn">%)
 71
     4
300
ANSI31
 40
1.0
 90
        0
290
     0
290
     0
 90
        6
 40
0.0
 40
1.570796326794896
 40
0.2617993877991494
 40
1.308996938995747
 40
-0.2617993877991494
 40
1.832595714594044
  0
TABLESTYLE
  5
32
102
{ACAD_XDICTIONARY
360
177A
102
}
102
{ACAD_REACTORS
330
31
102
}
330
31
100
AcDbTableStyle
  3
Standard
 70
     0
 71
     0
 40
1.5
 41
1.5
280
     0
281
     0
  7
STANDARD
140
4.5
170
     2
 62
     0
 63
     7
283
     0
274
    -2
284
     1
 64
     0
275
    -2
285
     1
 65
     0
276
    -2
286
     1
 66
     0
277
    -2
287
     1
 67
     0
278
    -2
288
     1
 68
     0
279
    -2
289
     1
 69
     0
  7
STANDARD
140
6.0
170
     5
 62
     0
 63
     7
283
     0
274
    -2
284
     1
 64
     0
275
    -2
285
     1
 65
     0
276
    -2
286
     1
 66
     0
277
    -2
287
     1
 67
     0
278
    -2
288
     1
 68
     0
279
    -2
289
     1
 69
     0
  7
STANDARD
140
4.5
170
     5
 62
     0
 63
     7
283
     0
274
    -2
284
     1
 64
     0
275
    -2
285
     1
 65
     0
276
    -2
286
     1
 66
     0
277
    -2
287
     1
 67
     0
278
    -2
288
     1
 68
     0
279
    -2
289
     1
 69
     0
  0
VISUALSTYLE
  5
1A
102
{ACAD_XDICTIONARY
360
EEF6
102
}
102
{ACAD_REACTORS
330
14
102
}
330
14
100
AcDbVisualStyle
  2

 70
     4
 71
     0
 72
     2
 73
     0
 90
        0
 40
-0.6
 41
-30.0
 62
     5
 63
     7
 74
     1
 91
        4
 64
     7
 65
   257
 75
     1
175
     1
 42
1.0
 92
        0
 66
   257
 43
1.0
 76
     1
 77
     6
 78
     2
 67
     7
 79
     5
170
     0
171
     0
290
     0
174
     0
 93
        1
 44
0.0
173
     0
291
     0
 45
0.0
1001
ACAD
1000
AcDbSavedByObjectVersion
1070
     0
  0
VISUALSTYLE
  5
1C
102
{ACAD_XDICTIONARY
360
EEFA
102
}
102
{ACAD_REACTORS
330
14
102
}
330
14
100
AcDbVisualStyle
  2

 70
     6
 71
     1
 72
     2
 73
     2
 90
        0
 40
-0.6
 41
-30.0
 62
     5
 63
     7
 74
     2
 91
        2
 64
     7
 65
   257
 75
     2
175
     1
 42
40.0
 92
        0
 66
   257
 43
1.0
 76
     1
 77
     6
 78
     2
 67
     7
 79
     3
170
     0
171
     0
290
     0
174
     0
 93
        1
 44
0.0
173
     0
291
     0
 45
0.0
1001
ACAD
1000
AcDbSavedByObjectVersion
1070
     0
  0
VISUALSTYLE
  5
1B
102
{ACAD_XDICTIONARY
360
EEF8
102
}
102
{ACAD_REACTORS
330
14
102
}
330
14
100
AcDbVisualStyle
  2

 70
     5
 71
     0
 72
     2
 73
     0
 90
        0
 40
-0.6
 41
-30.0
 62
     5
 63
     7
 74
     1
 91
        4
 64
     7
 65
   257
 75
     1
175
     1
 42
1.0
 92
        0
 66
   257
 43
1.0
 76
     1
 77
     6
 78
     2
 67
     7
 79
     5
170
     0
171
     0
290
     0
174
     0
 93
        1
 44
0.0
173
     0
291
     0
 45
0.0
1001
ACAD
1000
AcDbSavedByObjectVersion
1070
     0
  0
VISUALSTYLE
  5
19
102
{ACAD_XDICTIONARY
360
EEF4
102
}
102
{ACAD_REACTORS
330
14
102
}
330
14
100
AcDbVisualStyle
  2

 70
     7
 71
     1
 72
     0
 73
     1
 90
        0
 40
-0.6
 41
-30.0
 62
     5
 63
     7
 74
     0
 91
        4
 64
     7
 65
   257
 75
     1
175
     1
 42
1.0
 92
        8
 66
     7
 43
1.0
 76
     1
 77
     6
 78
     2
 67
     7
 79
     5
170
     0
171
     0
290
     0
174
     0
 93
        1
 44
0.0
173
     0
291
     1
 45
0.0
1001
ACAD
1000
AcDbSavedByObjectVersion
1070
     0
  0
VISUALSTYLE
  5
20
102
{ACAD_XDICTIONARY
360
EF02
102
}
102
{ACAD_REACTORS
330
14
102
}
330
14
100
AcDbVisualStyle
  2

 70
    12
 71
     2
 72
     2
 73
     0
 90
        0
 40
-0.6
 41
-30.0
 62
     5
 63
     7
 74
     1
 91
        4
 64
     7
 65
   257
 75
     1
175
     1
 42
1.0
 92
        8
 66
     7
 43
1.0
 76
     1
 77
     6
 78
     2
 67
     7
 79
     5
170
     0
171
     0
290
     0
174
     0
 93
        1
 44
50.0
173
     0
291
     1
 45
0.0
1001
ACAD
1000
AcDbSavedByObjectVersion
1070
     0
  0
VISUALSTYLE
  5
24
102
{ACAD_XDICTIONARY
360
EF0A
102
}
102
{ACAD_REACTORS
330
14
102
}
330
14
100
AcDbVisualStyle
  2

 70
    16
 71
     2
 72
     2
 73
     3
 90
        0
 40
-0.6
 41
-30.0
 62
     5
 63
     8
 74
     1
 91
        4
 64
     7
 65
   257
 75
     1
175
     1
 42
1.0
 92
        8
 66
     8
 43
1.0
 76
     1
 77
     6
 78
     2
 67
     7
 79
     5
170
     0
171
     0
290
     0
174
     0
 93
        1
 44
0.0
173
     0
291
     1
 45
0.0
1001
ACAD
1000
AcDbSavedByObjectVersion
1070
     0
  0
VISUALSTYLE
  5
1D
102
{ACAD_XDICTIONARY
360
EEFC
102
}
102
{ACAD_REACTORS
330
14
102
}
330
14
100
AcDbVisualStyle
  2

 70
     9
 71
     3
 72
     2
 73
     0
 90
        0
 40
-0.6
 41
-30.0
 62
     5
 63
     7
 74
     2
 91
        2
 64
     7
 65
   257
 75
     1
175
     1
 42
40.0
 92
        8
 66
     7
 43
1.0
 76
     1
 77
     6
 78
     2
 67
     7
 79
     3
170
     0
171
     0
290
     0
174
     0
 93
        1
 44
0.0
173
     0
291
     0
 45
0.0
1001
ACAD
1000
AcDbSavedByObjectVersion
1070
     0
  0
VISUALSTYLE
  5
1F
102
{ACAD_XDICTIONARY
360
EF00
102
}
102
{ACAD_REACTORS
330
14
102
}
330
14
100
AcDbVisualStyle
  2

 70
    11
 71
     2
 72
     2
 73
     0
 90
        0
 40
-0.6
 41
-30.0
 62
     5
 63
     7
 74
     1
 91
        4
 64
     7
 65
   257
 75
     1
175
     1
 42
1.0
 92
        8
 66
     7
 43
1.0
 76
     1
 77
     6
 78
     2
 67
     7
 79
     5
170
     0
171
     0
290
     0
174
     0
 93
        1
 44
-50.0
173
     0
291
     1
 45
0.0
1001
ACAD
1000
AcDbSavedByObjectVersion
1070
     0
  0
VISUALSTYLE
  5
C3BC
102
{ACAD_XDICTIONARY
360
EF23
102
}
102
{ACAD_REACTORS
330
14
102
}
330
14
100
AcDbVisualStyle
  2

 70
    22
 71
     2
 72
     2
 73
     0
 90
        0
 40
-0.6
 41
-30.0
 62
     5
 63
     7
 74
     1
 91
        4
 64
     7
 65
   257
 75
     1
175
     1
 42
1.0
 92
        8
 66
     7
 43
1.0
 76
     1
 77
     6
 78
     2
 67
     7
 79
     5
170
     0
171
     0
290
     0
174
     0
 93
        1
 44
0.0
173
     0
291
     1
 45
0.0
1001
ACAD
1000
AcDbSavedByObjectVersion
1070
     0
  0
VISUALSTYLE
  5
23
102
{ACAD_XDICTIONARY
360
EF08
102
}
102
{ACAD_REACTORS
330
14
102
}
330
14
100
AcDbVisualStyle
  2

 70
    15
 71
     2
 72
     2
 73
     0
 90
        0
 40
-0.6
 41
-30.0
 62
     5
 63
     7
 74
     1
 91
        4
 64
     7
 65
   257
 75
     1
175
     1
 42
1.0
 92
        8
 66
     7
 43
1.0
 76
     1
 77
     6
 78
     2
 67
     7
 79
     5
170
     0
171
     0
290
     0
174
     0
 93
        1
 44
0.0
173
     0
291
     1
 45
0.0
1001
ACAD
1000
AcDbSavedByObjectVersion
1070
     0
  0
VISUALSTYLE
  5
15
102
{ACAD_XDICTIONARY
360
EEEC
102
}
102
{ACAD_REACTORS
330
14
102
}
330
14
100
AcDbVisualStyle
  2

 70
     0
 71
     2
 72
     1
 73
     1
 90
        2
 40
-0.6
 41
30.0
 62
     5
 63
     7
 74
     0
 91
        4
 64
     7
 65
   257
 75
     1
175
     1
 42
1.0
 92
        8
 66
     7
 43
1.0
 76
     1
 77
     6
 78
     2
 67
     7
 79
     5
170
     0
171
     0
290
     0
174
     0
 93
       13
 44
0.0
173
     0
291
     1
 45
0.0
1001
ACAD
1000
AcDbSavedByObjectVersion
1070
     0
  0
VISUALSTYLE
  5
16
102
{ACAD_XDICTIONARY
360
EEEE
102
}
102
{ACAD_REACTORS
330
14
102
}
330
14
100
AcDbVisualStyle
  2

 70
     1
 71
     2
 72
     1
 73
     1
 90
        2
 40
-0.6
 41
30.0
 62
     5
 63
     7
 74
     1
 91
        4
 64
     7
 65
   257
 75
     1
175
     1
 42
1.0
 92
        0
 66
   257
 43
1.0
 76
     1
 77
     6
 78
     2
 67
     7
 79
     5
170
     0
171
     0
290
     0
174
     0
 93
       13
 44
0.0
173
     0
291
     1
 45
0.0
1001
ACAD
1000
AcDbSavedByObjectVersion
1070
     0
  0
VISUALSTYLE
  5
17
102
{ACAD_XDICTIONARY
360
EEF0
102
}
102
{ACAD_REACTORS
330
14
102
}
330
14
100
AcDbVisualStyle
  2

 70
     2
 71
     2
 72
     2
 73
     1
 90
        2
 40
-0.6
 41
30.0
 62
     5
 63
     7
 74
     0
 91
        4
 64
     7
 65
   257
 75
     1
175
     1
 42
1.0
 92
        0
 66
     7
 43
1.0
 76
     1
 77
     6
 78
     2
 67
     7
 79
     5
170
     0
171
     0
290
     0
174
     0
 93
       13
 44
0.0
173
     0
291
     1
 45
0.0
1001
ACAD
1000
AcDbSavedByObjectVersion
1070
     0
  0
VISUALSTYLE
  5
18
102
{ACAD_XDICTIONARY
360
EEF2
102
}
102
{ACAD_REACTORS
330
14
102
}
330
14
100
AcDbVisualStyle
  2

 70
     3
 71
     2
 72
     2
 73
     1
 90
        2
 40
-0.6
 41
30.0
 62
     5
 63
     7
 74
     1
 91
        4
 64
     7
 65
   257
 75
     1
175
     1
 42
1.0
 92
        0
 66
   257
 43
1.0
 76
     1
 77
     6
 78
     2
 67
     7
 79
     5
170
     0
171
     0
290
     0
174
     0
 93
       13
 44
0.0
173
     0
291
     1
 45
0.0
1001
ACAD
1000
AcDbSavedByObjectVersion
1070
     0
  0
VISUALSTYLE
  5
C3B4
102
{ACAD_XDICTIONARY
360
EF13
102
}
102
{ACAD_REACTORS
330
14
102
}
330
14
100
AcDbVisualStyle
  2

 70
     6
 71
     1
 72
     2
 73
     2
 90
        0
 40
-0.6
 41
-30.0
 62
     5
 63
     7
 74
     2
 91
        2
 64
     7
 65
   257
 75
     2
175
     1
 42
40.0
 92
        0
 66
   257
 43
1.0
 76
     1
 77
     6
 78
     2
 67
     7
 79
     3
170
     0
171
     0
290
     0
174
     0
 93
        1
 44
0.0
173
     0
291
     0
 45
0.0
1001
ACAD
1000
AcDbSavedByObjectVersion
1070
     0
  0
VISUALSTYLE
  5
C3BA
102
{ACAD_XDICTIONARY
360
EF1F
102
}
102
{ACAD_REACTORS
330
14
102
}
330
14
100
AcDbVisualStyle
  2

 70
    20
 71
     2
 72
     2
 73
     0
 90
        0
 40
-0.6
 41
-30.0
 62
     5
 63
     7
 74
     1
 91
        4
 64
     7
 65
   257
 75
     1
175
     1
 42
1.0
 92
       10
 66
     7
 43
1.0
 76
     1
 77
     6
 78
     2
 67
     7
 79
     5
170
     0
171
     0
290
     0
174
     0
 93
        1
 44
0.0
173
     0
291
     1
 45
0.0
1001
ACAD
1000
AcDbSavedByObjectVersion
1070
     0
  0
VISUALSTYLE
  5
22
102
{ACAD_XDICTIONARY
360
EF06
102
}
102
{ACAD_REACTORS
330
14
102
}
330
14
100
AcDbVisualStyle
  2

 70
    14
 71
     2
 72
     2
 73
     0
 90
        0
 40
-0.6
 41
-30.0
 62
     5
 63
     7
 74
     1
 91
        4
 64
     7
 65
   257
 75
     7
175
     7
 42
1.0
 92
        8
 66
     7
 43
1.0
 76
     1
 77
     6
 78
     2
 67
     7
 79
     5
170
     0
171
     0
290
     0
174
     0
 93
        1
 44
0.0
173
     0
291
     1
 45
0.0
1001
ACAD
1000
AcDbSavedByObjectVersion
1070
     0
  0
VISUALSTYLE
  5
C3BB
102
{ACAD_XDICTIONARY
360
EF21
102
}
102
{ACAD_REACTORS
330
14
102
}
330
14
100
AcDbVisualStyle
  2

 70
    21
 71
     2
 72
     2
 73
     0
 90
        0
 40
-0.6
 41
-30.0
 62
     5
 63
     7
 74
     1
 91
        4
 64
     7
 65
   257
 75
     1
175
     1
 42
1.0
 92
        9
 66
     7
 43
1.0
 76
     1
 77
     6
 78
     2
 67
     7
 79
     5
170
     0
171
     0
290
     0
174
     0
 93
        1
 44
0.0
173
     0
291
     1
 45
0.0
1001
ACAD
1000
AcDbSavedByObjectVersion
1070
     0
  0
VISUALSTYLE
  5
1E
102
{ACAD_XDICTIONARY
360
EEFE
102
}
102
{ACAD_REACTORS
330
14
102
}
330
14
100
AcDbVisualStyle
  2

 70
     8
 71
     2
 72
     2
 73
     0
 90
        0
 40
-0.6
 41
-30.0
 62
     5
 63
     7
 74
     1
 91
        0
 64
     7
 65
   257
 75
     1
175
     1
 42
1.0
 92
        8
 66
     8
 43
1.0
 76
     1
 77
     6
 78
     2
 67
     7
 79
     5
170
     0
171
     0
290
     0
174
     0
 93
       13
 44
0.0
173
     0
291
     0
 45
0.0
1001
ACAD
1000
AcDbSavedByObjectVersion
1070
     0
  0
VISUALSTYLE
  5
C3B9
102
{ACAD_XDICTIONARY
360
EF1D
102
}
102
{ACAD_REACTORS
330
14
102
}
330
14
100
AcDbVisualStyle
  2

 70
    27
 71
     2
 72
     2
 73
     1
 90
        2
 40
-0.6
 41
30.0
 62
     5
 63
     7
 74
     0
 91
        4
 64
     7
 65
   257
 75
     1
175
     1
 42
1.0
 92
        8
 66
   257
 43
1.0
 76
     1
 77
     6
 78
     2
 67
     8
 79
     3
170
     0
171
     0
290
     0
174
     0
 93
        5
 44
0.0
173
     0
291
     0
 45
0.0
1001
ACAD
1000
AcDbSavedByObjectVersion
1070
     0
  0
VISUALSTYLE
  5
C3B8
102
{ACAD_XDICTIONARY
360
EF1B
102
}
102
{ACAD_REACTORS
330
14
102
}
330
14
100
AcDbVisualStyle
  2

 70
    26
 71
     2
 72
     2
 73
     1
 90
        2
 40
-0.6
 41
30.0
 62
     5
 63
     7
 74
     1
 91
       10
 64
     7
 65
   257
 75
     2
175
     1
 42
1.0
 92
        8
 66
   257
 43
1.0
 76
     1
 77
     6
 78
     2
 67
     7
 79
     3
170
     0
171
     0
290
     0
174
     0
 93
        5
 44
0.0
173
     0
291
     0
 45
0.0
1001
ACAD
1000
AcDbSavedByObjectVersion
1070
     0
  0
VISUALSTYLE
  5
C3B5
102
{ACAD_XDICTIONARY
360
EF15
102
}
102
{ACAD_REACTORS
330
14
102
}
330
14
100
AcDbVisualStyle
  2

 70
    23
 71
     2
 72
     2
 73
     3
 90
        0
 40
-0.6
 41
-30.0
 62
     5
 63
     7
 74
     2
 91
        2
 64
     7
 65
     7
 75
     1
175
     1
 42
40.0
 92
        8
 66
     7
 43
1.0
 76
     1
 77
     6
 78
     2
 67
     7
 79
     3
170
     0
171
     0
290
     0
174
     0
 93
        1
 44
0.0
173
     0
291
     0
 45
0.0
1001
ACAD
1000
AcDbSavedByObjectVersion
1070
     0
  0
VISUALSTYLE
  5
C3B6
102
{ACAD_XDICTIONARY
360
EF17
102
}
102
{ACAD_REACTORS
330
14
102
}
330
14
100
AcDbVisualStyle
  2

 70
    24
 71
     1
 72
     2
 73
     2
 90
        0
 40
-0.6
 41
-30.0
 62
     5
 63
     7
 74
     2
 91
        2
 64
     7
 65
     7
 75
     1
175
     1
 42
40.0
 92
       11
 66
     7
 43
1.0
 76
     1
 77
     6
 78
     2
 67
     7
 79
     6
170
     0
171
     0
290
     0
174
     0
 93
        1
 44
0.0
173
     0
291
     0
 45
0.0
1001
ACAD
1000
AcDbSavedByObjectVersion
1070
     0
  0
VISUALSTYLE
  5
21
102
{ACAD_XDICTIONARY
360
EF04
102
}
102
{ACAD_REACTORS
330
14
102
}
330
14
100
AcDbVisualStyle
  2

 70
    13
 71
     2
 72
     2
 73
     0
 90
        0
 40
-0.6
 41
-30.0
 62
     5
 63
     7
 74
     1
 91
        4
 64
     7
 65
   257
 75
     1
175
     1
 42
1.0
 92
       12
 66
     7
 43
1.0
 76
     1
 77
     6
 78
     2
 67
     7
 79
     5
170
     0
171
     0
290
     0
174
     0
 93
        1
 44
0.0
173
     0
291
     1
 45
0.0
1001
ACAD
1000
AcDbSavedByObjectVersion
1070
     0
  0
VISUALSTYLE
  5
C3B3
102
{ACAD_XDICTIONARY
360
EF11
102
}
102
{ACAD_REACTORS
330
14
102
}
330
14
100
AcDbVisualStyle
  2

 70
     5
 71
     0
 72
     2
 73
     0
 90
        0
 40
-0.6
 41
-30.0
 62
     5
 63
     7
 74
     1
 91
        4
 64
     7
 65
   257
 75
     1
175
     1
 42
1.0
 92
        0
 66
   257
 43
1.0
 76
     1
 77
     6
 78
     2
 67
     7
 79
     3
170
     0
171
     0
290
     0
174
     0
 93
        1
 44
0.0
173
     0
291
     0
 45
0.0
1001
ACAD
1000
AcDbSavedByObjectVersion
1070
     0
  0
VISUALSTYLE
  5
C3B7
102
{ACAD_XDICTIONARY
360
EF19
102
}
102
{ACAD_REACTORS
330
14
102
}
330
14
100
AcDbVisualStyle
  2

 70
    25
 71
     2
 72
     2
 73
     1
 90
        1
 40
0.5
 41
-30.0
 62
     5
 63
     7
 74
     1
 91
        0
 64
     7
 65
   257
 75
     1
175
     1
 42
1.0
 92
        8
 66
     7
 43
1.0
 76
     1
 77
     6
 78
     2
 67
     7
 79
     3
170
     0
171
     0
290
     0
174
     0
 93
       13
 44
0.0
173
     0
291
     0
 45
0.0
1001
ACAD
1000
AcDbSavedByObjectVersion
1070
     0
  0
DICTIONARYVAR
  5
177F
102
{ACAD_REACTORS
330
454
102
}
330
454
100
DictionaryVariables
280
     0
  1
1:1
  0
DICTIONARYVAR
  5
177D
102
{ACAD_REACTORS
330
454
102
}
330
454
100
DictionaryVariables
280
     0
  1
STANDARD
  0
DICTIONARYVAR
  5
455
102
{ACAD_REACTORS
330
454
102
}
330
454
100
DictionaryVariables
280
     0
  1
STANDARD
  0
DICTIONARYVAR
  5
C3FC
102
{ACAD_REACTORS
330
454
102
}
330
454
100
DictionaryVariables
280
     0
  1
Metric50
  0
DICTIONARYVAR
  5
C3FD
102
{ACAD_REACTORS
330
454
102
}
330
454
100
DictionaryVariables
280
     0
  1
Metric50
  0
DICTIONARYVAR
  5
E470
102
{ACAD_REACTORS
330
454
102
}
330
454
100
DictionaryVariables
280
     0
  1
2
  0
DICTIONARYVAR
  5
E46E
102
{ACAD_REACTORS
330
454
102
}
330
454
100
DictionaryVariables
280
     0
  1
1
  0
DICTIONARYVAR
  5
E46D
102
{ACAD_REACTORS
330
454
102
}
330
454
100
DictionaryVariables
280
     0
  1
0
  0
DICTIONARYVAR
  5
C3FE
102
{ACAD_REACTORS
330
454
102
}
330
454
100
DictionaryVariables
280
     0
  1
1
  0
DICTIONARYVAR
  5
C3FF
102
{ACAD_REACTORS
330
454
102
}
330
454
100
DictionaryVariables
280
     0
  1
15
  0
DICTIONARYVAR
  5
1780
102
{ACAD_REACTORS
330
454
102
}
330
454
100
DictionaryVariables
280
     0
  1
0
  0
DICTIONARYVAR
  5
177E
102
{ACAD_REACTORS
330
454
102
}
330
454
100
DictionaryVariables
280
     0
  1
0
  0
DICTIONARYVAR
  5
E471
102
{ACAD_REACTORS
330
454
102
}
330
454
100
DictionaryVariables
280
     0
  1
1
  0
DICTIONARYVAR
  5
E46C
102
{ACAD_REACTORS
330
454
102
}
330
454
100
DictionaryVariables
280
     0
  1
127
  0
DICTIONARYVAR
  5
EEE5
102
{ACAD_REACTORS
330
454
102
}
330
454
100
DictionaryVariables
280
     0
  1
2
  0
DICTIONARY
  5
A1
102
{ACAD_REACTORS
330
9F
102
}
330
9F
100
AcDbDictionary
281
     1
  0
XRECORD
  5
C1
102
{ACAD_REACTORS
330
9F
102
}
330
9F
100
AcDbXrecord
280
     1
 90
-1023410169
  0
XRECORD
  5
6FDE
102
{ACAD_REACTORS
330
6FDD
102
}
330
6FDD
100
AcDbXrecord
280
     1
330
0
330
0
330
0
330
0
330
0
330
0
330
0
330
0
330
0
330
0
330
0
330
0
330
0
330
0
330
0
330
0
330
0
330
0
330
0
330
0
330
0
330
0
330
0
330
0
330
0
330
0
330
0
330
0
330
0
330
0
330
0
330
0
330
0
330
0
330
0
330
0
330
0
330
0
330
0
330
0
330
0
330
0
330
0
330
0
330
0
330
0
330
0
330
0
330
0
330
0
330
0
330
0
330
0
330
0
330
0
330
0
330
0
330
0
330
0
330
0
330
0
330
0
330
0
330
0
330
0
330
0
330
0
330
0
330
0
330
0
330
0
330
0
330
0
330
0
330
0
330
0
330
0
330
0
330
0
330
0
330
0
330
0
330
0
330
0
330
0
330
0
330
0
330
0
330
0
330
0
330
0
330
0
330
0
330
0
330
0
330
0
330
0
330
0
330
0
330
0
330
0
330
0
330
0
330
0
330
0
330
0
330
0
330
0
330
0
330
0
330
0
330
0
330
0
330
0
330
0
330
0
330
0
330
0
330
0
330
0
330
0
330
0
330
0
330
0
330
0
330
0
330
0
330
0
330
0
330
0
330
0
330
0
330
0
330
0
330
0
330
0
330
0
330
0
330
0
330
0
330
0
330
0
330
0
330
0
330
0
330
0
330
0
330
0
330
0
330
0
330
0
330
0
330
0
330
0
330
0
330
0
330
0
330
0
330
0
330
0
330
0
330
0
330
0
330
0
330
0
330
0
330
0
330
0
330
0
330
0
330
0
330
0
330
0
330
0
330
0
330
0
330
0
330
0
330
0
330
0
330
0
330
0
330
0
330
0
330
0
330
0
330
0
330
0
330
0
330
0
330
0
330
0
330
0
330
0
330
0
330
0
330
0
330
0
330
0
330
0
330
0
330
0
330
0
330
0
330
0
330
0
330
0
330
0
330
0
330
0
330
0
330
0
330
0
330
0
330
0
330
0
330
0
330
0
330
0
330
0
330
0
330
0
330
0
330
0
330
0
330
0
330
0
330
0
330
0
330
0
330
0
330
0
330
0
330
0
330
0
330
0
330
0
330
0
330
0
330
0
330
0
330
0
330
0
330
0
330
0
330
0
330
0
330
0
330
0
330
0
330
0
330
0
330
0
330
0
330
0
330
0
330
0
330
0
330
0
330
811F
330
0
  0
XRECORD
  5
4878
102
{ACAD_XDICTIONARY
360
4879
102
}
102
{ACAD_REACTORS
330
105
102
}
330
105
100
AcDbXrecord
280
     1
 91
    33280
301

290
     0
302
0
330
0
 90
        8
 62
     1
370
    25
331
2B
  1
色_1
330
0
 90
        8
 62
    52
370
     9
331
0
  1
色_52
330
0
 90
        9
 62
   253
370
     0
331
2B
  1
色_253
330
0
 90
        8
 62
     3
370
     9
331
2B
  1
色_3
330
0
 90
        8
 62
     7
370
    18
331
2B
  1
色_7
330
0
 90
        8
 62
     4
370
     9
331
A5
  1
色_4
330
0
 90
        0
 62
     2
370
    13
331
A6
  1
色_2
330
0
 90
        0
 62
     1
370
     9
331
A7
  1
色_1
330
0
 90
        8
 62
   133
370
     9
331
2B
  1
色_133
330
0
 90
        8
 62
   253
370
     9
331
0
  1
色_253
330
0
 90
        8
 62
    22
370
     9
331
78
  1
色_22
330
0
 90
        8
 62
   191
370
    15
331
2B
  1
色_191
330
0
 90
        8
 62
     4
370
    15
331
2B
  1
色_4
330
0
 90
        8
 62
     3
370
    13
331
2B
  1
色_3
330
0
 90
        8
 62
     6
370
     5
331
BD
  1
色_6
330
0
 90
        8
 62
   253
370
     5
331
2B
  1
色_253
330
0
 90
        8
 62
    42
370
    13
331
0
  1
色_42
330
0
 90
        8
 62
   101
370
     5
331
0
  1
色_101
330
ED
 90
        0
 62
     7
370
    15
331
2B
  1
色_7
330
0
 90
        0
 62
     1
370
    25
331
2B
  1
色_1
330
0
 90
        8
 62
     3
370
    13
331
2B
  1
色_3
330
25
 90
        8
 62
     7
370
    18
331
2B
  1
色_7
  0
DICTIONARY
  5
EF2B
330
C49F
100
AcDbDictionary
280
     1
281
     1
  3
ACAD_XREC_ROUNDTRIP
360
EF2C
  0
DICTIONARY
  5
EF27
330
C3C0
100
AcDbDictionary
280
     1
281
     1
  3
ACAD_XREC_ROUNDTRIP
360
EF28
  0
DICTIONARY
  5
EF0D
330
3A
100
AcDbDictionary
280
     1
281
     1
  3
ACAD_XREC_ROUNDTRIP
360
EF0E
  0
DICTIONARY
  5
EF2D
330
DFAE
100
AcDbDictionary
280
     1
281
     1
  3
ACAD_XREC_ROUNDTRIP
360
EF2E
  0
DICTIONARY
  5
E481
330
12
100
AcDbDictionary
280
     1
281
     1
  3
ACAD_XREC_ROUNDTRIP
360
E482
  0
DICTIONARY
  5
E47F
330
11
100
AcDbDictionary
280
     1
281
     1
  3
ACAD_XREC_ROUNDTRIP
360
E480
  0
DICTIONARY
  5
E483
330
13
100
AcDbDictionary
280
     1
281
     1
  3
ACAD_XREC_ROUNDTRIP
360
E484
  0
DICTIONARY
  5
EF0F
330
B739
100
AcDbDictionary
280
     1
281
     1
  3
ACAD_XREC_ROUNDTRIP
360
EF10
  0
DICTIONARY
  5
EF29
330
C49D
100
AcDbDictionary
280
     1
281
     1
  3
ACAD_XREC_ROUNDTRIP
360
EF2A
  0
DICTIONARY
  5
EF25
330
C3BE
100
AcDbDictionary
280
     1
281
     1
  3
ACAD_XREC_ROUNDTRIP
360
EF26
  0
DICTIONARY
  5
177A
330
32
100
AcDbDictionary
280
     1
281
     1
  3
ACAD_ROUNDTRIP_2008_TABLESTYLE_CELLSTYLEMAP
360
EEE6
  3
ACAD_XREC_ROUNDTRIP
360
EF0C
  0
DICTIONARY
  5
EEF6
330
1A
100
AcDbDictionary
280
     1
281
     1
  3
ACAD_XREC_ROUNDTRIP
360
EEF7
  0
DICTIONARY
  5
EEFA
330
1C
100
AcDbDictionary
280
     1
281
     1
  3
ACAD_XREC_ROUNDTRIP
360
EEFB
  0
DICTIONARY
  5
EEF8
330
1B
100
AcDbDictionary
280
     1
281
     1
  3
ACAD_XREC_ROUNDTRIP
360
EEF9
  0
DICTIONARY
  5
EEF4
330
19
100
AcDbDictionary
280
     1
281
     1
  3
ACAD_XREC_ROUNDTRIP
360
EEF5
  0
DICTIONARY
  5
EF02
330
20
100
AcDbDictionary
280
     1
281
     1
  3
ACAD_XREC_ROUNDTRIP
360
EF03
  0
DICTIONARY
  5
EF0A
330
24
100
AcDbDictionary
280
     1
281
     1
  3
ACAD_XREC_ROUNDTRIP
360
EF0B
  0
DICTIONARY
  5
EEFC
330
1D
100
AcDbDictionary
280
     1
281
     1
  3
ACAD_XREC_ROUNDTRIP
360
EEFD
  0
DICTIONARY
  5
EF00
330
1F
100
AcDbDictionary
280
     1
281
     1
  3
ACAD_XREC_ROUNDTRIP
360
EF01
  0
DICTIONARY
  5
EF23
330
C3BC
100
AcDbDictionary
280
     1
281
     1
  3
ACAD_XREC_ROUNDTRIP
360
EF24
  0
DICTIONARY
  5
EF08
330
23
100
AcDbDictionary
280
     1
281
     1
  3
ACAD_XREC_ROUNDTRIP
360
EF09
  0
DICTIONARY
  5
EEEC
330
15
100
AcDbDictionary
280
     1
281
     1
  3
ACAD_XREC_ROUNDTRIP
360
EEED
  0
DICTIONARY
  5
EEEE
330
16
100
AcDbDictionary
280
     1
281
     1
  3
ACAD_XREC_ROUNDTRIP
360
EEEF
  0
DICTIONARY
  5
EEF0
330
17
100
AcDbDictionary
280
     1
281
     1
  3
ACAD_XREC_ROUNDTRIP
360
EEF1
  0
DICTIONARY
  5
EEF2
330
18
100
AcDbDictionary
280
     1
281
     1
  3
ACAD_XREC_ROUNDTRIP
360
EEF3
  0
DICTIONARY
  5
EF13
330
C3B4
100
AcDbDictionary
280
     1
281
     1
  3
ACAD_XREC_ROUNDTRIP
360
EF14
  0
DICTIONARY
  5
EF1F
330
C3BA
100
AcDbDictionary
280
     1
281
     1
  3
ACAD_XREC_ROUNDTRIP
360
EF20
  0
DICTIONARY
  5
EF06
330
22
100
AcDbDictionary
280
     1
281
     1
  3
ACAD_XREC_ROUNDTRIP
360
EF07
  0
DICTIONARY
  5
EF21
330
C3BB
100
AcDbDictionary
280
     1
281
     1
  3
ACAD_XREC_ROUNDTRIP
360
EF22
  0
DICTIONARY
  5
EEFE
330
1E
100
AcDbDictionary
280
     1
281
     1
  3
ACAD_XREC_ROUNDTRIP
360
EEFF
  0
DICTIONARY
  5
EF1D
330
C3B9
100
AcDbDictionary
280
     1
281
     1
  3
ACAD_XREC_ROUNDTRIP
360
EF1E
  0
DICTIONARY
  5
EF1B
330
C3B8
100
AcDbDictionary
280
     1
281
     1
  3
ACAD_XREC_ROUNDTRIP
360
EF1C
  0
DICTIONARY
  5
EF15
330
C3B5
100
AcDbDictionary
280
     1
281
     1
  3
ACAD_XREC_ROUNDTRIP
360
EF16
  0
DICTIONARY
  5
EF17
330
C3B6
100
AcDbDictionary
280
     1
281
     1
  3
ACAD_XREC_ROUNDTRIP
360
EF18
  0
DICTIONARY
  5
EF04
330
21
100
AcDbDictionary
280
     1
281
     1
  3
ACAD_XREC_ROUNDTRIP
360
EF05
  0
DICTIONARY
  5
EF11
330
C3B3
100
AcDbDictionary
280
     1
281
     1
  3
ACAD_XREC_ROUNDTRIP
360
EF12
  0
DICTIONARY
  5
EF19
330
C3B7
100
AcDbDictionary
280
     1
281
     1
  3
ACAD_XREC_ROUNDTRIP
360
EF1A
  0
DICTIONARY
  5
4879
330
4878
100
AcDbDictionary
280
     1
281
     1
  3
AcadLayerStateAnnoScale
360
487A
  0
XRECORD
  5
EF2C
102
{ACAD_REACTORS
330
EF2B
102
}
330
EF2B
100
AcDbXrecord
280
     1
102
DISPLAYNAME
  1
Imperial24
102
FLAGS
 90
        0
  0
XRECORD
  5
EF28
102
{ACAD_REACTORS
330
EF27
102
}
330
EF27
100
AcDbXrecord
280
     1
102
DISPLAYNAME
  1
Metric50
102
FLAGS
 90
        0
  0
XRECORD
  5
EF0E
102
{ACAD_REACTORS
330
EF0D
102
}
330
EF0D
100
AcDbXrecord
280
     1
102
SHADEPLOT
 70
     0
102
SHADEPLOTRESLEVEL
 70
     2
102
SHADEPLOTCUSTOMDPI
 70
   300
  0
XRECORD
  5
EF2E
102
{ACAD_REACTORS
330
EF2D
102
}
330
EF2D
100
AcDbXrecord
280
     1
102
SHADEPLOT
 70
     0
102
SHADEPLOTRESLEVEL
 70
     2
102
SHADEPLOTCUSTOMDPI
 70
   300
  0
XRECORD
  5
E482
102
{ACAD_REACTORS
330
E481
102
}
330
E481
100
AcDbXrecord
280
     1
102
MATERIAL
148
0.0
149
0.0
149
0.0
 93
        0
 94
      127
282
     0
 72
     1
 77
     1
171
     1
175
     1
179
     1
273
     0
  0
XRECORD
  5
E480
102
{ACAD_REACTORS
330
E47F
102
}
330
E47F
100
AcDbXrecord
280
     1
102
MATERIAL
148
0.0
149
0.0
149
0.0
 93
        0
 94
      127
282
     0
 72
     1
 77
     1
171
     1
175
     1
179
     1
273
     0
  0
XRECORD
  5
E484
102
{ACAD_REACTORS
330
E483
102
}
330
E483
100
AcDbXrecord
280
     1
102
MATERIAL
148
0.0
149
0.0
149
0.0
 93
        0
 94
      127
282
     0
 72
     1
 77
     1
171
     1
175
     1
179
     1
273
     0
  0
XRECORD
  5
EF10
102
{ACAD_REACTORS
330
EF0F
102
}
330
EF0F
100
AcDbXrecord
280
     1
102
SHADEPLOT
 70
     1
102
SHADEPLOTRESLEVEL
 70
     4
102
SHADEPLOTCUSTOMDPI
 70
   300
  0
XRECORD
  5
EF2A
102
{ACAD_REACTORS
330
EF29
102
}
330
EF29
100
AcDbXrecord
280
     1
102
DISPLAYNAME
  1
Imperial24
102
FLAGS
 90
        0
  0
XRECORD
  5
EF26
102
{ACAD_REACTORS
330
EF25
102
}
330
EF25
100
AcDbXrecord
280
     1
102
DISPLAYNAME
  1
Metric50
102
FLAGS
 90
        0
  0
CELLSTYLEMAP
  5
EEE6
102
{ACAD_REACTORS
330
177A
102
}
330
177A
100
AcDbCellStyleMap
 90
        3
300
CELLSTYLE
  1
TABLEFORMAT_BEGIN
 90
        5
170
     1
 91
        0
 92
    32768
 62
   257
 93
        1
300
CONTENTFORMAT
  1
CONTENTFORMAT_BEGIN
 90
        0
 91
        0
 92
      512
 93
        0
300

 40
0.0
140
1.0
 94
        5
 62
     0
340
26
144
6.0
309
CONTENTFORMAT_END
171
     1
301
MARGIN
  1
CELLMARGIN_BEGIN
 40
1.5
 40
1.5
 40
1.5
 40
1.5
 40
0.18
 40
0.18
309
CELLMARGIN_END
 94
        6
 95
        1
302
GRIDFORMAT
  1
GRIDFORMAT_BEGIN
 90
        0
 91
        1
 62
     0
 92
       -2
340
0
 93
        0
 40
0.045
309
GRIDFORMAT_END
 95
        2
302
GRIDFORMAT
  1
GRIDFORMAT_BEGIN
 90
        0
 91
        1
 62
     0
 92
       -2
340
0
 93
        0
 40
0.045
309
GRIDFORMAT_END
 95
        4
302
GRIDFORMAT
  1
GRIDFORMAT_BEGIN
 90
        0
 91
        1
 62
     0
 92
       -2
340
0
 93
        0
 40
0.045
309
GRIDFORMAT_END
 95
        8
302
GRIDFORMAT
  1
GRIDFORMAT_BEGIN
 90
        0
 91
        1
 62
     0
 92
       -2
340
0
 93
        0
 40
0.045
309
GRIDFORMAT_END
 95
       16
302
GRIDFORMAT
  1
GRIDFORMAT_BEGIN
 90
        0
 91
        1
 62
     0
 92
       -2
340
0
 93
        0
 40
0.045
309
GRIDFORMAT_END
 95
       32
302
GRIDFORMAT
  1
GRIDFORMAT_BEGIN
 90
        0
 91
        1
 62
     0
 92
       -2
340
0
 93
        0
 40
0.045
309
GRIDFORMAT_END
309
TABLEFORMAT_END
  1
CELLSTYLE_BEGIN
 90
        1
 91
        1
300
_TITLE
309
CELLSTYLE_END
300
CELLSTYLE
  1
TABLEFORMAT_BEGIN
 90
        5
170
     1
 91
        0
 92
        0
 62
   257
 93
        1
300
CONTENTFORMAT
  1
CONTENTFORMAT_BEGIN
 90
        0
 91
        0
 92
      512
 93
        0
300

 40
0.0
140
1.0
 94
        5
 62
     0
340
26
144
4.5
309
CONTENTFORMAT_END
171
     1
301
MARGIN
  1
CELLMARGIN_BEGIN
 40
1.5
 40
1.5
 40
1.5
 40
1.5
 40
0.18
 40
0.18
309
CELLMARGIN_END
 94
        6
 95
        1
302
GRIDFORMAT
  1
GRIDFORMAT_BEGIN
 90
        0
 91
        1
 62
     0
 92
       -2
340
0
 93
        0
 40
0.045
309
GRIDFORMAT_END
 95
        2
302
GRIDFORMAT
  1
GRIDFORMAT_BEGIN
 90
        0
 91
        1
 62
     0
 92
       -2
340
0
 93
        0
 40
0.045
309
GRIDFORMAT_END
 95
        4
302
GRIDFORMAT
  1
GRIDFORMAT_BEGIN
 90
        0
 91
        1
 62
     0
 92
       -2
340
0
 93
        0
 40
0.045
309
GRIDFORMAT_END
 95
        8
302
GRIDFORMAT
  1
GRIDFORMAT_BEGIN
 90
        0
 91
        1
 62
     0
 92
       -2
340
0
 93
        0
 40
0.045
309
GRIDFORMAT_END
 95
       16
302
GRIDFORMAT
  1
GRIDFORMAT_BEGIN
 90
        0
 91
        1
 62
     0
 92
       -2
340
0
 93
        0
 40
0.045
309
GRIDFORMAT_END
 95
       32
302
GRIDFORMAT
  1
GRIDFORMAT_BEGIN
 90
        0
 91
        1
 62
     0
 92
       -2
340
0
 93
        0
 40
0.045
309
GRIDFORMAT_END
309
TABLEFORMAT_END
  1
CELLSTYLE_BEGIN
 90
        2
 91
        1
300
_HEADER
309
CELLSTYLE_END
300
CELLSTYLE
  1
TABLEFORMAT_BEGIN
 90
        5
170
     1
 91
        0
 92
        0
 62
   257
 93
        1
300
CONTENTFORMAT
  1
CONTENTFORMAT_BEGIN
 90
        0
 91
        0
 92
      512
 93
        0
300

 40
0.0
140
1.0
 94
        2
 62
     0
340
26
144
4.5
309
CONTENTFORMAT_END
171
     1
301
MARGIN
  1
CELLMARGIN_BEGIN
 40
1.5
 40
1.5
 40
1.5
 40
1.5
 40
0.18
 40
0.18
309
CELLMARGIN_END
 94
        6
 95
        1
302
GRIDFORMAT
  1
GRIDFORMAT_BEGIN
 90
        0
 91
        1
 62
     0
 92
       -2
340
0
 93
        0
 40
0.045
309
GRIDFORMAT_END
 95
        2
302
GRIDFORMAT
  1
GRIDFORMAT_BEGIN
 90
        0
 91
        1
 62
     0
 92
       -2
340
0
 93
        0
 40
0.045
309
GRIDFORMAT_END
 95
        4
302
GRIDFORMAT
  1
GRIDFORMAT_BEGIN
 90
        0
 91
        1
 62
     0
 92
       -2
340
0
 93
        0
 40
0.045
309
GRIDFORMAT_END
 95
        8
302
GRIDFORMAT
  1
GRIDFORMAT_BEGIN
 90
        0
 91
        1
 62
     0
 92
       -2
340
0
 93
        0
 40
0.045
309
GRIDFORMAT_END
 95
       16
302
GRIDFORMAT
  1
GRIDFORMAT_BEGIN
 90
        0
 91
        1
 62
     0
 92
       -2
340
0
 93
        0
 40
0.045
309
GRIDFORMAT_END
 95
       32
302
GRIDFORMAT
  1
GRIDFORMAT_BEGIN
 90
        0
 91
        1
 62
     0
 92
       -2
340
0
 93
        0
 40
0.045
309
GRIDFORMAT_END
309
TABLEFORMAT_END
  1
CELLSTYLE_BEGIN
 90
        3
 91
        2
300
_DATA
309
CELLSTYLE_END
  0
XRECORD
  5
EF0C
102
{ACAD_REACTORS
330
177A
102
}
330
177A
100
AcDbXrecord
280
     1
102
ACAD_ROUNDTRIP_PRE2007_TABLESTYLE
 90
      512
 91
        0
  1

 92
      512
 93
        0
  2

 94
      512
 95
        0
  3

  0
XRECORD
  5
EEF7
102
{ACAD_REACTORS
330
EEF6
102
}
330
EEF6
100
AcDbXrecord
280
     1
102
RTVSPost2010Prop28
280
     1
102
RTVSPost2010PropOp28
 70
     1
102
RTVSPost2010Prop29
280
     1
102
RTVSPost2010PropOp29
 70
     1
102
RTVSPost2010Prop30
280
     0
102
RTVSPost2010PropOp30
 70
     1
102
RTVSPost2010Prop31
280
     0
102
RTVSPost2010PropOp31
 70
     1
102
RTVSPost2010Prop32
280
     0
102
RTVSPost2010PropOp32
 70
     1
102
RTVSPost2010Prop33
280
     0
102
RTVSPost2010PropOp33
 70
     1
102
RTVSPost2010Prop34
280
     0
102
RTVSPost2010PropOp34
 70
     1
102
RTVSPost2010Prop35
280
     0
102
RTVSPost2010PropOp35
 70
     1
102
RTVSPost2010Prop36
280
     0
102
RTVSPost2010PropOp36
 70
     1
102
RTVSPost2010Prop37
 90
       50
102
RTVSPost2010PropOp37
 70
     1
102
RTVSPost2010Prop38
140
0.0
102
RTVSPost2010PropOp38
 70
     1
102
RTVSPost2010Prop39
140
1.0
102
RTVSPost2010PropOp39
 70
     1
102
RTVSPost2010Prop40
 90
        0
102
RTVSPost2010PropOp40
 70
     1
102
RTVSPost2010Prop41ColorIndex
 90
       18
102
RTVSPost2010Prop41ColorRGB
 90
        0
102
RTVSPost2010PropOp41
 70
     1
102
RTVSPost2010Prop42
 90
       50
102
RTVSPost2010PropOp42
 70
     1
102
RTVSPost2010Prop43
 90
        3
102
RTVSPost2010PropOp43
 70
     1
102
RTVSPost2010Prop44ColorIndex
 90
        5
102
RTVSPost2010Prop44ColorRGB
 90
      255
102
RTVSPost2010PropOp44
 70
     1
102
RTVSPost2010Prop45
280
     0
102
RTVSPost2010PropOp45
 70
     1
102
RTVSPost2010Prop46
 90
       50
102
RTVSPost2010PropOp46
 70
     1
102
RTVSPost2010Prop47
 90
       50
102
RTVSPost2010PropOp47
 70
     1
102
RTVSPost2010Prop48
 90
       50
102
RTVSPost2010PropOp48
 70
     1
102
RTVSPost2010Prop49
280
     0
102
RTVSPost2010PropOp49
 70
     1
102
RTVSPost2010Prop50
 90
       50
102
RTVSPost2010PropOp50
 70
     1
102
RTVSPost2010Prop51ColorIndex
 90
      256
102
RTVSPost2010Prop51ColorRGB
 90
-16777216
102
RTVSPost2010PropOp51
 70
     0
102
RTVSPost2010Prop52
140
1.0
102
RTVSPost2010PropOp52
 70
     0
102
RTVSPost2010Prop53
 90
        2
102
RTVSPost2010PropOp53
 70
     1
102
RTVSPost2010Prop54
  1
strokes_ogs.tif
102
RTVSPost2010PropOp54
 70
     1
102
RTVSPost2010Prop55
280
     0
102
RTVSPost2010PropOp55
 70
     1
102
RTVSPost2010Prop56
140
1.0
102
RTVSPost2010PropOp56
 70
     1
102
RTVSPost2010Prop57
140
1.0
102
RTVSPost2010PropOp57
 70
     1
102
RTVSPropertyOp0
 70
     1
102
RTVSPropertyOp1
 70
     1
102
RTVSPropertyOp2
 70
     1
102
RTVSPropertyOp3
 70
     1
102
RTVSPropertyOp4
 70
     1
102
RTVSPropertyOp5
 70
     1
102
RTVSPropertyOp6
 70
     1
102
RTVSPropertyOp7
 70
     1
102
RTVSPropertyOp8
 70
     1
102
RTVSPropertyOp9
 70
     1
102
RTVSPropertyOp10
 70
     1
102
RTVSPropertyOp11
 70
     1
102
RTVSPropertyOp12
 70
     1
102
RTVSPropertyOp13
 70
     1
102
RTVSPropertyOp14
 70
     1
102
RTVSPropertyOp15
 70
     1
102
RTVSPropertyOp16
 70
     1
102
RTVSPropertyOp17
 70
     1
102
RTVSPropertyOp18
 70
     1
102
RTVSPropertyOp19
 70
     1
102
RTVSPropertyOp20
 70
     1
102
RTVSPropertyOp21
 70
     1
102
RTVSPropertyOp22
 70
     1
102
RTVSPropertyOp23
 70
     1
102
RTVSPropertyOp24
 70
     1
102
RTVSPropertyOp25
 70
     1
102
RTVSPropertyOp26
 70
     1
102
RTVSPropertyOp27
 70
     1
102
RTVSPropertyOp28
 70
     1
102
RTVSPropertyOp29
 70
     1
102
RTVSPropertyOp30
 70
     1
102
RTVSPropertyOp31
 70
     1
102
RTVSPropertyOp32
 70
     1
102
RTVSPropertyOp33
 70
     1
102
RTVSPropertyOp34
 70
     1
102
RTVSPropertyOp35
 70
     1
102
RTVSPropertyOp36
 70
     1
102
RTVSPropertyOp37
 70
     1
102
RTVSPropertyOp38
 70
     1
102
RTVSPropertyOp39
 70
     1
102
RTVSPropertyOp40
 70
     1
102
RTVSPropertyOp41
 70
     1
102
RTVSPropertyOp42
 70
     1
102
RTVSPropertyOp43
 70
     1
102
RTVSPropertyOp44
 70
     1
102
RTVSPropertyOp45
 70
     1
102
RTVSPropertyOp46
 70
     1
102
RTVSPropertyOp47
 70
     1
102
RTVSPropertyOp48
 70
     1
102
RTVSPropertyOp49
 70
     1
102
RTVSPropertyOp50
 70
     1
102
RTVSPropertyOp51
 70
     0
102
RTVSPropertyOp52
 70
     0
102
RTVSPropertyOp53
 70
     1
102
RTVSPropertyOp54
 70
     1
102
RTVSPropertyOp55
 70
     1
102
RTVSPropertyOp56
 70
     1
102
RTVSPropertyOp57
 70
     1
102
RTVSPropertyOp58
 70
     1
102
RTVSPropertyOp59
 70
     1
102
RTVSPropertyOp60
 70
     1
102
RTVSPropertyOp61
 70
     1
102
RTVSPropertyOp62
 70
     1
  0
XRECORD
  5
EEFB
102
{ACAD_REACTORS
330
EEFA
102
}
330
EEFA
100
AcDbXrecord
280
     1
102
RTVSPost2010Prop28
280
     0
102
RTVSPost2010PropOp28
 70
     1
102
RTVSPost2010Prop29
280
     1
102
RTVSPost2010PropOp29
 70
     1
102
RTVSPost2010Prop30
280
     1
102
RTVSPost2010PropOp30
 70
     1
102
RTVSPost2010Prop31
280
     0
102
RTVSPost2010PropOp31
 70
     1
102
RTVSPost2010Prop32
280
     0
102
RTVSPost2010PropOp32
 70
     1
102
RTVSPost2010Prop33
280
     0
102
RTVSPost2010PropOp33
 70
     1
102
RTVSPost2010Prop34
280
     0
102
RTVSPost2010PropOp34
 70
     1
102
RTVSPost2010Prop35
280
     0
102
RTVSPost2010PropOp35
 70
     1
102
RTVSPost2010Prop36
280
     0
102
RTVSPost2010PropOp36
 70
     1
102
RTVSPost2010Prop37
 90
       50
102
RTVSPost2010PropOp37
 70
     1
102
RTVSPost2010Prop38
140
0.0
102
RTVSPost2010PropOp38
 70
     1
102
RTVSPost2010Prop39
140
1.0
102
RTVSPost2010PropOp39
 70
     1
102
RTVSPost2010Prop40
 90
        0
102
RTVSPost2010PropOp40
 70
     1
102
RTVSPost2010Prop41ColorIndex
 90
       18
102
RTVSPost2010Prop41ColorRGB
 90
        0
102
RTVSPost2010PropOp41
 70
     1
102
RTVSPost2010Prop42
 90
       50
102
RTVSPost2010PropOp42
 70
     1
102
RTVSPost2010Prop43
 90
        3
102
RTVSPost2010PropOp43
 70
     1
102
RTVSPost2010Prop44ColorIndex
 90
        5
102
RTVSPost2010Prop44ColorRGB
 90
      255
102
RTVSPost2010PropOp44
 70
     1
102
RTVSPost2010Prop45
280
     0
102
RTVSPost2010PropOp45
 70
     1
102
RTVSPost2010Prop46
 90
       50
102
RTVSPost2010PropOp46
 70
     1
102
RTVSPost2010Prop47
 90
       50
102
RTVSPost2010PropOp47
 70
     1
102
RTVSPost2010Prop48
 90
       50
102
RTVSPost2010PropOp48
 70
     1
102
RTVSPost2010Prop49
280
     0
102
RTVSPost2010PropOp49
 70
     1
102
RTVSPost2010Prop50
 90
       50
102
RTVSPost2010PropOp50
 70
     1
102
RTVSPost2010Prop51ColorIndex
 90
      256
102
RTVSPost2010Prop51ColorRGB
 90
-16777216
102
RTVSPost2010PropOp51
 70
     0
102
RTVSPost2010Prop52
140
1.0
102
RTVSPost2010PropOp52
 70
     0
102
RTVSPost2010Prop53
 90
        2
102
RTVSPost2010PropOp53
 70
     1
102
RTVSPost2010Prop54
  1
strokes_ogs.tif
102
RTVSPost2010PropOp54
 70
     1
102
RTVSPost2010Prop55
280
     0
102
RTVSPost2010PropOp55
 70
     1
102
RTVSPost2010Prop56
140
1.0
102
RTVSPost2010PropOp56
 70
     1
102
RTVSPost2010Prop57
140
1.0
102
RTVSPost2010PropOp57
 70
     1
102
RTVSPropertyOp0
 70
     1
102
RTVSPropertyOp1
 70
     1
102
RTVSPropertyOp2
 70
     1
102
RTVSPropertyOp3
 70
     1
102
RTVSPropertyOp4
 70
     1
102
RTVSPropertyOp5
 70
     1
102
RTVSPropertyOp6
 70
     1
102
RTVSPropertyOp7
 70
     1
102
RTVSPropertyOp8
 70
     1
102
RTVSPropertyOp9
 70
     1
102
RTVSPropertyOp10
 70
     1
102
RTVSPropertyOp11
 70
     1
102
RTVSPropertyOp12
 70
     1
102
RTVSPropertyOp13
 70
     1
102
RTVSPropertyOp14
 70
     1
102
RTVSPropertyOp15
 70
     1
102
RTVSPropertyOp16
 70
     1
102
RTVSPropertyOp17
 70
     1
102
RTVSPropertyOp18
 70
     1
102
RTVSPropertyOp19
 70
     1
102
RTVSPropertyOp20
 70
     1
102
RTVSPropertyOp21
 70
     1
102
RTVSPropertyOp22
 70
     1
102
RTVSPropertyOp23
 70
     1
102
RTVSPropertyOp24
 70
     1
102
RTVSPropertyOp25
 70
     1
102
RTVSPropertyOp26
 70
     1
102
RTVSPropertyOp27
 70
     1
102
RTVSPropertyOp28
 70
     1
102
RTVSPropertyOp29
 70
     1
102
RTVSPropertyOp30
 70
     1
102
RTVSPropertyOp31
 70
     1
102
RTVSPropertyOp32
 70
     1
102
RTVSPropertyOp33
 70
     1
102
RTVSPropertyOp34
 70
     1
102
RTVSPropertyOp35
 70
     1
102
RTVSPropertyOp36
 70
     1
102
RTVSPropertyOp37
 70
     1
102
RTVSPropertyOp38
 70
     1
102
RTVSPropertyOp39
 70
     1
102
RTVSPropertyOp40
 70
     1
102
RTVSPropertyOp41
 70
     1
102
RTVSPropertyOp42
 70
     1
102
RTVSPropertyOp43
 70
     1
102
RTVSPropertyOp44
 70
     1
102
RTVSPropertyOp45
 70
     1
102
RTVSPropertyOp46
 70
     1
102
RTVSPropertyOp47
 70
     1
102
RTVSPropertyOp48
 70
     1
102
RTVSPropertyOp49
 70
     1
102
RTVSPropertyOp50
 70
     1
102
RTVSPropertyOp51
 70
     0
102
RTVSPropertyOp52
 70
     0
102
RTVSPropertyOp53
 70
     1
102
RTVSPropertyOp54
 70
     1
102
RTVSPropertyOp55
 70
     1
102
RTVSPropertyOp56
 70
     1
102
RTVSPropertyOp57
 70
     1
102
RTVSPropertyOp58
 70
     1
102
RTVSPropertyOp59
 70
     1
102
RTVSPropertyOp60
 70
     1
102
RTVSPropertyOp61
 70
     1
102
RTVSPropertyOp62
 70
     1
  0
XRECORD
  5
EEF9
102
{ACAD_REACTORS
330
EEF8
102
}
330
EEF8
100
AcDbXrecord
280
     1
102
RTVSPost2010Prop28
280
     0
102
RTVSPost2010PropOp28
 70
     1
102
RTVSPost2010Prop29
280
     1
102
RTVSPost2010PropOp29
 70
     1
102
RTVSPost2010Prop30
280
     1
102
RTVSPost2010PropOp30
 70
     1
102
RTVSPost2010Prop31
280
     0
102
RTVSPost2010PropOp31
 70
     1
102
RTVSPost2010Prop32
280
     0
102
RTVSPost2010PropOp32
 70
     1
102
RTVSPost2010Prop33
280
     0
102
RTVSPost2010PropOp33
 70
     1
102
RTVSPost2010Prop34
280
     0
102
RTVSPost2010PropOp34
 70
     1
102
RTVSPost2010Prop35
280
     0
102
RTVSPost2010PropOp35
 70
     1
102
RTVSPost2010Prop36
280
     0
102
RTVSPost2010PropOp36
 70
     1
102
RTVSPost2010Prop37
 90
       50
102
RTVSPost2010PropOp37
 70
     1
102
RTVSPost2010Prop38
140
0.0
102
RTVSPost2010PropOp38
 70
     1
102
RTVSPost2010Prop39
140
1.0
102
RTVSPost2010PropOp39
 70
     1
102
RTVSPost2010Prop40
 90
        0
102
RTVSPost2010PropOp40
 70
     1
102
RTVSPost2010Prop41ColorIndex
 90
       18
102
RTVSPost2010Prop41ColorRGB
 90
        0
102
RTVSPost2010PropOp41
 70
     1
102
RTVSPost2010Prop42
 90
       50
102
RTVSPost2010PropOp42
 70
     1
102
RTVSPost2010Prop43
 90
        3
102
RTVSPost2010PropOp43
 70
     1
102
RTVSPost2010Prop44ColorIndex
 90
        5
102
RTVSPost2010Prop44ColorRGB
 90
      255
102
RTVSPost2010PropOp44
 70
     1
102
RTVSPost2010Prop45
280
     0
102
RTVSPost2010PropOp45
 70
     1
102
RTVSPost2010Prop46
 90
       50
102
RTVSPost2010PropOp46
 70
     1
102
RTVSPost2010Prop47
 90
       50
102
RTVSPost2010PropOp47
 70
     1
102
RTVSPost2010Prop48
 90
       50
102
RTVSPost2010PropOp48
 70
     1
102
RTVSPost2010Prop49
280
     0
102
RTVSPost2010PropOp49
 70
     1
102
RTVSPost2010Prop50
 90
       50
102
RTVSPost2010PropOp50
 70
     1
102
RTVSPost2010Prop51ColorIndex
 90
      256
102
RTVSPost2010Prop51ColorRGB
 90
-16777216
102
RTVSPost2010PropOp51
 70
     0
102
RTVSPost2010Prop52
140
1.0
102
RTVSPost2010PropOp52
 70
     0
102
RTVSPost2010Prop53
 90
        2
102
RTVSPost2010PropOp53
 70
     1
102
RTVSPost2010Prop54
  1
strokes_ogs.tif
102
RTVSPost2010PropOp54
 70
     1
102
RTVSPost2010Prop55
280
     0
102
RTVSPost2010PropOp55
 70
     1
102
RTVSPost2010Prop56
140
1.0
102
RTVSPost2010PropOp56
 70
     1
102
RTVSPost2010Prop57
140
1.0
102
RTVSPost2010PropOp57
 70
     1
102
RTVSPropertyOp0
 70
     1
102
RTVSPropertyOp1
 70
     1
102
RTVSPropertyOp2
 70
     1
102
RTVSPropertyOp3
 70
     1
102
RTVSPropertyOp4
 70
     1
102
RTVSPropertyOp5
 70
     1
102
RTVSPropertyOp6
 70
     1
102
RTVSPropertyOp7
 70
     1
102
RTVSPropertyOp8
 70
     1
102
RTVSPropertyOp9
 70
     1
102
RTVSPropertyOp10
 70
     1
102
RTVSPropertyOp11
 70
     1
102
RTVSPropertyOp12
 70
     1
102
RTVSPropertyOp13
 70
     1
102
RTVSPropertyOp14
 70
     1
102
RTVSPropertyOp15
 70
     1
102
RTVSPropertyOp16
 70
     1
102
RTVSPropertyOp17
 70
     1
102
RTVSPropertyOp18
 70
     1
102
RTVSPropertyOp19
 70
     1
102
RTVSPropertyOp20
 70
     1
102
RTVSPropertyOp21
 70
     1
102
RTVSPropertyOp22
 70
     1
102
RTVSPropertyOp23
 70
     1
102
RTVSPropertyOp24
 70
     1
102
RTVSPropertyOp25
 70
     1
102
RTVSPropertyOp26
 70
     1
102
RTVSPropertyOp27
 70
     1
102
RTVSPropertyOp28
 70
     1
102
RTVSPropertyOp29
 70
     1
102
RTVSPropertyOp30
 70
     1
102
RTVSPropertyOp31
 70
     1
102
RTVSPropertyOp32
 70
     1
102
RTVSPropertyOp33
 70
     1
102
RTVSPropertyOp34
 70
     1
102
RTVSPropertyOp35
 70
     1
102
RTVSPropertyOp36
 70
     1
102
RTVSPropertyOp37
 70
     1
102
RTVSPropertyOp38
 70
     1
102
RTVSPropertyOp39
 70
     1
102
RTVSPropertyOp40
 70
     1
102
RTVSPropertyOp41
 70
     1
102
RTVSPropertyOp42
 70
     1
102
RTVSPropertyOp43
 70
     1
102
RTVSPropertyOp44
 70
     1
102
RTVSPropertyOp45
 70
     1
102
RTVSPropertyOp46
 70
     1
102
RTVSPropertyOp47
 70
     1
102
RTVSPropertyOp48
 70
     1
102
RTVSPropertyOp49
 70
     1
102
RTVSPropertyOp50
 70
     1
102
RTVSPropertyOp51
 70
     0
102
RTVSPropertyOp52
 70
     0
102
RTVSPropertyOp53
 70
     1
102
RTVSPropertyOp54
 70
     1
102
RTVSPropertyOp55
 70
     1
102
RTVSPropertyOp56
 70
     1
102
RTVSPropertyOp57
 70
     1
102
RTVSPropertyOp58
 70
     1
102
RTVSPropertyOp59
 70
     1
102
RTVSPropertyOp60
 70
     1
102
RTVSPropertyOp61
 70
     1
102
RTVSPropertyOp62
 70
     1
  0
XRECORD
  5
EEF5
102
{ACAD_REACTORS
330
EEF4
102
}
330
EEF4
100
AcDbXrecord
280
     1
102
RTVSPost2010Prop28
280
     0
102
RTVSPost2010PropOp28
 70
     1
102
RTVSPost2010Prop29
280
     1
102
RTVSPost2010PropOp29
 70
     1
102
RTVSPost2010Prop30
280
     1
102
RTVSPost2010PropOp30
 70
     1
102
RTVSPost2010Prop31
280
     0
102
RTVSPost2010PropOp31
 70
     1
102
RTVSPost2010Prop32
280
     0
102
RTVSPost2010PropOp32
 70
     1
102
RTVSPost2010Prop33
280
     0
102
RTVSPost2010PropOp33
 70
     1
102
RTVSPost2010Prop34
280
     0
102
RTVSPost2010PropOp34
 70
     1
102
RTVSPost2010Prop35
280
     0
102
RTVSPost2010PropOp35
 70
     1
102
RTVSPost2010Prop36
280
     0
102
RTVSPost2010PropOp36
 70
     1
102
RTVSPost2010Prop37
 90
       50
102
RTVSPost2010PropOp37
 70
     1
102
RTVSPost2010Prop38
140
0.0
102
RTVSPost2010PropOp38
 70
     1
102
RTVSPost2010Prop39
140
1.0
102
RTVSPost2010PropOp39
 70
     1
102
RTVSPost2010Prop40
 90
        0
102
RTVSPost2010PropOp40
 70
     1
102
RTVSPost2010Prop41ColorIndex
 90
       18
102
RTVSPost2010Prop41ColorRGB
 90
        0
102
RTVSPost2010PropOp41
 70
     1
102
RTVSPost2010Prop42
 90
       50
102
RTVSPost2010PropOp42
 70
     1
102
RTVSPost2010Prop43
 90
        3
102
RTVSPost2010PropOp43
 70
     1
102
RTVSPost2010Prop44ColorIndex
 90
        5
102
RTVSPost2010Prop44ColorRGB
 90
      255
102
RTVSPost2010PropOp44
 70
     1
102
RTVSPost2010Prop45
280
     0
102
RTVSPost2010PropOp45
 70
     1
102
RTVSPost2010Prop46
 90
       50
102
RTVSPost2010PropOp46
 70
     1
102
RTVSPost2010Prop47
 90
       50
102
RTVSPost2010PropOp47
 70
     1
102
RTVSPost2010Prop48
 90
       50
102
RTVSPost2010PropOp48
 70
     1
102
RTVSPost2010Prop49
280
     0
102
RTVSPost2010PropOp49
 70
     1
102
RTVSPost2010Prop50
 90
       50
102
RTVSPost2010PropOp50
 70
     1
102
RTVSPost2010Prop51ColorIndex
 90
      256
102
RTVSPost2010Prop51ColorRGB
 90
-16777216
102
RTVSPost2010PropOp51
 70
     0
102
RTVSPost2010Prop52
140
1.0
102
RTVSPost2010PropOp52
 70
     0
102
RTVSPost2010Prop53
 90
        2
102
RTVSPost2010PropOp53
 70
     1
102
RTVSPost2010Prop54
  1
strokes_ogs.tif
102
RTVSPost2010PropOp54
 70
     1
102
RTVSPost2010Prop55
280
     0
102
RTVSPost2010PropOp55
 70
     1
102
RTVSPost2010Prop56
140
1.0
102
RTVSPost2010PropOp56
 70
     1
102
RTVSPost2010Prop57
140
1.0
102
RTVSPost2010PropOp57
 70
     1
102
RTVSPropertyOp0
 70
     1
102
RTVSPropertyOp1
 70
     1
102
RTVSPropertyOp2
 70
     1
102
RTVSPropertyOp3
 70
     1
102
RTVSPropertyOp4
 70
     1
102
RTVSPropertyOp5
 70
     1
102
RTVSPropertyOp6
 70
     1
102
RTVSPropertyOp7
 70
     1
102
RTVSPropertyOp8
 70
     1
102
RTVSPropertyOp9
 70
     1
102
RTVSPropertyOp10
 70
     1
102
RTVSPropertyOp11
 70
     1
102
RTVSPropertyOp12
 70
     1
102
RTVSPropertyOp13
 70
     1
102
RTVSPropertyOp14
 70
     1
102
RTVSPropertyOp15
 70
     1
102
RTVSPropertyOp16
 70
     1
102
RTVSPropertyOp17
 70
     1
102
RTVSPropertyOp18
 70
     1
102
RTVSPropertyOp19
 70
     1
102
RTVSPropertyOp20
 70
     1
102
RTVSPropertyOp21
 70
     1
102
RTVSPropertyOp22
 70
     1
102
RTVSPropertyOp23
 70
     1
102
RTVSPropertyOp24
 70
     1
102
RTVSPropertyOp25
 70
     1
102
RTVSPropertyOp26
 70
     1
102
RTVSPropertyOp27
 70
     1
102
RTVSPropertyOp28
 70
     1
102
RTVSPropertyOp29
 70
     1
102
RTVSPropertyOp30
 70
     1
102
RTVSPropertyOp31
 70
     1
102
RTVSPropertyOp32
 70
     1
102
RTVSPropertyOp33
 70
     1
102
RTVSPropertyOp34
 70
     1
102
RTVSPropertyOp35
 70
     1
102
RTVSPropertyOp36
 70
     1
102
RTVSPropertyOp37
 70
     1
102
RTVSPropertyOp38
 70
     1
102
RTVSPropertyOp39
 70
     1
102
RTVSPropertyOp40
 70
     1
102
RTVSPropertyOp41
 70
     1
102
RTVSPropertyOp42
 70
     1
102
RTVSPropertyOp43
 70
     1
102
RTVSPropertyOp44
 70
     1
102
RTVSPropertyOp45
 70
     1
102
RTVSPropertyOp46
 70
     1
102
RTVSPropertyOp47
 70
     1
102
RTVSPropertyOp48
 70
     1
102
RTVSPropertyOp49
 70
     1
102
RTVSPropertyOp50
 70
     1
102
RTVSPropertyOp51
 70
     0
102
RTVSPropertyOp52
 70
     0
102
RTVSPropertyOp53
 70
     1
102
RTVSPropertyOp54
 70
     1
102
RTVSPropertyOp55
 70
     1
102
RTVSPropertyOp56
 70
     1
102
RTVSPropertyOp57
 70
     1
102
RTVSPropertyOp58
 70
     1
102
RTVSPropertyOp59
 70
     1
102
RTVSPropertyOp60
 70
     1
102
RTVSPropertyOp61
 70
     1
102
RTVSPropertyOp62
 70
     1
  0
XRECORD
  5
EF03
102
{ACAD_REACTORS
330
EF02
102
}
330
EF02
100
AcDbXrecord
280
     1
102
RTVSPost2010Prop28
280
     0
102
RTVSPost2010PropOp28
 70
     1
102
RTVSPost2010Prop29
280
     1
102
RTVSPost2010PropOp29
 70
     1
102
RTVSPost2010Prop30
280
     1
102
RTVSPost2010PropOp30
 70
     1
102
RTVSPost2010Prop31
280
     0
102
RTVSPost2010PropOp31
 70
     1
102
RTVSPost2010Prop32
280
     0
102
RTVSPost2010PropOp32
 70
     1
102
RTVSPost2010Prop33
280
     0
102
RTVSPost2010PropOp33
 70
     1
102
RTVSPost2010Prop34
280
     0
102
RTVSPost2010PropOp34
 70
     1
102
RTVSPost2010Prop35
280
     0
102
RTVSPost2010PropOp35
 70
     1
102
RTVSPost2010Prop36
280
     0
102
RTVSPost2010PropOp36
 70
     1
102
RTVSPost2010Prop37
 90
       50
102
RTVSPost2010PropOp37
 70
     1
102
RTVSPost2010Prop38
140
0.0
102
RTVSPost2010PropOp38
 70
     1
102
RTVSPost2010Prop39
140
1.0
102
RTVSPost2010PropOp39
 70
     1
102
RTVSPost2010Prop40
 90
        0
102
RTVSPost2010PropOp40
 70
     1
102
RTVSPost2010Prop41ColorIndex
 90
       18
102
RTVSPost2010Prop41ColorRGB
 90
        0
102
RTVSPost2010PropOp41
 70
     1
102
RTVSPost2010Prop42
 90
       50
102
RTVSPost2010PropOp42
 70
     1
102
RTVSPost2010Prop43
 90
        3
102
RTVSPost2010PropOp43
 70
     1
102
RTVSPost2010Prop44ColorIndex
 90
        5
102
RTVSPost2010Prop44ColorRGB
 90
      255
102
RTVSPost2010PropOp44
 70
     1
102
RTVSPost2010Prop45
280
     0
102
RTVSPost2010PropOp45
 70
     1
102
RTVSPost2010Prop46
 90
       50
102
RTVSPost2010PropOp46
 70
     1
102
RTVSPost2010Prop47
 90
       50
102
RTVSPost2010PropOp47
 70
     1
102
RTVSPost2010Prop48
 90
       50
102
RTVSPost2010PropOp48
 70
     1
102
RTVSPost2010Prop49
280
     0
102
RTVSPost2010PropOp49
 70
     1
102
RTVSPost2010Prop50
 90
       50
102
RTVSPost2010PropOp50
 70
     1
102
RTVSPost2010Prop51ColorIndex
 90
      256
102
RTVSPost2010Prop51ColorRGB
 90
-16777216
102
RTVSPost2010PropOp51
 70
     0
102
RTVSPost2010Prop52
140
1.0
102
RTVSPost2010PropOp52
 70
     0
102
RTVSPost2010Prop53
 90
        2
102
RTVSPost2010PropOp53
 70
     1
102
RTVSPost2010Prop54
  1
strokes_ogs.tif
102
RTVSPost2010PropOp54
 70
     1
102
RTVSPost2010Prop55
280
     0
102
RTVSPost2010PropOp55
 70
     1
102
RTVSPost2010Prop56
140
1.0
102
RTVSPost2010PropOp56
 70
     1
102
RTVSPost2010Prop57
140
1.0
102
RTVSPost2010PropOp57
 70
     1
102
RTVSPropertyOp0
 70
     1
102
RTVSPropertyOp1
 70
     1
102
RTVSPropertyOp2
 70
     1
102
RTVSPropertyOp3
 70
     1
102
RTVSPropertyOp4
 70
     1
102
RTVSPropertyOp5
 70
     1
102
RTVSPropertyOp6
 70
     1
102
RTVSPropertyOp7
 70
     1
102
RTVSPropertyOp8
 70
     1
102
RTVSPropertyOp9
 70
     1
102
RTVSPropertyOp10
 70
     1
102
RTVSPropertyOp11
 70
     1
102
RTVSPropertyOp12
 70
     1
102
RTVSPropertyOp13
 70
     1
102
RTVSPropertyOp14
 70
     1
102
RTVSPropertyOp15
 70
     1
102
RTVSPropertyOp16
 70
     1
102
RTVSPropertyOp17
 70
     1
102
RTVSPropertyOp18
 70
     1
102
RTVSPropertyOp19
 70
     1
102
RTVSPropertyOp20
 70
     1
102
RTVSPropertyOp21
 70
     1
102
RTVSPropertyOp22
 70
     1
102
RTVSPropertyOp23
 70
     1
102
RTVSPropertyOp24
 70
     1
102
RTVSPropertyOp25
 70
     1
102
RTVSPropertyOp26
 70
     1
102
RTVSPropertyOp27
 70
     1
102
RTVSPropertyOp28
 70
     1
102
RTVSPropertyOp29
 70
     1
102
RTVSPropertyOp30
 70
     1
102
RTVSPropertyOp31
 70
     1
102
RTVSPropertyOp32
 70
     1
102
RTVSPropertyOp33
 70
     1
102
RTVSPropertyOp34
 70
     1
102
RTVSPropertyOp35
 70
     1
102
RTVSPropertyOp36
 70
     1
102
RTVSPropertyOp37
 70
     1
102
RTVSPropertyOp38
 70
     1
102
RTVSPropertyOp39
 70
     1
102
RTVSPropertyOp40
 70
     1
102
RTVSPropertyOp41
 70
     1
102
RTVSPropertyOp42
 70
     1
102
RTVSPropertyOp43
 70
     1
102
RTVSPropertyOp44
 70
     1
102
RTVSPropertyOp45
 70
     1
102
RTVSPropertyOp46
 70
     1
102
RTVSPropertyOp47
 70
     1
102
RTVSPropertyOp48
 70
     1
102
RTVSPropertyOp49
 70
     1
102
RTVSPropertyOp50
 70
     1
102
RTVSPropertyOp51
 70
     0
102
RTVSPropertyOp52
 70
     0
102
RTVSPropertyOp53
 70
     1
102
RTVSPropertyOp54
 70
     1
102
RTVSPropertyOp55
 70
     1
102
RTVSPropertyOp56
 70
     1
102
RTVSPropertyOp57
 70
     1
102
RTVSPropertyOp58
 70
     1
102
RTVSPropertyOp59
 70
     1
102
RTVSPropertyOp60
 70
     1
102
RTVSPropertyOp61
 70
     1
102
RTVSPropertyOp62
 70
     1
  0
XRECORD
  5
EF0B
102
{ACAD_REACTORS
330
EF0A
102
}
330
EF0A
100
AcDbXrecord
280
     1
102
RTVSPost2010Prop28
280
     0
102
RTVSPost2010PropOp28
 70
     1
102
RTVSPost2010Prop29
280
     1
102
RTVSPost2010PropOp29
 70
     1
102
RTVSPost2010Prop30
280
     1
102
RTVSPost2010PropOp30
 70
     1
102
RTVSPost2010Prop31
280
     0
102
RTVSPost2010PropOp31
 70
     1
102
RTVSPost2010Prop32
280
     0
102
RTVSPost2010PropOp32
 70
     1
102
RTVSPost2010Prop33
280
     0
102
RTVSPost2010PropOp33
 70
     1
102
RTVSPost2010Prop34
280
     0
102
RTVSPost2010PropOp34
 70
     1
102
RTVSPost2010Prop35
280
     0
102
RTVSPost2010PropOp35
 70
     1
102
RTVSPost2010Prop36
280
     0
102
RTVSPost2010PropOp36
 70
     1
102
RTVSPost2010Prop37
 90
       50
102
RTVSPost2010PropOp37
 70
     1
102
RTVSPost2010Prop38
140
0.0
102
RTVSPost2010PropOp38
 70
     1
102
RTVSPost2010Prop39
140
1.0
102
RTVSPost2010PropOp39
 70
     1
102
RTVSPost2010Prop40
 90
        0
102
RTVSPost2010PropOp40
 70
     1
102
RTVSPost2010Prop41ColorIndex
 90
       18
102
RTVSPost2010Prop41ColorRGB
 90
        0
102
RTVSPost2010PropOp41
 70
     1
102
RTVSPost2010Prop42
 90
       50
102
RTVSPost2010PropOp42
 70
     1
102
RTVSPost2010Prop43
 90
        3
102
RTVSPost2010PropOp43
 70
     1
102
RTVSPost2010Prop44ColorIndex
 90
        5
102
RTVSPost2010Prop44ColorRGB
 90
      255
102
RTVSPost2010PropOp44
 70
     1
102
RTVSPost2010Prop45
280
     0
102
RTVSPost2010PropOp45
 70
     1
102
RTVSPost2010Prop46
 90
       50
102
RTVSPost2010PropOp46
 70
     1
102
RTVSPost2010Prop47
 90
       50
102
RTVSPost2010PropOp47
 70
     1
102
RTVSPost2010Prop48
 90
       50
102
RTVSPost2010PropOp48
 70
     1
102
RTVSPost2010Prop49
280
     0
102
RTVSPost2010PropOp49
 70
     1
102
RTVSPost2010Prop50
 90
       50
102
RTVSPost2010PropOp50
 70
     1
102
RTVSPost2010Prop51ColorIndex
 90
      256
102
RTVSPost2010Prop51ColorRGB
 90
-16777216
102
RTVSPost2010PropOp51
 70
     0
102
RTVSPost2010Prop52
140
1.0
102
RTVSPost2010PropOp52
 70
     0
102
RTVSPost2010Prop53
 90
        2
102
RTVSPost2010PropOp53
 70
     1
102
RTVSPost2010Prop54
  1
strokes_ogs.tif
102
RTVSPost2010PropOp54
 70
     1
102
RTVSPost2010Prop55
280
     0
102
RTVSPost2010PropOp55
 70
     1
102
RTVSPost2010Prop56
140
1.0
102
RTVSPost2010PropOp56
 70
     1
102
RTVSPost2010Prop57
140
1.0
102
RTVSPost2010PropOp57
 70
     1
102
RTVSPropertyOp0
 70
     1
102
RTVSPropertyOp1
 70
     1
102
RTVSPropertyOp2
 70
     1
102
RTVSPropertyOp3
 70
     1
102
RTVSPropertyOp4
 70
     1
102
RTVSPropertyOp5
 70
     1
102
RTVSPropertyOp6
 70
     1
102
RTVSPropertyOp7
 70
     1
102
RTVSPropertyOp8
 70
     1
102
RTVSPropertyOp9
 70
     1
102
RTVSPropertyOp10
 70
     1
102
RTVSPropertyOp11
 70
     1
102
RTVSPropertyOp12
 70
     1
102
RTVSPropertyOp13
 70
     1
102
RTVSPropertyOp14
 70
     1
102
RTVSPropertyOp15
 70
     1
102
RTVSPropertyOp16
 70
     1
102
RTVSPropertyOp17
 70
     1
102
RTVSPropertyOp18
 70
     1
102
RTVSPropertyOp19
 70
     1
102
RTVSPropertyOp20
 70
     1
102
RTVSPropertyOp21
 70
     1
102
RTVSPropertyOp22
 70
     1
102
RTVSPropertyOp23
 70
     1
102
RTVSPropertyOp24
 70
     1
102
RTVSPropertyOp25
 70
     1
102
RTVSPropertyOp26
 70
     1
102
RTVSPropertyOp27
 70
     1
102
RTVSPropertyOp28
 70
     1
102
RTVSPropertyOp29
 70
     1
102
RTVSPropertyOp30
 70
     1
102
RTVSPropertyOp31
 70
     1
102
RTVSPropertyOp32
 70
     1
102
RTVSPropertyOp33
 70
     1
102
RTVSPropertyOp34
 70
     1
102
RTVSPropertyOp35
 70
     1
102
RTVSPropertyOp36
 70
     1
102
RTVSPropertyOp37
 70
     1
102
RTVSPropertyOp38
 70
     1
102
RTVSPropertyOp39
 70
     1
102
RTVSPropertyOp40
 70
     1
102
RTVSPropertyOp41
 70
     1
102
RTVSPropertyOp42
 70
     1
102
RTVSPropertyOp43
 70
     1
102
RTVSPropertyOp44
 70
     1
102
RTVSPropertyOp45
 70
     1
102
RTVSPropertyOp46
 70
     1
102
RTVSPropertyOp47
 70
     1
102
RTVSPropertyOp48
 70
     1
102
RTVSPropertyOp49
 70
     1
102
RTVSPropertyOp50
 70
     1
102
RTVSPropertyOp51
 70
     0
102
RTVSPropertyOp52
 70
     0
102
RTVSPropertyOp53
 70
     1
102
RTVSPropertyOp54
 70
     1
102
RTVSPropertyOp55
 70
     1
102
RTVSPropertyOp56
 70
     1
102
RTVSPropertyOp57
 70
     1
102
RTVSPropertyOp58
 70
     1
102
RTVSPropertyOp59
 70
     1
102
RTVSPropertyOp60
 70
     1
102
RTVSPropertyOp61
 70
     1
102
RTVSPropertyOp62
 70
     1
  0
XRECORD
  5
EEFD
102
{ACAD_REACTORS
330
EEFC
102
}
330
EEFC
100
AcDbXrecord
280
     1
102
RTVSPost2010Prop28
280
     0
102
RTVSPost2010PropOp28
 70
     1
102
RTVSPost2010Prop29
280
     1
102
RTVSPost2010PropOp29
 70
     1
102
RTVSPost2010Prop30
280
     1
102
RTVSPost2010PropOp30
 70
     1
102
RTVSPost2010Prop31
280
     0
102
RTVSPost2010PropOp31
 70
     1
102
RTVSPost2010Prop32
280
     0
102
RTVSPost2010PropOp32
 70
     1
102
RTVSPost2010Prop33
280
     0
102
RTVSPost2010PropOp33
 70
     1
102
RTVSPost2010Prop34
280
     0
102
RTVSPost2010PropOp34
 70
     1
102
RTVSPost2010Prop35
280
     0
102
RTVSPost2010PropOp35
 70
     1
102
RTVSPost2010Prop36
280
     0
102
RTVSPost2010PropOp36
 70
     1
102
RTVSPost2010Prop37
 90
       50
102
RTVSPost2010PropOp37
 70
     1
102
RTVSPost2010Prop38
140
0.0
102
RTVSPost2010PropOp38
 70
     1
102
RTVSPost2010Prop39
140
1.0
102
RTVSPost2010PropOp39
 70
     1
102
RTVSPost2010Prop40
 90
        0
102
RTVSPost2010PropOp40
 70
     1
102
RTVSPost2010Prop41ColorIndex
 90
       18
102
RTVSPost2010Prop41ColorRGB
 90
        0
102
RTVSPost2010PropOp41
 70
     1
102
RTVSPost2010Prop42
 90
       50
102
RTVSPost2010PropOp42
 70
     1
102
RTVSPost2010Prop43
 90
        3
102
RTVSPost2010PropOp43
 70
     1
102
RTVSPost2010Prop44ColorIndex
 90
        5
102
RTVSPost2010Prop44ColorRGB
 90
      255
102
RTVSPost2010PropOp44
 70
     1
102
RTVSPost2010Prop45
280
     0
102
RTVSPost2010PropOp45
 70
     1
102
RTVSPost2010Prop46
 90
       50
102
RTVSPost2010PropOp46
 70
     1
102
RTVSPost2010Prop47
 90
       50
102
RTVSPost2010PropOp47
 70
     1
102
RTVSPost2010Prop48
 90
       50
102
RTVSPost2010PropOp48
 70
     1
102
RTVSPost2010Prop49
280
     0
102
RTVSPost2010PropOp49
 70
     1
102
RTVSPost2010Prop50
 90
       50
102
RTVSPost2010PropOp50
 70
     1
102
RTVSPost2010Prop51ColorIndex
 90
      256
102
RTVSPost2010Prop51ColorRGB
 90
-16777216
102
RTVSPost2010PropOp51
 70
     0
102
RTVSPost2010Prop52
140
1.0
102
RTVSPost2010PropOp52
 70
     0
102
RTVSPost2010Prop53
 90
        2
102
RTVSPost2010PropOp53
 70
     1
102
RTVSPost2010Prop54
  1
strokes_ogs.tif
102
RTVSPost2010PropOp54
 70
     1
102
RTVSPost2010Prop55
280
     0
102
RTVSPost2010PropOp55
 70
     1
102
RTVSPost2010Prop56
140
1.0
102
RTVSPost2010PropOp56
 70
     1
102
RTVSPost2010Prop57
140
1.0
102
RTVSPost2010PropOp57
 70
     1
102
RTVSPropertyOp0
 70
     1
102
RTVSPropertyOp1
 70
     1
102
RTVSPropertyOp2
 70
     1
102
RTVSPropertyOp3
 70
     1
102
RTVSPropertyOp4
 70
     1
102
RTVSPropertyOp5
 70
     1
102
RTVSPropertyOp6
 70
     1
102
RTVSPropertyOp7
 70
     1
102
RTVSPropertyOp8
 70
     1
102
RTVSPropertyOp9
 70
     1
102
RTVSPropertyOp10
 70
     1
102
RTVSPropertyOp11
 70
     1
102
RTVSPropertyOp12
 70
     1
102
RTVSPropertyOp13
 70
     1
102
RTVSPropertyOp14
 70
     1
102
RTVSPropertyOp15
 70
     1
102
RTVSPropertyOp16
 70
     1
102
RTVSPropertyOp17
 70
     1
102
RTVSPropertyOp18
 70
     1
102
RTVSPropertyOp19
 70
     1
102
RTVSPropertyOp20
 70
     1
102
RTVSPropertyOp21
 70
     1
102
RTVSPropertyOp22
 70
     1
102
RTVSPropertyOp23
 70
     1
102
RTVSPropertyOp24
 70
     1
102
RTVSPropertyOp25
 70
     1
102
RTVSPropertyOp26
 70
     1
102
RTVSPropertyOp27
 70
     1
102
RTVSPropertyOp28
 70
     1
102
RTVSPropertyOp29
 70
     1
102
RTVSPropertyOp30
 70
     1
102
RTVSPropertyOp31
 70
     1
102
RTVSPropertyOp32
 70
     1
102
RTVSPropertyOp33
 70
     1
102
RTVSPropertyOp34
 70
     1
102
RTVSPropertyOp35
 70
     1
102
RTVSPropertyOp36
 70
     1
102
RTVSPropertyOp37
 70
     1
102
RTVSPropertyOp38
 70
     1
102
RTVSPropertyOp39
 70
     1
102
RTVSPropertyOp40
 70
     1
102
RTVSPropertyOp41
 70
     1
102
RTVSPropertyOp42
 70
     1
102
RTVSPropertyOp43
 70
     1
102
RTVSPropertyOp44
 70
     1
102
RTVSPropertyOp45
 70
     1
102
RTVSPropertyOp46
 70
     1
102
RTVSPropertyOp47
 70
     1
102
RTVSPropertyOp48
 70
     1
102
RTVSPropertyOp49
 70
     1
102
RTVSPropertyOp50
 70
     1
102
RTVSPropertyOp51
 70
     0
102
RTVSPropertyOp52
 70
     0
102
RTVSPropertyOp53
 70
     1
102
RTVSPropertyOp54
 70
     1
102
RTVSPropertyOp55
 70
     1
102
RTVSPropertyOp56
 70
     1
102
RTVSPropertyOp57
 70
     1
102
RTVSPropertyOp58
 70
     1
102
RTVSPropertyOp59
 70
     1
102
RTVSPropertyOp60
 70
     1
102
RTVSPropertyOp61
 70
     1
102
RTVSPropertyOp62
 70
     1
  0
XRECORD
  5
EF01
102
{ACAD_REACTORS
330
EF00
102
}
330
EF00
100
AcDbXrecord
280
     1
102
RTVSPost2010Prop28
280
     0
102
RTVSPost2010PropOp28
 70
     1
102
RTVSPost2010Prop29
280
     1
102
RTVSPost2010PropOp29
 70
     1
102
RTVSPost2010Prop30
280
     1
102
RTVSPost2010PropOp30
 70
     1
102
RTVSPost2010Prop31
280
     0
102
RTVSPost2010PropOp31
 70
     1
102
RTVSPost2010Prop32
280
     0
102
RTVSPost2010PropOp32
 70
     1
102
RTVSPost2010Prop33
280
     0
102
RTVSPost2010PropOp33
 70
     1
102
RTVSPost2010Prop34
280
     0
102
RTVSPost2010PropOp34
 70
     1
102
RTVSPost2010Prop35
280
     0
102
RTVSPost2010PropOp35
 70
     1
102
RTVSPost2010Prop36
280
     0
102
RTVSPost2010PropOp36
 70
     1
102
RTVSPost2010Prop37
 90
       50
102
RTVSPost2010PropOp37
 70
     1
102
RTVSPost2010Prop38
140
0.0
102
RTVSPost2010PropOp38
 70
     1
102
RTVSPost2010Prop39
140
1.0
102
RTVSPost2010PropOp39
 70
     1
102
RTVSPost2010Prop40
 90
        0
102
RTVSPost2010PropOp40
 70
     1
102
RTVSPost2010Prop41ColorIndex
 90
       18
102
RTVSPost2010Prop41ColorRGB
 90
        0
102
RTVSPost2010PropOp41
 70
     1
102
RTVSPost2010Prop42
 90
       50
102
RTVSPost2010PropOp42
 70
     1
102
RTVSPost2010Prop43
 90
        3
102
RTVSPost2010PropOp43
 70
     1
102
RTVSPost2010Prop44ColorIndex
 90
        5
102
RTVSPost2010Prop44ColorRGB
 90
      255
102
RTVSPost2010PropOp44
 70
     1
102
RTVSPost2010Prop45
280
     0
102
RTVSPost2010PropOp45
 70
     1
102
RTVSPost2010Prop46
 90
       50
102
RTVSPost2010PropOp46
 70
     1
102
RTVSPost2010Prop47
 90
       50
102
RTVSPost2010PropOp47
 70
     1
102
RTVSPost2010Prop48
 90
       50
102
RTVSPost2010PropOp48
 70
     1
102
RTVSPost2010Prop49
280
     0
102
RTVSPost2010PropOp49
 70
     1
102
RTVSPost2010Prop50
 90
       50
102
RTVSPost2010PropOp50
 70
     1
102
RTVSPost2010Prop51ColorIndex
 90
      256
102
RTVSPost2010Prop51ColorRGB
 90
-16777216
102
RTVSPost2010PropOp51
 70
     0
102
RTVSPost2010Prop52
140
1.0
102
RTVSPost2010PropOp52
 70
     0
102
RTVSPost2010Prop53
 90
        2
102
RTVSPost2010PropOp53
 70
     1
102
RTVSPost2010Prop54
  1
strokes_ogs.tif
102
RTVSPost2010PropOp54
 70
     1
102
RTVSPost2010Prop55
280
     0
102
RTVSPost2010PropOp55
 70
     1
102
RTVSPost2010Prop56
140
1.0
102
RTVSPost2010PropOp56
 70
     1
102
RTVSPost2010Prop57
140
1.0
102
RTVSPost2010PropOp57
 70
     1
102
RTVSPropertyOp0
 70
     1
102
RTVSPropertyOp1
 70
     1
102
RTVSPropertyOp2
 70
     1
102
RTVSPropertyOp3
 70
     1
102
RTVSPropertyOp4
 70
     1
102
RTVSPropertyOp5
 70
     1
102
RTVSPropertyOp6
 70
     1
102
RTVSPropertyOp7
 70
     1
102
RTVSPropertyOp8
 70
     1
102
RTVSPropertyOp9
 70
     1
102
RTVSPropertyOp10
 70
     1
102
RTVSPropertyOp11
 70
     1
102
RTVSPropertyOp12
 70
     1
102
RTVSPropertyOp13
 70
     1
102
RTVSPropertyOp14
 70
     1
102
RTVSPropertyOp15
 70
     1
102
RTVSPropertyOp16
 70
     1
102
RTVSPropertyOp17
 70
     1
102
RTVSPropertyOp18
 70
     1
102
RTVSPropertyOp19
 70
     1
102
RTVSPropertyOp20
 70
     1
102
RTVSPropertyOp21
 70
     1
102
RTVSPropertyOp22
 70
     1
102
RTVSPropertyOp23
 70
     1
102
RTVSPropertyOp24
 70
     1
102
RTVSPropertyOp25
 70
     1
102
RTVSPropertyOp26
 70
     1
102
RTVSPropertyOp27
 70
     1
102
RTVSPropertyOp28
 70
     1
102
RTVSPropertyOp29
 70
     1
102
RTVSPropertyOp30
 70
     1
102
RTVSPropertyOp31
 70
     1
102
RTVSPropertyOp32
 70
     1
102
RTVSPropertyOp33
 70
     1
102
RTVSPropertyOp34
 70
     1
102
RTVSPropertyOp35
 70
     1
102
RTVSPropertyOp36
 70
     1
102
RTVSPropertyOp37
 70
     1
102
RTVSPropertyOp38
 70
     1
102
RTVSPropertyOp39
 70
     1
102
RTVSPropertyOp40
 70
     1
102
RTVSPropertyOp41
 70
     1
102
RTVSPropertyOp42
 70
     1
102
RTVSPropertyOp43
 70
     1
102
RTVSPropertyOp44
 70
     1
102
RTVSPropertyOp45
 70
     1
102
RTVSPropertyOp46
 70
     1
102
RTVSPropertyOp47
 70
     1
102
RTVSPropertyOp48
 70
     1
102
RTVSPropertyOp49
 70
     1
102
RTVSPropertyOp50
 70
     1
102
RTVSPropertyOp51
 70
     0
102
RTVSPropertyOp52
 70
     0
102
RTVSPropertyOp53
 70
     1
102
RTVSPropertyOp54
 70
     1
102
RTVSPropertyOp55
 70
     1
102
RTVSPropertyOp56
 70
     1
102
RTVSPropertyOp57
 70
     1
102
RTVSPropertyOp58
 70
     1
102
RTVSPropertyOp59
 70
     1
102
RTVSPropertyOp60
 70
     1
102
RTVSPropertyOp61
 70
     1
102
RTVSPropertyOp62
 70
     1
  0
XRECORD
  5
EF24
102
{ACAD_REACTORS
330
EF23
102
}
330
EF23
100
AcDbXrecord
280
     1
102
RTVSPost2010Prop28
280
     0
102
RTVSPost2010PropOp28
 70
     0
102
RTVSPost2010Prop29
280
     1
102
RTVSPost2010PropOp29
 70
     0
102
RTVSPost2010Prop30
280
     1
102
RTVSPost2010PropOp30
 70
     0
102
RTVSPost2010Prop31
280
     0
102
RTVSPost2010PropOp31
 70
     0
102
RTVSPost2010Prop32
280
     0
102
RTVSPost2010PropOp32
 70
     0
102
RTVSPost2010Prop33
280
     0
102
RTVSPost2010PropOp33
 70
     0
102
RTVSPost2010Prop34
280
     0
102
RTVSPost2010PropOp34
 70
     0
102
RTVSPost2010Prop35
280
     0
102
RTVSPost2010PropOp35
 70
     0
102
RTVSPost2010Prop36
280
     0
102
RTVSPost2010PropOp36
 70
     0
102
RTVSPost2010Prop37
 90
       50
102
RTVSPost2010PropOp37
 70
     0
102
RTVSPost2010Prop38
140
0.0
102
RTVSPost2010PropOp38
 70
     0
102
RTVSPost2010Prop39
140
1.0
102
RTVSPost2010PropOp39
 70
     0
102
RTVSPost2010Prop40
 90
        0
102
RTVSPost2010PropOp40
 70
     0
102
RTVSPost2010Prop41ColorIndex
 90
       18
102
RTVSPost2010Prop41ColorRGB
 90
        0
102
RTVSPost2010PropOp41
 70
     0
102
RTVSPost2010Prop42
 90
       50
102
RTVSPost2010PropOp42
 70
     0
102
RTVSPost2010Prop43
 90
        3
102
RTVSPost2010PropOp43
 70
     0
102
RTVSPost2010Prop44ColorIndex
 90
        5
102
RTVSPost2010Prop44ColorRGB
 90
      255
102
RTVSPost2010PropOp44
 70
     0
102
RTVSPost2010Prop45
280
     0
102
RTVSPost2010PropOp45
 70
     0
102
RTVSPost2010Prop46
 90
       50
102
RTVSPost2010PropOp46
 70
     0
102
RTVSPost2010Prop47
 90
       50
102
RTVSPost2010PropOp47
 70
     0
102
RTVSPost2010Prop48
 90
       50
102
RTVSPost2010PropOp48
 70
     0
102
RTVSPost2010Prop49
280
     0
102
RTVSPost2010PropOp49
 70
     0
102
RTVSPost2010Prop50
 90
       50
102
RTVSPost2010PropOp50
 70
     0
102
RTVSPost2010Prop51ColorIndex
 90
      256
102
RTVSPost2010Prop51ColorRGB
 90
-16777216
102
RTVSPost2010PropOp51
 70
     0
102
RTVSPost2010Prop52
140
1.0
102
RTVSPost2010PropOp52
 70
     0
102
RTVSPost2010Prop53
 90
        2
102
RTVSPost2010PropOp53
 70
     0
102
RTVSPost2010Prop54
  1
strokes_ogs.tif
102
RTVSPost2010PropOp54
 70
     0
102
RTVSPost2010Prop55
280
     0
102
RTVSPost2010PropOp55
 70
     0
102
RTVSPost2010Prop56
140
1.0
102
RTVSPost2010PropOp56
 70
     0
102
RTVSPost2010Prop57
140
1.0
102
RTVSPost2010PropOp57
 70
     0
102
RTVSPropertyOp0
 70
     0
102
RTVSPropertyOp1
 70
     0
102
RTVSPropertyOp2
 70
     0
102
RTVSPropertyOp3
 70
     0
102
RTVSPropertyOp4
 70
     0
102
RTVSPropertyOp5
 70
     0
102
RTVSPropertyOp6
 70
     0
102
RTVSPropertyOp7
 70
     0
102
RTVSPropertyOp8
 70
     0
102
RTVSPropertyOp9
 70
     0
102
RTVSPropertyOp10
 70
     0
102
RTVSPropertyOp11
 70
     0
102
RTVSPropertyOp12
 70
     0
102
RTVSPropertyOp13
 70
     0
102
RTVSPropertyOp14
 70
     2
102
RTVSPropertyOp15
 70
     0
102
RTVSPropertyOp16
 70
     0
102
RTVSPropertyOp17
 70
     0
102
RTVSPropertyOp18
 70
     0
102
RTVSPropertyOp19
 70
     0
102
RTVSPropertyOp20
 70
     0
102
RTVSPropertyOp21
 70
     0
102
RTVSPropertyOp22
 70
     0
102
RTVSPropertyOp23
 70
     0
102
RTVSPropertyOp24
 70
     0
102
RTVSPropertyOp25
 70
     0
102
RTVSPropertyOp26
 70
     0
102
RTVSPropertyOp27
 70
     0
102
RTVSPropertyOp28
 70
     0
102
RTVSPropertyOp29
 70
     0
102
RTVSPropertyOp30
 70
     0
102
RTVSPropertyOp31
 70
     0
102
RTVSPropertyOp32
 70
     0
102
RTVSPropertyOp33
 70
     0
102
RTVSPropertyOp34
 70
     0
102
RTVSPropertyOp35
 70
     0
102
RTVSPropertyOp36
 70
     0
102
RTVSPropertyOp37
 70
     0
102
RTVSPropertyOp38
 70
     0
102
RTVSPropertyOp39
 70
     0
102
RTVSPropertyOp40
 70
     0
102
RTVSPropertyOp41
 70
     0
102
RTVSPropertyOp42
 70
     0
102
RTVSPropertyOp43
 70
     0
102
RTVSPropertyOp44
 70
     0
102
RTVSPropertyOp45
 70
     0
102
RTVSPropertyOp46
 70
     0
102
RTVSPropertyOp47
 70
     0
102
RTVSPropertyOp48
 70
     0
102
RTVSPropertyOp49
 70
     0
102
RTVSPropertyOp50
 70
     0
102
RTVSPropertyOp51
 70
     0
102
RTVSPropertyOp52
 70
     0
102
RTVSPropertyOp53
 70
     0
102
RTVSPropertyOp54
 70
     0
102
RTVSPropertyOp55
 70
     0
102
RTVSPropertyOp56
 70
     0
102
RTVSPropertyOp57
 70
     0
102
RTVSPropertyOp58
 70
     1
102
RTVSPropertyOp59
 70
     1
102
RTVSPropertyOp60
 70
     1
102
RTVSPropertyOp61
 70
     1
102
RTVSPropertyOp62
 70
     1
  0
XRECORD
  5
EF09
102
{ACAD_REACTORS
330
EF08
102
}
330
EF08
100
AcDbXrecord
280
     1
102
RTVSPost2010Prop28
280
     0
102
RTVSPost2010PropOp28
 70
     1
102
RTVSPost2010Prop29
280
     1
102
RTVSPost2010PropOp29
 70
     1
102
RTVSPost2010Prop30
280
     1
102
RTVSPost2010PropOp30
 70
     1
102
RTVSPost2010Prop31
280
     0
102
RTVSPost2010PropOp31
 70
     1
102
RTVSPost2010Prop32
280
     0
102
RTVSPost2010PropOp32
 70
     1
102
RTVSPost2010Prop33
280
     0
102
RTVSPost2010PropOp33
 70
     1
102
RTVSPost2010Prop34
280
     0
102
RTVSPost2010PropOp34
 70
     1
102
RTVSPost2010Prop35
280
     0
102
RTVSPost2010PropOp35
 70
     1
102
RTVSPost2010Prop36
280
     0
102
RTVSPost2010PropOp36
 70
     1
102
RTVSPost2010Prop37
 90
       50
102
RTVSPost2010PropOp37
 70
     1
102
RTVSPost2010Prop38
140
0.0
102
RTVSPost2010PropOp38
 70
     1
102
RTVSPost2010Prop39
140
1.0
102
RTVSPost2010PropOp39
 70
     1
102
RTVSPost2010Prop40
 90
        0
102
RTVSPost2010PropOp40
 70
     1
102
RTVSPost2010Prop41ColorIndex
 90
       18
102
RTVSPost2010Prop41ColorRGB
 90
        0
102
RTVSPost2010PropOp41
 70
     1
102
RTVSPost2010Prop42
 90
       50
102
RTVSPost2010PropOp42
 70
     1
102
RTVSPost2010Prop43
 90
        3
102
RTVSPost2010PropOp43
 70
     1
102
RTVSPost2010Prop44ColorIndex
 90
        5
102
RTVSPost2010Prop44ColorRGB
 90
      255
102
RTVSPost2010PropOp44
 70
     1
102
RTVSPost2010Prop45
280
     0
102
RTVSPost2010PropOp45
 70
     1
102
RTVSPost2010Prop46
 90
       50
102
RTVSPost2010PropOp46
 70
     1
102
RTVSPost2010Prop47
 90
       50
102
RTVSPost2010PropOp47
 70
     1
102
RTVSPost2010Prop48
 90
       50
102
RTVSPost2010PropOp48
 70
     1
102
RTVSPost2010Prop49
280
     0
102
RTVSPost2010PropOp49
 70
     1
102
RTVSPost2010Prop50
 90
       50
102
RTVSPost2010PropOp50
 70
     1
102
RTVSPost2010Prop51ColorIndex
 90
      256
102
RTVSPost2010Prop51ColorRGB
 90
-16777216
102
RTVSPost2010PropOp51
 70
     0
102
RTVSPost2010Prop52
140
1.0
102
RTVSPost2010PropOp52
 70
     0
102
RTVSPost2010Prop53
 90
        2
102
RTVSPost2010PropOp53
 70
     1
102
RTVSPost2010Prop54
  1
strokes_ogs.tif
102
RTVSPost2010PropOp54
 70
     1
102
RTVSPost2010Prop55
280
     0
102
RTVSPost2010PropOp55
 70
     1
102
RTVSPost2010Prop56
140
1.0
102
RTVSPost2010PropOp56
 70
     1
102
RTVSPost2010Prop57
140
1.0
102
RTVSPost2010PropOp57
 70
     1
102
RTVSPropertyOp0
 70
     1
102
RTVSPropertyOp1
 70
     1
102
RTVSPropertyOp2
 70
     1
102
RTVSPropertyOp3
 70
     1
102
RTVSPropertyOp4
 70
     1
102
RTVSPropertyOp5
 70
     1
102
RTVSPropertyOp6
 70
     1
102
RTVSPropertyOp7
 70
     1
102
RTVSPropertyOp8
 70
     1
102
RTVSPropertyOp9
 70
     1
102
RTVSPropertyOp10
 70
     1
102
RTVSPropertyOp11
 70
     1
102
RTVSPropertyOp12
 70
     1
102
RTVSPropertyOp13
 70
     1
102
RTVSPropertyOp14
 70
     1
102
RTVSPropertyOp15
 70
     1
102
RTVSPropertyOp16
 70
     1
102
RTVSPropertyOp17
 70
     1
102
RTVSPropertyOp18
 70
     1
102
RTVSPropertyOp19
 70
     1
102
RTVSPropertyOp20
 70
     1
102
RTVSPropertyOp21
 70
     1
102
RTVSPropertyOp22
 70
     1
102
RTVSPropertyOp23
 70
     1
102
RTVSPropertyOp24
 70
     1
102
RTVSPropertyOp25
 70
     1
102
RTVSPropertyOp26
 70
     1
102
RTVSPropertyOp27
 70
     1
102
RTVSPropertyOp28
 70
     1
102
RTVSPropertyOp29
 70
     1
102
RTVSPropertyOp30
 70
     1
102
RTVSPropertyOp31
 70
     1
102
RTVSPropertyOp32
 70
     1
102
RTVSPropertyOp33
 70
     1
102
RTVSPropertyOp34
 70
     1
102
RTVSPropertyOp35
 70
     1
102
RTVSPropertyOp36
 70
     1
102
RTVSPropertyOp37
 70
     1
102
RTVSPropertyOp38
 70
     1
102
RTVSPropertyOp39
 70
     1
102
RTVSPropertyOp40
 70
     1
102
RTVSPropertyOp41
 70
     1
102
RTVSPropertyOp42
 70
     1
102
RTVSPropertyOp43
 70
     1
102
RTVSPropertyOp44
 70
     1
102
RTVSPropertyOp45
 70
     1
102
RTVSPropertyOp46
 70
     1
102
RTVSPropertyOp47
 70
     1
102
RTVSPropertyOp48
 70
     1
102
RTVSPropertyOp49
 70
     1
102
RTVSPropertyOp50
 70
     1
102
RTVSPropertyOp51
 70
     0
102
RTVSPropertyOp52
 70
     0
102
RTVSPropertyOp53
 70
     1
102
RTVSPropertyOp54
 70
     1
102
RTVSPropertyOp55
 70
     1
102
RTVSPropertyOp56
 70
     1
102
RTVSPropertyOp57
 70
     1
102
RTVSPropertyOp58
 70
     1
102
RTVSPropertyOp59
 70
     1
102
RTVSPropertyOp60
 70
     1
102
RTVSPropertyOp61
 70
     1
102
RTVSPropertyOp62
 70
     1
  0
XRECORD
  5
EEED
102
{ACAD_REACTORS
330
EEEC
102
}
330
EEEC
100
AcDbXrecord
280
     1
102
RTVSPost2010Prop28
280
     0
102
RTVSPost2010PropOp28
 70
     1
102
RTVSPost2010Prop29
280
     1
102
RTVSPost2010PropOp29
 70
     1
102
RTVSPost2010Prop30
280
     1
102
RTVSPost2010PropOp30
 70
     1
102
RTVSPost2010Prop31
280
     0
102
RTVSPost2010PropOp31
 70
     1
102
RTVSPost2010Prop32
280
     0
102
RTVSPost2010PropOp32
 70
     1
102
RTVSPost2010Prop33
280
     0
102
RTVSPost2010PropOp33
 70
     1
102
RTVSPost2010Prop34
280
     0
102
RTVSPost2010PropOp34
 70
     1
102
RTVSPost2010Prop35
280
     0
102
RTVSPost2010PropOp35
 70
     1
102
RTVSPost2010Prop36
280
     0
102
RTVSPost2010PropOp36
 70
     1
102
RTVSPost2010Prop37
 90
       50
102
RTVSPost2010PropOp37
 70
     1
102
RTVSPost2010Prop38
140
0.0
102
RTVSPost2010PropOp38
 70
     1
102
RTVSPost2010Prop39
140
1.0
102
RTVSPost2010PropOp39
 70
     1
102
RTVSPost2010Prop40
 90
        0
102
RTVSPost2010PropOp40
 70
     1
102
RTVSPost2010Prop41ColorIndex
 90
       18
102
RTVSPost2010Prop41ColorRGB
 90
        0
102
RTVSPost2010PropOp41
 70
     1
102
RTVSPost2010Prop42
 90
       50
102
RTVSPost2010PropOp42
 70
     1
102
RTVSPost2010Prop43
 90
        3
102
RTVSPost2010PropOp43
 70
     1
102
RTVSPost2010Prop44ColorIndex
 90
        5
102
RTVSPost2010Prop44ColorRGB
 90
      255
102
RTVSPost2010PropOp44
 70
     1
102
RTVSPost2010Prop45
280
     0
102
RTVSPost2010PropOp45
 70
     1
102
RTVSPost2010Prop46
 90
       50
102
RTVSPost2010PropOp46
 70
     1
102
RTVSPost2010Prop47
 90
       50
102
RTVSPost2010PropOp47
 70
     1
102
RTVSPost2010Prop48
 90
       50
102
RTVSPost2010PropOp48
 70
     1
102
RTVSPost2010Prop49
280
     0
102
RTVSPost2010PropOp49
 70
     1
102
RTVSPost2010Prop50
 90
       50
102
RTVSPost2010PropOp50
 70
     1
102
RTVSPost2010Prop51ColorIndex
 90
      256
102
RTVSPost2010Prop51ColorRGB
 90
-16777216
102
RTVSPost2010PropOp51
 70
     0
102
RTVSPost2010Prop52
140
1.0
102
RTVSPost2010PropOp52
 70
     0
102
RTVSPost2010Prop53
 90
        2
102
RTVSPost2010PropOp53
 70
     1
102
RTVSPost2010Prop54
  1
strokes_ogs.tif
102
RTVSPost2010PropOp54
 70
     1
102
RTVSPost2010Prop55
280
     0
102
RTVSPost2010PropOp55
 70
     1
102
RTVSPost2010Prop56
140
1.0
102
RTVSPost2010PropOp56
 70
     1
102
RTVSPost2010Prop57
140
1.0
102
RTVSPost2010PropOp57
 70
     1
102
RTVSPropertyOp0
 70
     1
102
RTVSPropertyOp1
 70
     1
102
RTVSPropertyOp2
 70
     1
102
RTVSPropertyOp3
 70
     1
102
RTVSPropertyOp4
 70
     1
102
RTVSPropertyOp5
 70
     1
102
RTVSPropertyOp6
 70
     1
102
RTVSPropertyOp7
 70
     1
102
RTVSPropertyOp8
 70
     1
102
RTVSPropertyOp9
 70
     1
102
RTVSPropertyOp10
 70
     1
102
RTVSPropertyOp11
 70
     1
102
RTVSPropertyOp12
 70
     1
102
RTVSPropertyOp13
 70
     1
102
RTVSPropertyOp14
 70
     1
102
RTVSPropertyOp15
 70
     1
102
RTVSPropertyOp16
 70
     1
102
RTVSPropertyOp17
 70
     1
102
RTVSPropertyOp18
 70
     1
102
RTVSPropertyOp19
 70
     1
102
RTVSPropertyOp20
 70
     1
102
RTVSPropertyOp21
 70
     1
102
RTVSPropertyOp22
 70
     1
102
RTVSPropertyOp23
 70
     1
102
RTVSPropertyOp24
 70
     1
102
RTVSPropertyOp25
 70
     1
102
RTVSPropertyOp26
 70
     1
102
RTVSPropertyOp27
 70
     1
102
RTVSPropertyOp28
 70
     1
102
RTVSPropertyOp29
 70
     1
102
RTVSPropertyOp30
 70
     1
102
RTVSPropertyOp31
 70
     1
102
RTVSPropertyOp32
 70
     1
102
RTVSPropertyOp33
 70
     1
102
RTVSPropertyOp34
 70
     1
102
RTVSPropertyOp35
 70
     1
102
RTVSPropertyOp36
 70
     1
102
RTVSPropertyOp37
 70
     1
102
RTVSPropertyOp38
 70
     1
102
RTVSPropertyOp39
 70
     1
102
RTVSPropertyOp40
 70
     1
102
RTVSPropertyOp41
 70
     1
102
RTVSPropertyOp42
 70
     1
102
RTVSPropertyOp43
 70
     1
102
RTVSPropertyOp44
 70
     1
102
RTVSPropertyOp45
 70
     1
102
RTVSPropertyOp46
 70
     1
102
RTVSPropertyOp47
 70
     1
102
RTVSPropertyOp48
 70
     1
102
RTVSPropertyOp49
 70
     1
102
RTVSPropertyOp50
 70
     1
102
RTVSPropertyOp51
 70
     0
102
RTVSPropertyOp52
 70
     0
102
RTVSPropertyOp53
 70
     1
102
RTVSPropertyOp54
 70
     1
102
RTVSPropertyOp55
 70
     1
102
RTVSPropertyOp56
 70
     1
102
RTVSPropertyOp57
 70
     1
102
RTVSPropertyOp58
 70
     1
102
RTVSPropertyOp59
 70
     1
102
RTVSPropertyOp60
 70
     1
102
RTVSPropertyOp61
 70
     1
102
RTVSPropertyOp62
 70
     1
  0
XRECORD
  5
EEEF
102
{ACAD_REACTORS
330
EEEE
102
}
330
EEEE
100
AcDbXrecord
280
     1
102
RTVSPost2010Prop28
280
     0
102
RTVSPost2010PropOp28
 70
     1
102
RTVSPost2010Prop29
280
     1
102
RTVSPost2010PropOp29
 70
     1
102
RTVSPost2010Prop30
280
     1
102
RTVSPost2010PropOp30
 70
     1
102
RTVSPost2010Prop31
280
     0
102
RTVSPost2010PropOp31
 70
     1
102
RTVSPost2010Prop32
280
     0
102
RTVSPost2010PropOp32
 70
     1
102
RTVSPost2010Prop33
280
     0
102
RTVSPost2010PropOp33
 70
     1
102
RTVSPost2010Prop34
280
     0
102
RTVSPost2010PropOp34
 70
     1
102
RTVSPost2010Prop35
280
     0
102
RTVSPost2010PropOp35
 70
     1
102
RTVSPost2010Prop36
280
     0
102
RTVSPost2010PropOp36
 70
     1
102
RTVSPost2010Prop37
 90
       50
102
RTVSPost2010PropOp37
 70
     1
102
RTVSPost2010Prop38
140
0.0
102
RTVSPost2010PropOp38
 70
     1
102
RTVSPost2010Prop39
140
1.0
102
RTVSPost2010PropOp39
 70
     1
102
RTVSPost2010Prop40
 90
        0
102
RTVSPost2010PropOp40
 70
     1
102
RTVSPost2010Prop41ColorIndex
 90
       18
102
RTVSPost2010Prop41ColorRGB
 90
        0
102
RTVSPost2010PropOp41
 70
     1
102
RTVSPost2010Prop42
 90
       50
102
RTVSPost2010PropOp42
 70
     1
102
RTVSPost2010Prop43
 90
        3
102
RTVSPost2010PropOp43
 70
     1
102
RTVSPost2010Prop44ColorIndex
 90
        5
102
RTVSPost2010Prop44ColorRGB
 90
      255
102
RTVSPost2010PropOp44
 70
     1
102
RTVSPost2010Prop45
280
     0
102
RTVSPost2010PropOp45
 70
     1
102
RTVSPost2010Prop46
 90
       50
102
RTVSPost2010PropOp46
 70
     1
102
RTVSPost2010Prop47
 90
       50
102
RTVSPost2010PropOp47
 70
     1
102
RTVSPost2010Prop48
 90
       50
102
RTVSPost2010PropOp48
 70
     1
102
RTVSPost2010Prop49
280
     0
102
RTVSPost2010PropOp49
 70
     1
102
RTVSPost2010Prop50
 90
       50
102
RTVSPost2010PropOp50
 70
     1
102
RTVSPost2010Prop51ColorIndex
 90
      256
102
RTVSPost2010Prop51ColorRGB
 90
-16777216
102
RTVSPost2010PropOp51
 70
     0
102
RTVSPost2010Prop52
140
1.0
102
RTVSPost2010PropOp52
 70
     0
102
RTVSPost2010Prop53
 90
        2
102
RTVSPost2010PropOp53
 70
     1
102
RTVSPost2010Prop54
  1
strokes_ogs.tif
102
RTVSPost2010PropOp54
 70
     1
102
RTVSPost2010Prop55
280
     0
102
RTVSPost2010PropOp55
 70
     1
102
RTVSPost2010Prop56
140
1.0
102
RTVSPost2010PropOp56
 70
     1
102
RTVSPost2010Prop57
140
1.0
102
RTVSPost2010PropOp57
 70
     1
102
RTVSPropertyOp0
 70
     1
102
RTVSPropertyOp1
 70
     1
102
RTVSPropertyOp2
 70
     1
102
RTVSPropertyOp3
 70
     1
102
RTVSPropertyOp4
 70
     1
102
RTVSPropertyOp5
 70
     1
102
RTVSPropertyOp6
 70
     1
102
RTVSPropertyOp7
 70
     1
102
RTVSPropertyOp8
 70
     1
102
RTVSPropertyOp9
 70
     1
102
RTVSPropertyOp10
 70
     1
102
RTVSPropertyOp11
 70
     1
102
RTVSPropertyOp12
 70
     1
102
RTVSPropertyOp13
 70
     1
102
RTVSPropertyOp14
 70
     1
102
RTVSPropertyOp15
 70
     1
102
RTVSPropertyOp16
 70
     1
102
RTVSPropertyOp17
 70
     1
102
RTVSPropertyOp18
 70
     1
102
RTVSPropertyOp19
 70
     1
102
RTVSPropertyOp20
 70
     1
102
RTVSPropertyOp21
 70
     1
102
RTVSPropertyOp22
 70
     1
102
RTVSPropertyOp23
 70
     1
102
RTVSPropertyOp24
 70
     1
102
RTVSPropertyOp25
 70
     1
102
RTVSPropertyOp26
 70
     1
102
RTVSPropertyOp27
 70
     1
102
RTVSPropertyOp28
 70
     1
102
RTVSPropertyOp29
 70
     1
102
RTVSPropertyOp30
 70
     1
102
RTVSPropertyOp31
 70
     1
102
RTVSPropertyOp32
 70
     1
102
RTVSPropertyOp33
 70
     1
102
RTVSPropertyOp34
 70
     1
102
RTVSPropertyOp35
 70
     1
102
RTVSPropertyOp36
 70
     1
102
RTVSPropertyOp37
 70
     1
102
RTVSPropertyOp38
 70
     1
102
RTVSPropertyOp39
 70
     1
102
RTVSPropertyOp40
 70
     1
102
RTVSPropertyOp41
 70
     1
102
RTVSPropertyOp42
 70
     1
102
RTVSPropertyOp43
 70
     1
102
RTVSPropertyOp44
 70
     1
102
RTVSPropertyOp45
 70
     1
102
RTVSPropertyOp46
 70
     1
102
RTVSPropertyOp47
 70
     1
102
RTVSPropertyOp48
 70
     1
102
RTVSPropertyOp49
 70
     1
102
RTVSPropertyOp50
 70
     1
102
RTVSPropertyOp51
 70
     0
102
RTVSPropertyOp52
 70
     0
102
RTVSPropertyOp53
 70
     1
102
RTVSPropertyOp54
 70
     1
102
RTVSPropertyOp55
 70
     1
102
RTVSPropertyOp56
 70
     1
102
RTVSPropertyOp57
 70
     1
102
RTVSPropertyOp58
 70
     1
102
RTVSPropertyOp59
 70
     1
102
RTVSPropertyOp60
 70
     1
102
RTVSPropertyOp61
 70
     1
102
RTVSPropertyOp62
 70
     1
  0
XRECORD
  5
EEF1
102
{ACAD_REACTORS
330
EEF0
102
}
330
EEF0
100
AcDbXrecord
280
     1
102
RTVSPost2010Prop28
280
     0
102
RTVSPost2010PropOp28
 70
     1
102
RTVSPost2010Prop29
280
     1
102
RTVSPost2010PropOp29
 70
     1
102
RTVSPost2010Prop30
280
     1
102
RTVSPost2010PropOp30
 70
     1
102
RTVSPost2010Prop31
280
     0
102
RTVSPost2010PropOp31
 70
     1
102
RTVSPost2010Prop32
280
     0
102
RTVSPost2010PropOp32
 70
     1
102
RTVSPost2010Prop33
280
     0
102
RTVSPost2010PropOp33
 70
     1
102
RTVSPost2010Prop34
280
     0
102
RTVSPost2010PropOp34
 70
     1
102
RTVSPost2010Prop35
280
     0
102
RTVSPost2010PropOp35
 70
     1
102
RTVSPost2010Prop36
280
     0
102
RTVSPost2010PropOp36
 70
     1
102
RTVSPost2010Prop37
 90
       50
102
RTVSPost2010PropOp37
 70
     1
102
RTVSPost2010Prop38
140
0.0
102
RTVSPost2010PropOp38
 70
     1
102
RTVSPost2010Prop39
140
1.0
102
RTVSPost2010PropOp39
 70
     1
102
RTVSPost2010Prop40
 90
        0
102
RTVSPost2010PropOp40
 70
     1
102
RTVSPost2010Prop41ColorIndex
 90
       18
102
RTVSPost2010Prop41ColorRGB
 90
        0
102
RTVSPost2010PropOp41
 70
     1
102
RTVSPost2010Prop42
 90
       50
102
RTVSPost2010PropOp42
 70
     1
102
RTVSPost2010Prop43
 90
        3
102
RTVSPost2010PropOp43
 70
     1
102
RTVSPost2010Prop44ColorIndex
 90
        5
102
RTVSPost2010Prop44ColorRGB
 90
      255
102
RTVSPost2010PropOp44
 70
     1
102
RTVSPost2010Prop45
280
     0
102
RTVSPost2010PropOp45
 70
     1
102
RTVSPost2010Prop46
 90
       50
102
RTVSPost2010PropOp46
 70
     1
102
RTVSPost2010Prop47
 90
       50
102
RTVSPost2010PropOp47
 70
     1
102
RTVSPost2010Prop48
 90
       50
102
RTVSPost2010PropOp48
 70
     1
102
RTVSPost2010Prop49
280
     0
102
RTVSPost2010PropOp49
 70
     1
102
RTVSPost2010Prop50
 90
       50
102
RTVSPost2010PropOp50
 70
     1
102
RTVSPost2010Prop51ColorIndex
 90
      256
102
RTVSPost2010Prop51ColorRGB
 90
-16777216
102
RTVSPost2010PropOp51
 70
     0
102
RTVSPost2010Prop52
140
1.0
102
RTVSPost2010PropOp52
 70
     0
102
RTVSPost2010Prop53
 90
        2
102
RTVSPost2010PropOp53
 70
     1
102
RTVSPost2010Prop54
  1
strokes_ogs.tif
102
RTVSPost2010PropOp54
 70
     1
102
RTVSPost2010Prop55
280
     0
102
RTVSPost2010PropOp55
 70
     1
102
RTVSPost2010Prop56
140
1.0
102
RTVSPost2010PropOp56
 70
     1
102
RTVSPost2010Prop57
140
1.0
102
RTVSPost2010PropOp57
 70
     1
102
RTVSPropertyOp0
 70
     1
102
RTVSPropertyOp1
 70
     1
102
RTVSPropertyOp2
 70
     1
102
RTVSPropertyOp3
 70
     1
102
RTVSPropertyOp4
 70
     1
102
RTVSPropertyOp5
 70
     1
102
RTVSPropertyOp6
 70
     1
102
RTVSPropertyOp7
 70
     1
102
RTVSPropertyOp8
 70
     1
102
RTVSPropertyOp9
 70
     1
102
RTVSPropertyOp10
 70
     1
102
RTVSPropertyOp11
 70
     1
102
RTVSPropertyOp12
 70
     1
102
RTVSPropertyOp13
 70
     1
102
RTVSPropertyOp14
 70
     1
102
RTVSPropertyOp15
 70
     1
102
RTVSPropertyOp16
 70
     1
102
RTVSPropertyOp17
 70
     1
102
RTVSPropertyOp18
 70
     1
102
RTVSPropertyOp19
 70
     1
102
RTVSPropertyOp20
 70
     1
102
RTVSPropertyOp21
 70
     1
102
RTVSPropertyOp22
 70
     1
102
RTVSPropertyOp23
 70
     1
102
RTVSPropertyOp24
 70
     1
102
RTVSPropertyOp25
 70
     1
102
RTVSPropertyOp26
 70
     1
102
RTVSPropertyOp27
 70
     1
102
RTVSPropertyOp28
 70
     1
102
RTVSPropertyOp29
 70
     1
102
RTVSPropertyOp30
 70
     1
102
RTVSPropertyOp31
 70
     1
102
RTVSPropertyOp32
 70
     1
102
RTVSPropertyOp33
 70
     1
102
RTVSPropertyOp34
 70
     1
102
RTVSPropertyOp35
 70
     1
102
RTVSPropertyOp36
 70
     1
102
RTVSPropertyOp37
 70
     1
102
RTVSPropertyOp38
 70
     1
102
RTVSPropertyOp39
 70
     1
102
RTVSPropertyOp40
 70
     1
102
RTVSPropertyOp41
 70
     1
102
RTVSPropertyOp42
 70
     1
102
RTVSPropertyOp43
 70
     1
102
RTVSPropertyOp44
 70
     1
102
RTVSPropertyOp45
 70
     1
102
RTVSPropertyOp46
 70
     1
102
RTVSPropertyOp47
 70
     1
102
RTVSPropertyOp48
 70
     1
102
RTVSPropertyOp49
 70
     1
102
RTVSPropertyOp50
 70
     1
102
RTVSPropertyOp51
 70
     0
102
RTVSPropertyOp52
 70
     0
102
RTVSPropertyOp53
 70
     1
102
RTVSPropertyOp54
 70
     1
102
RTVSPropertyOp55
 70
     1
102
RTVSPropertyOp56
 70
     1
102
RTVSPropertyOp57
 70
     1
102
RTVSPropertyOp58
 70
     1
102
RTVSPropertyOp59
 70
     1
102
RTVSPropertyOp60
 70
     1
102
RTVSPropertyOp61
 70
     1
102
RTVSPropertyOp62
 70
     1
  0
XRECORD
  5
EEF3
102
{ACAD_REACTORS
330
EEF2
102
}
330
EEF2
100
AcDbXrecord
280
     1
102
RTVSPost2010Prop28
280
     0
102
RTVSPost2010PropOp28
 70
     1
102
RTVSPost2010Prop29
280
     1
102
RTVSPost2010PropOp29
 70
     1
102
RTVSPost2010Prop30
280
     1
102
RTVSPost2010PropOp30
 70
     1
102
RTVSPost2010Prop31
280
     0
102
RTVSPost2010PropOp31
 70
     1
102
RTVSPost2010Prop32
280
     0
102
RTVSPost2010PropOp32
 70
     1
102
RTVSPost2010Prop33
280
     0
102
RTVSPost2010PropOp33
 70
     1
102
RTVSPost2010Prop34
280
     0
102
RTVSPost2010PropOp34
 70
     1
102
RTVSPost2010Prop35
280
     0
102
RTVSPost2010PropOp35
 70
     1
102
RTVSPost2010Prop36
280
     0
102
RTVSPost2010PropOp36
 70
     1
102
RTVSPost2010Prop37
 90
       50
102
RTVSPost2010PropOp37
 70
     1
102
RTVSPost2010Prop38
140
0.0
102
RTVSPost2010PropOp38
 70
     1
102
RTVSPost2010Prop39
140
1.0
102
RTVSPost2010PropOp39
 70
     1
102
RTVSPost2010Prop40
 90
        0
102
RTVSPost2010PropOp40
 70
     1
102
RTVSPost2010Prop41ColorIndex
 90
       18
102
RTVSPost2010Prop41ColorRGB
 90
        0
102
RTVSPost2010PropOp41
 70
     1
102
RTVSPost2010Prop42
 90
       50
102
RTVSPost2010PropOp42
 70
     1
102
RTVSPost2010Prop43
 90
        3
102
RTVSPost2010PropOp43
 70
     1
102
RTVSPost2010Prop44ColorIndex
 90
        5
102
RTVSPost2010Prop44ColorRGB
 90
      255
102
RTVSPost2010PropOp44
 70
     1
102
RTVSPost2010Prop45
280
     0
102
RTVSPost2010PropOp45
 70
     1
102
RTVSPost2010Prop46
 90
       50
102
RTVSPost2010PropOp46
 70
     1
102
RTVSPost2010Prop47
 90
       50
102
RTVSPost2010PropOp47
 70
     1
102
RTVSPost2010Prop48
 90
       50
102
RTVSPost2010PropOp48
 70
     1
102
RTVSPost2010Prop49
280
     0
102
RTVSPost2010PropOp49
 70
     1
102
RTVSPost2010Prop50
 90
       50
102
RTVSPost2010PropOp50
 70
     1
102
RTVSPost2010Prop51ColorIndex
 90
      256
102
RTVSPost2010Prop51ColorRGB
 90
-16777216
102
RTVSPost2010PropOp51
 70
     0
102
RTVSPost2010Prop52
140
1.0
102
RTVSPost2010PropOp52
 70
     0
102
RTVSPost2010Prop53
 90
        2
102
RTVSPost2010PropOp53
 70
     1
102
RTVSPost2010Prop54
  1
strokes_ogs.tif
102
RTVSPost2010PropOp54
 70
     1
102
RTVSPost2010Prop55
280
     0
102
RTVSPost2010PropOp55
 70
     1
102
RTVSPost2010Prop56
140
1.0
102
RTVSPost2010PropOp56
 70
     1
102
RTVSPost2010Prop57
140
1.0
102
RTVSPost2010PropOp57
 70
     1
102
RTVSPropertyOp0
 70
     1
102
RTVSPropertyOp1
 70
     1
102
RTVSPropertyOp2
 70
     1
102
RTVSPropertyOp3
 70
     1
102
RTVSPropertyOp4
 70
     1
102
RTVSPropertyOp5
 70
     1
102
RTVSPropertyOp6
 70
     1
102
RTVSPropertyOp7
 70
     1
102
RTVSPropertyOp8
 70
     1
102
RTVSPropertyOp9
 70
     1
102
RTVSPropertyOp10
 70
     1
102
RTVSPropertyOp11
 70
     1
102
RTVSPropertyOp12
 70
     1
102
RTVSPropertyOp13
 70
     1
102
RTVSPropertyOp14
 70
     1
102
RTVSPropertyOp15
 70
     1
102
RTVSPropertyOp16
 70
     1
102
RTVSPropertyOp17
 70
     1
102
RTVSPropertyOp18
 70
     1
102
RTVSPropertyOp19
 70
     1
102
RTVSPropertyOp20
 70
     1
102
RTVSPropertyOp21
 70
     1
102
RTVSPropertyOp22
 70
     1
102
RTVSPropertyOp23
 70
     1
102
RTVSPropertyOp24
 70
     1
102
RTVSPropertyOp25
 70
     1
102
RTVSPropertyOp26
 70
     1
102
RTVSPropertyOp27
 70
     1
102
RTVSPropertyOp28
 70
     1
102
RTVSPropertyOp29
 70
     1
102
RTVSPropertyOp30
 70
     1
102
RTVSPropertyOp31
 70
     1
102
RTVSPropertyOp32
 70
     1
102
RTVSPropertyOp33
 70
     1
102
RTVSPropertyOp34
 70
     1
102
RTVSPropertyOp35
 70
     1
102
RTVSPropertyOp36
 70
     1
102
RTVSPropertyOp37
 70
     1
102
RTVSPropertyOp38
 70
     1
102
RTVSPropertyOp39
 70
     1
102
RTVSPropertyOp40
 70
     1
102
RTVSPropertyOp41
 70
     1
102
RTVSPropertyOp42
 70
     1
102
RTVSPropertyOp43
 70
     1
102
RTVSPropertyOp44
 70
     1
102
RTVSPropertyOp45
 70
     1
102
RTVSPropertyOp46
 70
     1
102
RTVSPropertyOp47
 70
     1
102
RTVSPropertyOp48
 70
     1
102
RTVSPropertyOp49
 70
     1
102
RTVSPropertyOp50
 70
     1
102
RTVSPropertyOp51
 70
     0
102
RTVSPropertyOp52
 70
     0
102
RTVSPropertyOp53
 70
     1
102
RTVSPropertyOp54
 70
     1
102
RTVSPropertyOp55
 70
     1
102
RTVSPropertyOp56
 70
     1
102
RTVSPropertyOp57
 70
     1
102
RTVSPropertyOp58
 70
     1
102
RTVSPropertyOp59
 70
     1
102
RTVSPropertyOp60
 70
     1
102
RTVSPropertyOp61
 70
     1
102
RTVSPropertyOp62
 70
     1
  0
XRECORD
  5
EF14
102
{ACAD_REACTORS
330
EF13
102
}
330
EF13
100
AcDbXrecord
280
     1
102
RTVSPost2010Prop28
280
     0
102
RTVSPost2010PropOp28
 70
     1
102
RTVSPost2010Prop29
280
     1
102
RTVSPost2010PropOp29
 70
     1
102
RTVSPost2010Prop30
280
     1
102
RTVSPost2010PropOp30
 70
     1
102
RTVSPost2010Prop31
280
     0
102
RTVSPost2010PropOp31
 70
     1
102
RTVSPost2010Prop32
280
     0
102
RTVSPost2010PropOp32
 70
     1
102
RTVSPost2010Prop33
280
     0
102
RTVSPost2010PropOp33
 70
     1
102
RTVSPost2010Prop34
280
     0
102
RTVSPost2010PropOp34
 70
     1
102
RTVSPost2010Prop35
280
     0
102
RTVSPost2010PropOp35
 70
     1
102
RTVSPost2010Prop36
280
     0
102
RTVSPost2010PropOp36
 70
     1
102
RTVSPost2010Prop37
 90
       50
102
RTVSPost2010PropOp37
 70
     1
102
RTVSPost2010Prop38
140
0.0
102
RTVSPost2010PropOp38
 70
     1
102
RTVSPost2010Prop39
140
1.0
102
RTVSPost2010PropOp39
 70
     1
102
RTVSPost2010Prop40
 90
        0
102
RTVSPost2010PropOp40
 70
     1
102
RTVSPost2010Prop41ColorIndex
 90
       18
102
RTVSPost2010Prop41ColorRGB
 90
        0
102
RTVSPost2010PropOp41
 70
     1
102
RTVSPost2010Prop42
 90
       50
102
RTVSPost2010PropOp42
 70
     1
102
RTVSPost2010Prop43
 90
        3
102
RTVSPost2010PropOp43
 70
     1
102
RTVSPost2010Prop44ColorIndex
 90
        5
102
RTVSPost2010Prop44ColorRGB
 90
      255
102
RTVSPost2010PropOp44
 70
     1
102
RTVSPost2010Prop45
280
     0
102
RTVSPost2010PropOp45
 70
     1
102
RTVSPost2010Prop46
 90
       50
102
RTVSPost2010PropOp46
 70
     1
102
RTVSPost2010Prop47
 90
       50
102
RTVSPost2010PropOp47
 70
     1
102
RTVSPost2010Prop48
 90
       50
102
RTVSPost2010PropOp48
 70
     1
102
RTVSPost2010Prop49
280
     0
102
RTVSPost2010PropOp49
 70
     1
102
RTVSPost2010Prop50
 90
       50
102
RTVSPost2010PropOp50
 70
     1
102
RTVSPost2010Prop51ColorIndex
 90
      256
102
RTVSPost2010Prop51ColorRGB
 90
-16777216
102
RTVSPost2010PropOp51
 70
     0
102
RTVSPost2010Prop52
140
1.0
102
RTVSPost2010PropOp52
 70
     0
102
RTVSPost2010Prop53
 90
        2
102
RTVSPost2010PropOp53
 70
     1
102
RTVSPost2010Prop54
  1
strokes_ogs.tif
102
RTVSPost2010PropOp54
 70
     1
102
RTVSPost2010Prop55
280
     0
102
RTVSPost2010PropOp55
 70
     1
102
RTVSPost2010Prop56
140
1.0
102
RTVSPost2010PropOp56
 70
     1
102
RTVSPost2010Prop57
140
1.0
102
RTVSPost2010PropOp57
 70
     1
102
RTVSPropertyOp0
 70
     1
102
RTVSPropertyOp1
 70
     1
102
RTVSPropertyOp2
 70
     1
102
RTVSPropertyOp3
 70
     1
102
RTVSPropertyOp4
 70
     1
102
RTVSPropertyOp5
 70
     1
102
RTVSPropertyOp6
 70
     1
102
RTVSPropertyOp7
 70
     1
102
RTVSPropertyOp8
 70
     1
102
RTVSPropertyOp9
 70
     1
102
RTVSPropertyOp10
 70
     1
102
RTVSPropertyOp11
 70
     1
102
RTVSPropertyOp12
 70
     1
102
RTVSPropertyOp13
 70
     1
102
RTVSPropertyOp14
 70
     1
102
RTVSPropertyOp15
 70
     1
102
RTVSPropertyOp16
 70
     1
102
RTVSPropertyOp17
 70
     1
102
RTVSPropertyOp18
 70
     1
102
RTVSPropertyOp19
 70
     1
102
RTVSPropertyOp20
 70
     1
102
RTVSPropertyOp21
 70
     1
102
RTVSPropertyOp22
 70
     1
102
RTVSPropertyOp23
 70
     1
102
RTVSPropertyOp24
 70
     1
102
RTVSPropertyOp25
 70
     1
102
RTVSPropertyOp26
 70
     1
102
RTVSPropertyOp27
 70
     1
102
RTVSPropertyOp28
 70
     1
102
RTVSPropertyOp29
 70
     1
102
RTVSPropertyOp30
 70
     1
102
RTVSPropertyOp31
 70
     1
102
RTVSPropertyOp32
 70
     1
102
RTVSPropertyOp33
 70
     1
102
RTVSPropertyOp34
 70
     1
102
RTVSPropertyOp35
 70
     1
102
RTVSPropertyOp36
 70
     1
102
RTVSPropertyOp37
 70
     1
102
RTVSPropertyOp38
 70
     1
102
RTVSPropertyOp39
 70
     1
102
RTVSPropertyOp40
 70
     1
102
RTVSPropertyOp41
 70
     1
102
RTVSPropertyOp42
 70
     1
102
RTVSPropertyOp43
 70
     1
102
RTVSPropertyOp44
 70
     1
102
RTVSPropertyOp45
 70
     1
102
RTVSPropertyOp46
 70
     1
102
RTVSPropertyOp47
 70
     1
102
RTVSPropertyOp48
 70
     1
102
RTVSPropertyOp49
 70
     1
102
RTVSPropertyOp50
 70
     1
102
RTVSPropertyOp51
 70
     0
102
RTVSPropertyOp52
 70
     0
102
RTVSPropertyOp53
 70
     1
102
RTVSPropertyOp54
 70
     1
102
RTVSPropertyOp55
 70
     1
102
RTVSPropertyOp56
 70
     1
102
RTVSPropertyOp57
 70
     1
102
RTVSPropertyOp58
 70
     1
102
RTVSPropertyOp59
 70
     1
102
RTVSPropertyOp60
 70
     1
102
RTVSPropertyOp61
 70
     1
102
RTVSPropertyOp62
 70
     1
  0
XRECORD
  5
EF20
102
{ACAD_REACTORS
330
EF1F
102
}
330
EF1F
100
AcDbXrecord
280
     1
102
RTVSPost2010Prop28
280
     0
102
RTVSPost2010PropOp28
 70
     0
102
RTVSPost2010Prop29
280
     1
102
RTVSPost2010PropOp29
 70
     0
102
RTVSPost2010Prop30
280
     1
102
RTVSPost2010PropOp30
 70
     0
102
RTVSPost2010Prop31
280
     0
102
RTVSPost2010PropOp31
 70
     0
102
RTVSPost2010Prop32
280
     0
102
RTVSPost2010PropOp32
 70
     0
102
RTVSPost2010Prop33
280
     0
102
RTVSPost2010PropOp33
 70
     0
102
RTVSPost2010Prop34
280
     0
102
RTVSPost2010PropOp34
 70
     0
102
RTVSPost2010Prop35
280
     0
102
RTVSPost2010PropOp35
 70
     0
102
RTVSPost2010Prop36
280
     0
102
RTVSPost2010PropOp36
 70
     0
102
RTVSPost2010Prop37
 90
       50
102
RTVSPost2010PropOp37
 70
     0
102
RTVSPost2010Prop38
140
0.0
102
RTVSPost2010PropOp38
 70
     0
102
RTVSPost2010Prop39
140
1.0
102
RTVSPost2010PropOp39
 70
     0
102
RTVSPost2010Prop40
 90
        0
102
RTVSPost2010PropOp40
 70
     0
102
RTVSPost2010Prop41ColorIndex
 90
       18
102
RTVSPost2010Prop41ColorRGB
 90
        0
102
RTVSPost2010PropOp41
 70
     0
102
RTVSPost2010Prop42
 90
       50
102
RTVSPost2010PropOp42
 70
     0
102
RTVSPost2010Prop43
 90
        3
102
RTVSPost2010PropOp43
 70
     0
102
RTVSPost2010Prop44ColorIndex
 90
        5
102
RTVSPost2010Prop44ColorRGB
 90
      255
102
RTVSPost2010PropOp44
 70
     0
102
RTVSPost2010Prop45
280
     0
102
RTVSPost2010PropOp45
 70
     0
102
RTVSPost2010Prop46
 90
       50
102
RTVSPost2010PropOp46
 70
     0
102
RTVSPost2010Prop47
 90
       50
102
RTVSPost2010PropOp47
 70
     0
102
RTVSPost2010Prop48
 90
       50
102
RTVSPost2010PropOp48
 70
     0
102
RTVSPost2010Prop49
280
     0
102
RTVSPost2010PropOp49
 70
     0
102
RTVSPost2010Prop50
 90
       50
102
RTVSPost2010PropOp50
 70
     0
102
RTVSPost2010Prop51ColorIndex
 90
      256
102
RTVSPost2010Prop51ColorRGB
 90
-16777216
102
RTVSPost2010PropOp51
 70
     0
102
RTVSPost2010Prop52
140
1.0
102
RTVSPost2010PropOp52
 70
     0
102
RTVSPost2010Prop53
 90
        2
102
RTVSPost2010PropOp53
 70
     0
102
RTVSPost2010Prop54
  1
strokes_ogs.tif
102
RTVSPost2010PropOp54
 70
     0
102
RTVSPost2010Prop55
280
     0
102
RTVSPost2010PropOp55
 70
     0
102
RTVSPost2010Prop56
140
1.0
102
RTVSPost2010PropOp56
 70
     0
102
RTVSPost2010Prop57
140
1.0
102
RTVSPost2010PropOp57
 70
     0
102
RTVSPropertyOp0
 70
     0
102
RTVSPropertyOp1
 70
     0
102
RTVSPropertyOp2
 70
     0
102
RTVSPropertyOp3
 70
     0
102
RTVSPropertyOp4
 70
     0
102
RTVSPropertyOp5
 70
     0
102
RTVSPropertyOp6
 70
     0
102
RTVSPropertyOp7
 70
     0
102
RTVSPropertyOp8
 70
     0
102
RTVSPropertyOp9
 70
     0
102
RTVSPropertyOp10
 70
     0
102
RTVSPropertyOp11
 70
     0
102
RTVSPropertyOp12
 70
     0
102
RTVSPropertyOp13
 70
     0
102
RTVSPropertyOp14
 70
     2
102
RTVSPropertyOp15
 70
     0
102
RTVSPropertyOp16
 70
     0
102
RTVSPropertyOp17
 70
     0
102
RTVSPropertyOp18
 70
     0
102
RTVSPropertyOp19
 70
     0
102
RTVSPropertyOp20
 70
     0
102
RTVSPropertyOp21
 70
     0
102
RTVSPropertyOp22
 70
     0
102
RTVSPropertyOp23
 70
     0
102
RTVSPropertyOp24
 70
     0
102
RTVSPropertyOp25
 70
     0
102
RTVSPropertyOp26
 70
     0
102
RTVSPropertyOp27
 70
     0
102
RTVSPropertyOp28
 70
     0
102
RTVSPropertyOp29
 70
     0
102
RTVSPropertyOp30
 70
     0
102
RTVSPropertyOp31
 70
     0
102
RTVSPropertyOp32
 70
     0
102
RTVSPropertyOp33
 70
     0
102
RTVSPropertyOp34
 70
     0
102
RTVSPropertyOp35
 70
     0
102
RTVSPropertyOp36
 70
     0
102
RTVSPropertyOp37
 70
     0
102
RTVSPropertyOp38
 70
     0
102
RTVSPropertyOp39
 70
     0
102
RTVSPropertyOp40
 70
     0
102
RTVSPropertyOp41
 70
     0
102
RTVSPropertyOp42
 70
     0
102
RTVSPropertyOp43
 70
     0
102
RTVSPropertyOp44
 70
     0
102
RTVSPropertyOp45
 70
     0
102
RTVSPropertyOp46
 70
     0
102
RTVSPropertyOp47
 70
     0
102
RTVSPropertyOp48
 70
     0
102
RTVSPropertyOp49
 70
     0
102
RTVSPropertyOp50
 70
     0
102
RTVSPropertyOp51
 70
     0
102
RTVSPropertyOp52
 70
     0
102
RTVSPropertyOp53
 70
     0
102
RTVSPropertyOp54
 70
     0
102
RTVSPropertyOp55
 70
     0
102
RTVSPropertyOp56
 70
     0
102
RTVSPropertyOp57
 70
     0
102
RTVSPropertyOp58
 70
     1
102
RTVSPropertyOp59
 70
     1
102
RTVSPropertyOp60
 70
     1
102
RTVSPropertyOp61
 70
     1
102
RTVSPropertyOp62
 70
     1
  0
XRECORD
  5
EF07
102
{ACAD_REACTORS
330
EF06
102
}
330
EF06
100
AcDbXrecord
280
     1
102
RTVSPost2010Prop28
280
     0
102
RTVSPost2010PropOp28
 70
     1
102
RTVSPost2010Prop29
280
     1
102
RTVSPost2010PropOp29
 70
     1
102
RTVSPost2010Prop30
280
     1
102
RTVSPost2010PropOp30
 70
     1
102
RTVSPost2010Prop31
280
     0
102
RTVSPost2010PropOp31
 70
     1
102
RTVSPost2010Prop32
280
     0
102
RTVSPost2010PropOp32
 70
     1
102
RTVSPost2010Prop33
280
     0
102
RTVSPost2010PropOp33
 70
     1
102
RTVSPost2010Prop34
280
     0
102
RTVSPost2010PropOp34
 70
     1
102
RTVSPost2010Prop35
280
     0
102
RTVSPost2010PropOp35
 70
     1
102
RTVSPost2010Prop36
280
     0
102
RTVSPost2010PropOp36
 70
     1
102
RTVSPost2010Prop37
 90
       50
102
RTVSPost2010PropOp37
 70
     1
102
RTVSPost2010Prop38
140
0.0
102
RTVSPost2010PropOp38
 70
     1
102
RTVSPost2010Prop39
140
1.0
102
RTVSPost2010PropOp39
 70
     1
102
RTVSPost2010Prop40
 90
        0
102
RTVSPost2010PropOp40
 70
     1
102
RTVSPost2010Prop41ColorIndex
 90
       18
102
RTVSPost2010Prop41ColorRGB
 90
        0
102
RTVSPost2010PropOp41
 70
     1
102
RTVSPost2010Prop42
 90
       50
102
RTVSPost2010PropOp42
 70
     1
102
RTVSPost2010Prop43
 90
        3
102
RTVSPost2010PropOp43
 70
     1
102
RTVSPost2010Prop44ColorIndex
 90
        5
102
RTVSPost2010Prop44ColorRGB
 90
      255
102
RTVSPost2010PropOp44
 70
     1
102
RTVSPost2010Prop45
280
     0
102
RTVSPost2010PropOp45
 70
     1
102
RTVSPost2010Prop46
 90
       50
102
RTVSPost2010PropOp46
 70
     1
102
RTVSPost2010Prop47
 90
       50
102
RTVSPost2010PropOp47
 70
     1
102
RTVSPost2010Prop48
 90
       50
102
RTVSPost2010PropOp48
 70
     1
102
RTVSPost2010Prop49
280
     0
102
RTVSPost2010PropOp49
 70
     1
102
RTVSPost2010Prop50
 90
       50
102
RTVSPost2010PropOp50
 70
     1
102
RTVSPost2010Prop51ColorIndex
 90
      256
102
RTVSPost2010Prop51ColorRGB
 90
-16777216
102
RTVSPost2010PropOp51
 70
     0
102
RTVSPost2010Prop52
140
1.0
102
RTVSPost2010PropOp52
 70
     0
102
RTVSPost2010Prop53
 90
        2
102
RTVSPost2010PropOp53
 70
     1
102
RTVSPost2010Prop54
  1
strokes_ogs.tif
102
RTVSPost2010PropOp54
 70
     1
102
RTVSPost2010Prop55
280
     0
102
RTVSPost2010PropOp55
 70
     1
102
RTVSPost2010Prop56
140
1.0
102
RTVSPost2010PropOp56
 70
     1
102
RTVSPost2010Prop57
140
1.0
102
RTVSPost2010PropOp57
 70
     1
102
RTVSPropertyOp0
 70
     1
102
RTVSPropertyOp1
 70
     1
102
RTVSPropertyOp2
 70
     1
102
RTVSPropertyOp3
 70
     1
102
RTVSPropertyOp4
 70
     1
102
RTVSPropertyOp5
 70
     1
102
RTVSPropertyOp6
 70
     1
102
RTVSPropertyOp7
 70
     1
102
RTVSPropertyOp8
 70
     1
102
RTVSPropertyOp9
 70
     1
102
RTVSPropertyOp10
 70
     1
102
RTVSPropertyOp11
 70
     1
102
RTVSPropertyOp12
 70
     1
102
RTVSPropertyOp13
 70
     1
102
RTVSPropertyOp14
 70
     1
102
RTVSPropertyOp15
 70
     1
102
RTVSPropertyOp16
 70
     1
102
RTVSPropertyOp17
 70
     1
102
RTVSPropertyOp18
 70
     1
102
RTVSPropertyOp19
 70
     1
102
RTVSPropertyOp20
 70
     1
102
RTVSPropertyOp21
 70
     1
102
RTVSPropertyOp22
 70
     1
102
RTVSPropertyOp23
 70
     1
102
RTVSPropertyOp24
 70
     1
102
RTVSPropertyOp25
 70
     1
102
RTVSPropertyOp26
 70
     1
102
RTVSPropertyOp27
 70
     1
102
RTVSPropertyOp28
 70
     1
102
RTVSPropertyOp29
 70
     1
102
RTVSPropertyOp30
 70
     1
102
RTVSPropertyOp31
 70
     1
102
RTVSPropertyOp32
 70
     1
102
RTVSPropertyOp33
 70
     1
102
RTVSPropertyOp34
 70
     1
102
RTVSPropertyOp35
 70
     1
102
RTVSPropertyOp36
 70
     1
102
RTVSPropertyOp37
 70
     1
102
RTVSPropertyOp38
 70
     1
102
RTVSPropertyOp39
 70
     1
102
RTVSPropertyOp40
 70
     1
102
RTVSPropertyOp41
 70
     1
102
RTVSPropertyOp42
 70
     1
102
RTVSPropertyOp43
 70
     1
102
RTVSPropertyOp44
 70
     1
102
RTVSPropertyOp45
 70
     1
102
RTVSPropertyOp46
 70
     1
102
RTVSPropertyOp47
 70
     1
102
RTVSPropertyOp48
 70
     1
102
RTVSPropertyOp49
 70
     1
102
RTVSPropertyOp50
 70
     1
102
RTVSPropertyOp51
 70
     0
102
RTVSPropertyOp52
 70
     0
102
RTVSPropertyOp53
 70
     1
102
RTVSPropertyOp54
 70
     1
102
RTVSPropertyOp55
 70
     1
102
RTVSPropertyOp56
 70
     1
102
RTVSPropertyOp57
 70
     1
102
RTVSPropertyOp58
 70
     1
102
RTVSPropertyOp59
 70
     1
102
RTVSPropertyOp60
 70
     1
102
RTVSPropertyOp61
 70
     1
102
RTVSPropertyOp62
 70
     1
  0
XRECORD
  5
EF22
102
{ACAD_REACTORS
330
EF21
102
}
330
EF21
100
AcDbXrecord
280
     1
102
RTVSPost2010Prop28
280
     0
102
RTVSPost2010PropOp28
 70
     0
102
RTVSPost2010Prop29
280
     1
102
RTVSPost2010PropOp29
 70
     0
102
RTVSPost2010Prop30
280
     1
102
RTVSPost2010PropOp30
 70
     0
102
RTVSPost2010Prop31
280
     0
102
RTVSPost2010PropOp31
 70
     0
102
RTVSPost2010Prop32
280
     0
102
RTVSPost2010PropOp32
 70
     0
102
RTVSPost2010Prop33
280
     0
102
RTVSPost2010PropOp33
 70
     0
102
RTVSPost2010Prop34
280
     0
102
RTVSPost2010PropOp34
 70
     0
102
RTVSPost2010Prop35
280
     0
102
RTVSPost2010PropOp35
 70
     0
102
RTVSPost2010Prop36
280
     0
102
RTVSPost2010PropOp36
 70
     0
102
RTVSPost2010Prop37
 90
       50
102
RTVSPost2010PropOp37
 70
     0
102
RTVSPost2010Prop38
140
0.0
102
RTVSPost2010PropOp38
 70
     0
102
RTVSPost2010Prop39
140
1.0
102
RTVSPost2010PropOp39
 70
     0
102
RTVSPost2010Prop40
 90
        0
102
RTVSPost2010PropOp40
 70
     0
102
RTVSPost2010Prop41ColorIndex
 90
       18
102
RTVSPost2010Prop41ColorRGB
 90
        0
102
RTVSPost2010PropOp41
 70
     0
102
RTVSPost2010Prop42
 90
       50
102
RTVSPost2010PropOp42
 70
     0
102
RTVSPost2010Prop43
 90
        3
102
RTVSPost2010PropOp43
 70
     0
102
RTVSPost2010Prop44ColorIndex
 90
        5
102
RTVSPost2010Prop44ColorRGB
 90
      255
102
RTVSPost2010PropOp44
 70
     0
102
RTVSPost2010Prop45
280
     0
102
RTVSPost2010PropOp45
 70
     0
102
RTVSPost2010Prop46
 90
       50
102
RTVSPost2010PropOp46
 70
     0
102
RTVSPost2010Prop47
 90
       50
102
RTVSPost2010PropOp47
 70
     0
102
RTVSPost2010Prop48
 90
       50
102
RTVSPost2010PropOp48
 70
     0
102
RTVSPost2010Prop49
280
     0
102
RTVSPost2010PropOp49
 70
     0
102
RTVSPost2010Prop50
 90
       50
102
RTVSPost2010PropOp50
 70
     0
102
RTVSPost2010Prop51ColorIndex
 90
      256
102
RTVSPost2010Prop51ColorRGB
 90
-16777216
102
RTVSPost2010PropOp51
 70
     0
102
RTVSPost2010Prop52
140
1.0
102
RTVSPost2010PropOp52
 70
     0
102
RTVSPost2010Prop53
 90
        2
102
RTVSPost2010PropOp53
 70
     0
102
RTVSPost2010Prop54
  1
strokes_ogs.tif
102
RTVSPost2010PropOp54
 70
     0
102
RTVSPost2010Prop55
280
     0
102
RTVSPost2010PropOp55
 70
     0
102
RTVSPost2010Prop56
140
1.0
102
RTVSPost2010PropOp56
 70
     0
102
RTVSPost2010Prop57
140
1.0
102
RTVSPost2010PropOp57
 70
     0
102
RTVSPropertyOp0
 70
     0
102
RTVSPropertyOp1
 70
     0
102
RTVSPropertyOp2
 70
     0
102
RTVSPropertyOp3
 70
     0
102
RTVSPropertyOp4
 70
     0
102
RTVSPropertyOp5
 70
     0
102
RTVSPropertyOp6
 70
     0
102
RTVSPropertyOp7
 70
     0
102
RTVSPropertyOp8
 70
     0
102
RTVSPropertyOp9
 70
     0
102
RTVSPropertyOp10
 70
     0
102
RTVSPropertyOp11
 70
     0
102
RTVSPropertyOp12
 70
     0
102
RTVSPropertyOp13
 70
     0
102
RTVSPropertyOp14
 70
     2
102
RTVSPropertyOp15
 70
     0
102
RTVSPropertyOp16
 70
     0
102
RTVSPropertyOp17
 70
     0
102
RTVSPropertyOp18
 70
     0
102
RTVSPropertyOp19
 70
     0
102
RTVSPropertyOp20
 70
     0
102
RTVSPropertyOp21
 70
     0
102
RTVSPropertyOp22
 70
     0
102
RTVSPropertyOp23
 70
     0
102
RTVSPropertyOp24
 70
     0
102
RTVSPropertyOp25
 70
     0
102
RTVSPropertyOp26
 70
     0
102
RTVSPropertyOp27
 70
     0
102
RTVSPropertyOp28
 70
     0
102
RTVSPropertyOp29
 70
     0
102
RTVSPropertyOp30
 70
     0
102
RTVSPropertyOp31
 70
     0
102
RTVSPropertyOp32
 70
     0
102
RTVSPropertyOp33
 70
     0
102
RTVSPropertyOp34
 70
     0
102
RTVSPropertyOp35
 70
     0
102
RTVSPropertyOp36
 70
     0
102
RTVSPropertyOp37
 70
     0
102
RTVSPropertyOp38
 70
     0
102
RTVSPropertyOp39
 70
     0
102
RTVSPropertyOp40
 70
     0
102
RTVSPropertyOp41
 70
     0
102
RTVSPropertyOp42
 70
     0
102
RTVSPropertyOp43
 70
     0
102
RTVSPropertyOp44
 70
     0
102
RTVSPropertyOp45
 70
     0
102
RTVSPropertyOp46
 70
     0
102
RTVSPropertyOp47
 70
     0
102
RTVSPropertyOp48
 70
     0
102
RTVSPropertyOp49
 70
     0
102
RTVSPropertyOp50
 70
     0
102
RTVSPropertyOp51
 70
     0
102
RTVSPropertyOp52
 70
     0
102
RTVSPropertyOp53
 70
     0
102
RTVSPropertyOp54
 70
     0
102
RTVSPropertyOp55
 70
     0
102
RTVSPropertyOp56
 70
     0
102
RTVSPropertyOp57
 70
     0
102
RTVSPropertyOp58
 70
     1
102
RTVSPropertyOp59
 70
     1
102
RTVSPropertyOp60
 70
     1
102
RTVSPropertyOp61
 70
     1
102
RTVSPropertyOp62
 70
     1
  0
XRECORD
  5
EEFF
102
{ACAD_REACTORS
330
EEFE
102
}
330
EEFE
100
AcDbXrecord
280
     1
102
RTVSPost2010Prop28
280
     0
102
RTVSPost2010PropOp28
 70
     1
102
RTVSPost2010Prop29
280
     1
102
RTVSPost2010PropOp29
 70
     1
102
RTVSPost2010Prop30
280
     1
102
RTVSPost2010PropOp30
 70
     1
102
RTVSPost2010Prop31
280
     0
102
RTVSPost2010PropOp31
 70
     1
102
RTVSPost2010Prop32
280
     0
102
RTVSPost2010PropOp32
 70
     1
102
RTVSPost2010Prop33
280
     0
102
RTVSPost2010PropOp33
 70
     1
102
RTVSPost2010Prop34
280
     0
102
RTVSPost2010PropOp34
 70
     1
102
RTVSPost2010Prop35
280
     0
102
RTVSPost2010PropOp35
 70
     1
102
RTVSPost2010Prop36
280
     0
102
RTVSPost2010PropOp36
 70
     1
102
RTVSPost2010Prop37
 90
       50
102
RTVSPost2010PropOp37
 70
     1
102
RTVSPost2010Prop38
140
0.0
102
RTVSPost2010PropOp38
 70
     1
102
RTVSPost2010Prop39
140
1.0
102
RTVSPost2010PropOp39
 70
     1
102
RTVSPost2010Prop40
 90
        0
102
RTVSPost2010PropOp40
 70
     1
102
RTVSPost2010Prop41ColorIndex
 90
       18
102
RTVSPost2010Prop41ColorRGB
 90
        0
102
RTVSPost2010PropOp41
 70
     1
102
RTVSPost2010Prop42
 90
       50
102
RTVSPost2010PropOp42
 70
     1
102
RTVSPost2010Prop43
 90
        3
102
RTVSPost2010PropOp43
 70
     1
102
RTVSPost2010Prop44ColorIndex
 90
        5
102
RTVSPost2010Prop44ColorRGB
 90
      255
102
RTVSPost2010PropOp44
 70
     1
102
RTVSPost2010Prop45
280
     0
102
RTVSPost2010PropOp45
 70
     1
102
RTVSPost2010Prop46
 90
       50
102
RTVSPost2010PropOp46
 70
     1
102
RTVSPost2010Prop47
 90
       50
102
RTVSPost2010PropOp47
 70
     1
102
RTVSPost2010Prop48
 90
       50
102
RTVSPost2010PropOp48
 70
     1
102
RTVSPost2010Prop49
280
     0
102
RTVSPost2010PropOp49
 70
     1
102
RTVSPost2010Prop50
 90
       50
102
RTVSPost2010PropOp50
 70
     1
102
RTVSPost2010Prop51ColorIndex
 90
      256
102
RTVSPost2010Prop51ColorRGB
 90
-16777216
102
RTVSPost2010PropOp51
 70
     0
102
RTVSPost2010Prop52
140
1.0
102
RTVSPost2010PropOp52
 70
     0
102
RTVSPost2010Prop53
 90
        2
102
RTVSPost2010PropOp53
 70
     1
102
RTVSPost2010Prop54
  1
strokes_ogs.tif
102
RTVSPost2010PropOp54
 70
     1
102
RTVSPost2010Prop55
280
     0
102
RTVSPost2010PropOp55
 70
     1
102
RTVSPost2010Prop56
140
1.0
102
RTVSPost2010PropOp56
 70
     1
102
RTVSPost2010Prop57
140
1.0
102
RTVSPost2010PropOp57
 70
     1
102
RTVSPropertyOp0
 70
     1
102
RTVSPropertyOp1
 70
     1
102
RTVSPropertyOp2
 70
     1
102
RTVSPropertyOp3
 70
     1
102
RTVSPropertyOp4
 70
     1
102
RTVSPropertyOp5
 70
     1
102
RTVSPropertyOp6
 70
     1
102
RTVSPropertyOp7
 70
     1
102
RTVSPropertyOp8
 70
     1
102
RTVSPropertyOp9
 70
     1
102
RTVSPropertyOp10
 70
     1
102
RTVSPropertyOp11
 70
     1
102
RTVSPropertyOp12
 70
     1
102
RTVSPropertyOp13
 70
     1
102
RTVSPropertyOp14
 70
     1
102
RTVSPropertyOp15
 70
     1
102
RTVSPropertyOp16
 70
     1
102
RTVSPropertyOp17
 70
     1
102
RTVSPropertyOp18
 70
     1
102
RTVSPropertyOp19
 70
     1
102
RTVSPropertyOp20
 70
     1
102
RTVSPropertyOp21
 70
     1
102
RTVSPropertyOp22
 70
     1
102
RTVSPropertyOp23
 70
     1
102
RTVSPropertyOp24
 70
     1
102
RTVSPropertyOp25
 70
     1
102
RTVSPropertyOp26
 70
     1
102
RTVSPropertyOp27
 70
     1
102
RTVSPropertyOp28
 70
     1
102
RTVSPropertyOp29
 70
     1
102
RTVSPropertyOp30
 70
     1
102
RTVSPropertyOp31
 70
     1
102
RTVSPropertyOp32
 70
     1
102
RTVSPropertyOp33
 70
     1
102
RTVSPropertyOp34
 70
     1
102
RTVSPropertyOp35
 70
     1
102
RTVSPropertyOp36
 70
     1
102
RTVSPropertyOp37
 70
     1
102
RTVSPropertyOp38
 70
     1
102
RTVSPropertyOp39
 70
     1
102
RTVSPropertyOp40
 70
     1
102
RTVSPropertyOp41
 70
     1
102
RTVSPropertyOp42
 70
     1
102
RTVSPropertyOp43
 70
     1
102
RTVSPropertyOp44
 70
     1
102
RTVSPropertyOp45
 70
     1
102
RTVSPropertyOp46
 70
     1
102
RTVSPropertyOp47
 70
     1
102
RTVSPropertyOp48
 70
     1
102
RTVSPropertyOp49
 70
     1
102
RTVSPropertyOp50
 70
     1
102
RTVSPropertyOp51
 70
     0
102
RTVSPropertyOp52
 70
     0
102
RTVSPropertyOp53
 70
     1
102
RTVSPropertyOp54
 70
     1
102
RTVSPropertyOp55
 70
     1
102
RTVSPropertyOp56
 70
     1
102
RTVSPropertyOp57
 70
     1
102
RTVSPropertyOp58
 70
     1
102
RTVSPropertyOp59
 70
     1
102
RTVSPropertyOp60
 70
     1
102
RTVSPropertyOp61
 70
     1
102
RTVSPropertyOp62
 70
     1
  0
XRECORD
  5
EF1E
102
{ACAD_REACTORS
330
EF1D
102
}
330
EF1D
100
AcDbXrecord
280
     1
102
RTVSPost2010Prop28
280
     0
102
RTVSPost2010PropOp28
 70
     1
102
RTVSPost2010Prop29
280
     1
102
RTVSPost2010PropOp29
 70
     1
102
RTVSPost2010Prop30
280
     1
102
RTVSPost2010PropOp30
 70
     1
102
RTVSPost2010Prop31
280
     0
102
RTVSPost2010PropOp31
 70
     1
102
RTVSPost2010Prop32
280
     0
102
RTVSPost2010PropOp32
 70
     1
102
RTVSPost2010Prop33
280
     0
102
RTVSPost2010PropOp33
 70
     1
102
RTVSPost2010Prop34
280
     0
102
RTVSPost2010PropOp34
 70
     1
102
RTVSPost2010Prop35
280
     0
102
RTVSPost2010PropOp35
 70
     1
102
RTVSPost2010Prop36
280
     0
102
RTVSPost2010PropOp36
 70
     1
102
RTVSPost2010Prop37
 90
       50
102
RTVSPost2010PropOp37
 70
     1
102
RTVSPost2010Prop38
140
0.0
102
RTVSPost2010PropOp38
 70
     1
102
RTVSPost2010Prop39
140
1.0
102
RTVSPost2010PropOp39
 70
     1
102
RTVSPost2010Prop40
 90
        0
102
RTVSPost2010PropOp40
 70
     1
102
RTVSPost2010Prop41ColorIndex
 90
       18
102
RTVSPost2010Prop41ColorRGB
 90
        0
102
RTVSPost2010PropOp41
 70
     1
102
RTVSPost2010Prop42
 90
       50
102
RTVSPost2010PropOp42
 70
     1
102
RTVSPost2010Prop43
 90
        3
102
RTVSPost2010PropOp43
 70
     1
102
RTVSPost2010Prop44ColorIndex
 90
        5
102
RTVSPost2010Prop44ColorRGB
 90
      255
102
RTVSPost2010PropOp44
 70
     1
102
RTVSPost2010Prop45
280
     0
102
RTVSPost2010PropOp45
 70
     1
102
RTVSPost2010Prop46
 90
       50
102
RTVSPost2010PropOp46
 70
     1
102
RTVSPost2010Prop47
 90
       50
102
RTVSPost2010PropOp47
 70
     1
102
RTVSPost2010Prop48
 90
       50
102
RTVSPost2010PropOp48
 70
     1
102
RTVSPost2010Prop49
280
     0
102
RTVSPost2010PropOp49
 70
     1
102
RTVSPost2010Prop50
 90
       50
102
RTVSPost2010PropOp50
 70
     1
102
RTVSPost2010Prop51ColorIndex
 90
      256
102
RTVSPost2010Prop51ColorRGB
 90
-16777216
102
RTVSPost2010PropOp51
 70
     0
102
RTVSPost2010Prop52
140
1.0
102
RTVSPost2010PropOp52
 70
     0
102
RTVSPost2010Prop53
 90
        2
102
RTVSPost2010PropOp53
 70
     1
102
RTVSPost2010Prop54
  1
strokes_ogs.tif
102
RTVSPost2010PropOp54
 70
     1
102
RTVSPost2010Prop55
280
     0
102
RTVSPost2010PropOp55
 70
     1
102
RTVSPost2010Prop56
140
1.0
102
RTVSPost2010PropOp56
 70
     1
102
RTVSPost2010Prop57
140
1.0
102
RTVSPost2010PropOp57
 70
     1
102
RTVSPropertyOp0
 70
     1
102
RTVSPropertyOp1
 70
     1
102
RTVSPropertyOp2
 70
     1
102
RTVSPropertyOp3
 70
     1
102
RTVSPropertyOp4
 70
     1
102
RTVSPropertyOp5
 70
     1
102
RTVSPropertyOp6
 70
     1
102
RTVSPropertyOp7
 70
     1
102
RTVSPropertyOp8
 70
     1
102
RTVSPropertyOp9
 70
     1
102
RTVSPropertyOp10
 70
     1
102
RTVSPropertyOp11
 70
     1
102
RTVSPropertyOp12
 70
     1
102
RTVSPropertyOp13
 70
     1
102
RTVSPropertyOp14
 70
     1
102
RTVSPropertyOp15
 70
     1
102
RTVSPropertyOp16
 70
     1
102
RTVSPropertyOp17
 70
     1
102
RTVSPropertyOp18
 70
     1
102
RTVSPropertyOp19
 70
     1
102
RTVSPropertyOp20
 70
     1
102
RTVSPropertyOp21
 70
     1
102
RTVSPropertyOp22
 70
     1
102
RTVSPropertyOp23
 70
     1
102
RTVSPropertyOp24
 70
     1
102
RTVSPropertyOp25
 70
     1
102
RTVSPropertyOp26
 70
     1
102
RTVSPropertyOp27
 70
     1
102
RTVSPropertyOp28
 70
     1
102
RTVSPropertyOp29
 70
     1
102
RTVSPropertyOp30
 70
     1
102
RTVSPropertyOp31
 70
     1
102
RTVSPropertyOp32
 70
     1
102
RTVSPropertyOp33
 70
     1
102
RTVSPropertyOp34
 70
     1
102
RTVSPropertyOp35
 70
     1
102
RTVSPropertyOp36
 70
     1
102
RTVSPropertyOp37
 70
     1
102
RTVSPropertyOp38
 70
     1
102
RTVSPropertyOp39
 70
     1
102
RTVSPropertyOp40
 70
     1
102
RTVSPropertyOp41
 70
     1
102
RTVSPropertyOp42
 70
     1
102
RTVSPropertyOp43
 70
     1
102
RTVSPropertyOp44
 70
     1
102
RTVSPropertyOp45
 70
     1
102
RTVSPropertyOp46
 70
     1
102
RTVSPropertyOp47
 70
     1
102
RTVSPropertyOp48
 70
     1
102
RTVSPropertyOp49
 70
     1
102
RTVSPropertyOp50
 70
     1
102
RTVSPropertyOp51
 70
     0
102
RTVSPropertyOp52
 70
     0
102
RTVSPropertyOp53
 70
     1
102
RTVSPropertyOp54
 70
     1
102
RTVSPropertyOp55
 70
     1
102
RTVSPropertyOp56
 70
     1
102
RTVSPropertyOp57
 70
     1
102
RTVSPropertyOp58
 70
     1
102
RTVSPropertyOp59
 70
     1
102
RTVSPropertyOp60
 70
     1
102
RTVSPropertyOp61
 70
     1
102
RTVSPropertyOp62
 70
     1
  0
XRECORD
  5
EF1C
102
{ACAD_REACTORS
330
EF1B
102
}
330
EF1B
100
AcDbXrecord
280
     1
102
RTVSPost2010Prop28
280
     0
102
RTVSPost2010PropOp28
 70
     1
102
RTVSPost2010Prop29
280
     1
102
RTVSPost2010PropOp29
 70
     1
102
RTVSPost2010Prop30
280
     1
102
RTVSPost2010PropOp30
 70
     1
102
RTVSPost2010Prop31
280
     0
102
RTVSPost2010PropOp31
 70
     1
102
RTVSPost2010Prop32
280
     0
102
RTVSPost2010PropOp32
 70
     1
102
RTVSPost2010Prop33
280
     0
102
RTVSPost2010PropOp33
 70
     1
102
RTVSPost2010Prop34
280
     0
102
RTVSPost2010PropOp34
 70
     1
102
RTVSPost2010Prop35
280
     0
102
RTVSPost2010PropOp35
 70
     1
102
RTVSPost2010Prop36
280
     0
102
RTVSPost2010PropOp36
 70
     1
102
RTVSPost2010Prop37
 90
       50
102
RTVSPost2010PropOp37
 70
     1
102
RTVSPost2010Prop38
140
0.0
102
RTVSPost2010PropOp38
 70
     1
102
RTVSPost2010Prop39
140
1.0
102
RTVSPost2010PropOp39
 70
     1
102
RTVSPost2010Prop40
 90
        0
102
RTVSPost2010PropOp40
 70
     1
102
RTVSPost2010Prop41ColorIndex
 90
       18
102
RTVSPost2010Prop41ColorRGB
 90
        0
102
RTVSPost2010PropOp41
 70
     1
102
RTVSPost2010Prop42
 90
       50
102
RTVSPost2010PropOp42
 70
     1
102
RTVSPost2010Prop43
 90
        3
102
RTVSPost2010PropOp43
 70
     1
102
RTVSPost2010Prop44ColorIndex
 90
        5
102
RTVSPost2010Prop44ColorRGB
 90
      255
102
RTVSPost2010PropOp44
 70
     1
102
RTVSPost2010Prop45
280
     0
102
RTVSPost2010PropOp45
 70
     1
102
RTVSPost2010Prop46
 90
       50
102
RTVSPost2010PropOp46
 70
     1
102
RTVSPost2010Prop47
 90
       50
102
RTVSPost2010PropOp47
 70
     1
102
RTVSPost2010Prop48
 90
       50
102
RTVSPost2010PropOp48
 70
     1
102
RTVSPost2010Prop49
280
     0
102
RTVSPost2010PropOp49
 70
     1
102
RTVSPost2010Prop50
 90
       50
102
RTVSPost2010PropOp50
 70
     1
102
RTVSPost2010Prop51ColorIndex
 90
      256
102
RTVSPost2010Prop51ColorRGB
 90
-16777216
102
RTVSPost2010PropOp51
 70
     0
102
RTVSPost2010Prop52
140
1.0
102
RTVSPost2010PropOp52
 70
     0
102
RTVSPost2010Prop53
 90
        2
102
RTVSPost2010PropOp53
 70
     1
102
RTVSPost2010Prop54
  1
strokes_ogs.tif
102
RTVSPost2010PropOp54
 70
     1
102
RTVSPost2010Prop55
280
     0
102
RTVSPost2010PropOp55
 70
     1
102
RTVSPost2010Prop56
140
1.0
102
RTVSPost2010PropOp56
 70
     1
102
RTVSPost2010Prop57
140
1.0
102
RTVSPost2010PropOp57
 70
     1
102
RTVSPropertyOp0
 70
     1
102
RTVSPropertyOp1
 70
     1
102
RTVSPropertyOp2
 70
     1
102
RTVSPropertyOp3
 70
     1
102
RTVSPropertyOp4
 70
     1
102
RTVSPropertyOp5
 70
     1
102
RTVSPropertyOp6
 70
     1
102
RTVSPropertyOp7
 70
     1
102
RTVSPropertyOp8
 70
     1
102
RTVSPropertyOp9
 70
     1
102
RTVSPropertyOp10
 70
     1
102
RTVSPropertyOp11
 70
     1
102
RTVSPropertyOp12
 70
     1
102
RTVSPropertyOp13
 70
     1
102
RTVSPropertyOp14
 70
     1
102
RTVSPropertyOp15
 70
     1
102
RTVSPropertyOp16
 70
     1
102
RTVSPropertyOp17
 70
     1
102
RTVSPropertyOp18
 70
     1
102
RTVSPropertyOp19
 70
     1
102
RTVSPropertyOp20
 70
     1
102
RTVSPropertyOp21
 70
     1
102
RTVSPropertyOp22
 70
     1
102
RTVSPropertyOp23
 70
     1
102
RTVSPropertyOp24
 70
     1
102
RTVSPropertyOp25
 70
     1
102
RTVSPropertyOp26
 70
     1
102
RTVSPropertyOp27
 70
     1
102
RTVSPropertyOp28
 70
     1
102
RTVSPropertyOp29
 70
     1
102
RTVSPropertyOp30
 70
     1
102
RTVSPropertyOp31
 70
     1
102
RTVSPropertyOp32
 70
     1
102
RTVSPropertyOp33
 70
     1
102
RTVSPropertyOp34
 70
     1
102
RTVSPropertyOp35
 70
     1
102
RTVSPropertyOp36
 70
     1
102
RTVSPropertyOp37
 70
     1
102
RTVSPropertyOp38
 70
     1
102
RTVSPropertyOp39
 70
     1
102
RTVSPropertyOp40
 70
     1
102
RTVSPropertyOp41
 70
     1
102
RTVSPropertyOp42
 70
     1
102
RTVSPropertyOp43
 70
     1
102
RTVSPropertyOp44
 70
     1
102
RTVSPropertyOp45
 70
     1
102
RTVSPropertyOp46
 70
     1
102
RTVSPropertyOp47
 70
     1
102
RTVSPropertyOp48
 70
     1
102
RTVSPropertyOp49
 70
     1
102
RTVSPropertyOp50
 70
     1
102
RTVSPropertyOp51
 70
     0
102
RTVSPropertyOp52
 70
     0
102
RTVSPropertyOp53
 70
     1
102
RTVSPropertyOp54
 70
     1
102
RTVSPropertyOp55
 70
     1
102
RTVSPropertyOp56
 70
     1
102
RTVSPropertyOp57
 70
     1
102
RTVSPropertyOp58
 70
     1
102
RTVSPropertyOp59
 70
     1
102
RTVSPropertyOp60
 70
     1
102
RTVSPropertyOp61
 70
     1
102
RTVSPropertyOp62
 70
     1
  0
XRECORD
  5
EF16
102
{ACAD_REACTORS
330
EF15
102
}
330
EF15
100
AcDbXrecord
280
     1
102
RTVSPost2010Prop28
280
     0
102
RTVSPost2010PropOp28
 70
     1
102
RTVSPost2010Prop29
280
     1
102
RTVSPost2010PropOp29
 70
     1
102
RTVSPost2010Prop30
280
     1
102
RTVSPost2010PropOp30
 70
     1
102
RTVSPost2010Prop31
280
     0
102
RTVSPost2010PropOp31
 70
     1
102
RTVSPost2010Prop32
280
     0
102
RTVSPost2010PropOp32
 70
     1
102
RTVSPost2010Prop33
280
     0
102
RTVSPost2010PropOp33
 70
     1
102
RTVSPost2010Prop34
280
     0
102
RTVSPost2010PropOp34
 70
     1
102
RTVSPost2010Prop35
280
     0
102
RTVSPost2010PropOp35
 70
     1
102
RTVSPost2010Prop36
280
     0
102
RTVSPost2010PropOp36
 70
     1
102
RTVSPost2010Prop37
 90
       50
102
RTVSPost2010PropOp37
 70
     1
102
RTVSPost2010Prop38
140
0.0
102
RTVSPost2010PropOp38
 70
     1
102
RTVSPost2010Prop39
140
1.0
102
RTVSPost2010PropOp39
 70
     1
102
RTVSPost2010Prop40
 90
        0
102
RTVSPost2010PropOp40
 70
     1
102
RTVSPost2010Prop41ColorIndex
 90
       18
102
RTVSPost2010Prop41ColorRGB
 90
        0
102
RTVSPost2010PropOp41
 70
     1
102
RTVSPost2010Prop42
 90
       50
102
RTVSPost2010PropOp42
 70
     1
102
RTVSPost2010Prop43
 90
        3
102
RTVSPost2010PropOp43
 70
     1
102
RTVSPost2010Prop44ColorIndex
 90
        5
102
RTVSPost2010Prop44ColorRGB
 90
      255
102
RTVSPost2010PropOp44
 70
     1
102
RTVSPost2010Prop45
280
     0
102
RTVSPost2010PropOp45
 70
     1
102
RTVSPost2010Prop46
 90
       50
102
RTVSPost2010PropOp46
 70
     1
102
RTVSPost2010Prop47
 90
       50
102
RTVSPost2010PropOp47
 70
     1
102
RTVSPost2010Prop48
 90
       50
102
RTVSPost2010PropOp48
 70
     1
102
RTVSPost2010Prop49
280
     0
102
RTVSPost2010PropOp49
 70
     1
102
RTVSPost2010Prop50
 90
       50
102
RTVSPost2010PropOp50
 70
     1
102
RTVSPost2010Prop51ColorIndex
 90
      256
102
RTVSPost2010Prop51ColorRGB
 90
-16777216
102
RTVSPost2010PropOp51
 70
     0
102
RTVSPost2010Prop52
140
1.0
102
RTVSPost2010PropOp52
 70
     0
102
RTVSPost2010Prop53
 90
        2
102
RTVSPost2010PropOp53
 70
     1
102
RTVSPost2010Prop54
  1
strokes_ogs.tif
102
RTVSPost2010PropOp54
 70
     1
102
RTVSPost2010Prop55
280
     0
102
RTVSPost2010PropOp55
 70
     1
102
RTVSPost2010Prop56
140
1.0
102
RTVSPost2010PropOp56
 70
     1
102
RTVSPost2010Prop57
140
1.0
102
RTVSPost2010PropOp57
 70
     1
102
RTVSPropertyOp0
 70
     1
102
RTVSPropertyOp1
 70
     1
102
RTVSPropertyOp2
 70
     1
102
RTVSPropertyOp3
 70
     1
102
RTVSPropertyOp4
 70
     1
102
RTVSPropertyOp5
 70
     1
102
RTVSPropertyOp6
 70
     1
102
RTVSPropertyOp7
 70
     1
102
RTVSPropertyOp8
 70
     1
102
RTVSPropertyOp9
 70
     1
102
RTVSPropertyOp10
 70
     1
102
RTVSPropertyOp11
 70
     1
102
RTVSPropertyOp12
 70
     1
102
RTVSPropertyOp13
 70
     1
102
RTVSPropertyOp14
 70
     1
102
RTVSPropertyOp15
 70
     1
102
RTVSPropertyOp16
 70
     1
102
RTVSPropertyOp17
 70
     1
102
RTVSPropertyOp18
 70
     1
102
RTVSPropertyOp19
 70
     1
102
RTVSPropertyOp20
 70
     1
102
RTVSPropertyOp21
 70
     1
102
RTVSPropertyOp22
 70
     1
102
RTVSPropertyOp23
 70
     1
102
RTVSPropertyOp24
 70
     1
102
RTVSPropertyOp25
 70
     1
102
RTVSPropertyOp26
 70
     1
102
RTVSPropertyOp27
 70
     1
102
RTVSPropertyOp28
 70
     1
102
RTVSPropertyOp29
 70
     1
102
RTVSPropertyOp30
 70
     1
102
RTVSPropertyOp31
 70
     1
102
RTVSPropertyOp32
 70
     1
102
RTVSPropertyOp33
 70
     1
102
RTVSPropertyOp34
 70
     1
102
RTVSPropertyOp35
 70
     1
102
RTVSPropertyOp36
 70
     1
102
RTVSPropertyOp37
 70
     1
102
RTVSPropertyOp38
 70
     1
102
RTVSPropertyOp39
 70
     1
102
RTVSPropertyOp40
 70
     1
102
RTVSPropertyOp41
 70
     1
102
RTVSPropertyOp42
 70
     1
102
RTVSPropertyOp43
 70
     1
102
RTVSPropertyOp44
 70
     1
102
RTVSPropertyOp45
 70
     1
102
RTVSPropertyOp46
 70
     1
102
RTVSPropertyOp47
 70
     1
102
RTVSPropertyOp48
 70
     1
102
RTVSPropertyOp49
 70
     1
102
RTVSPropertyOp50
 70
     1
102
RTVSPropertyOp51
 70
     0
102
RTVSPropertyOp52
 70
     0
102
RTVSPropertyOp53
 70
     1
102
RTVSPropertyOp54
 70
     1
102
RTVSPropertyOp55
 70
     1
102
RTVSPropertyOp56
 70
     1
102
RTVSPropertyOp57
 70
     1
102
RTVSPropertyOp58
 70
     1
102
RTVSPropertyOp59
 70
     1
102
RTVSPropertyOp60
 70
     1
102
RTVSPropertyOp61
 70
     1
102
RTVSPropertyOp62
 70
     1
  0
XRECORD
  5
EF18
102
{ACAD_REACTORS
330
EF17
102
}
330
EF17
100
AcDbXrecord
280
     1
102
RTVSPost2010Prop28
280
     0
102
RTVSPost2010PropOp28
 70
     1
102
RTVSPost2010Prop29
280
     1
102
RTVSPost2010PropOp29
 70
     1
102
RTVSPost2010Prop30
280
     1
102
RTVSPost2010PropOp30
 70
     1
102
RTVSPost2010Prop31
280
     0
102
RTVSPost2010PropOp31
 70
     1
102
RTVSPost2010Prop32
280
     0
102
RTVSPost2010PropOp32
 70
     1
102
RTVSPost2010Prop33
280
     0
102
RTVSPost2010PropOp33
 70
     1
102
RTVSPost2010Prop34
280
     0
102
RTVSPost2010PropOp34
 70
     1
102
RTVSPost2010Prop35
280
     0
102
RTVSPost2010PropOp35
 70
     1
102
RTVSPost2010Prop36
280
     0
102
RTVSPost2010PropOp36
 70
     1
102
RTVSPost2010Prop37
 90
       50
102
RTVSPost2010PropOp37
 70
     1
102
RTVSPost2010Prop38
140
0.0
102
RTVSPost2010PropOp38
 70
     1
102
RTVSPost2010Prop39
140
1.0
102
RTVSPost2010PropOp39
 70
     1
102
RTVSPost2010Prop40
 90
        0
102
RTVSPost2010PropOp40
 70
     1
102
RTVSPost2010Prop41ColorIndex
 90
       18
102
RTVSPost2010Prop41ColorRGB
 90
        0
102
RTVSPost2010PropOp41
 70
     1
102
RTVSPost2010Prop42
 90
       50
102
RTVSPost2010PropOp42
 70
     1
102
RTVSPost2010Prop43
 90
        3
102
RTVSPost2010PropOp43
 70
     1
102
RTVSPost2010Prop44ColorIndex
 90
        5
102
RTVSPost2010Prop44ColorRGB
 90
      255
102
RTVSPost2010PropOp44
 70
     1
102
RTVSPost2010Prop45
280
     0
102
RTVSPost2010PropOp45
 70
     1
102
RTVSPost2010Prop46
 90
       50
102
RTVSPost2010PropOp46
 70
     1
102
RTVSPost2010Prop47
 90
       50
102
RTVSPost2010PropOp47
 70
     1
102
RTVSPost2010Prop48
 90
       50
102
RTVSPost2010PropOp48
 70
     1
102
RTVSPost2010Prop49
280
     0
102
RTVSPost2010PropOp49
 70
     1
102
RTVSPost2010Prop50
 90
       50
102
RTVSPost2010PropOp50
 70
     1
102
RTVSPost2010Prop51ColorIndex
 90
      256
102
RTVSPost2010Prop51ColorRGB
 90
-16777216
102
RTVSPost2010PropOp51
 70
     0
102
RTVSPost2010Prop52
140
1.0
102
RTVSPost2010PropOp52
 70
     0
102
RTVSPost2010Prop53
 90
        2
102
RTVSPost2010PropOp53
 70
     1
102
RTVSPost2010Prop54
  1
strokes_ogs.tif
102
RTVSPost2010PropOp54
 70
     1
102
RTVSPost2010Prop55
280
     0
102
RTVSPost2010PropOp55
 70
     1
102
RTVSPost2010Prop56
140
1.0
102
RTVSPost2010PropOp56
 70
     1
102
RTVSPost2010Prop57
140
1.0
102
RTVSPost2010PropOp57
 70
     1
102
RTVSPropertyOp0
 70
     1
102
RTVSPropertyOp1
 70
     1
102
RTVSPropertyOp2
 70
     1
102
RTVSPropertyOp3
 70
     1
102
RTVSPropertyOp4
 70
     1
102
RTVSPropertyOp5
 70
     1
102
RTVSPropertyOp6
 70
     1
102
RTVSPropertyOp7
 70
     1
102
RTVSPropertyOp8
 70
     1
102
RTVSPropertyOp9
 70
     1
102
RTVSPropertyOp10
 70
     1
102
RTVSPropertyOp11
 70
     1
102
RTVSPropertyOp12
 70
     1
102
RTVSPropertyOp13
 70
     1
102
RTVSPropertyOp14
 70
     1
102
RTVSPropertyOp15
 70
     1
102
RTVSPropertyOp16
 70
     1
102
RTVSPropertyOp17
 70
     1
102
RTVSPropertyOp18
 70
     1
102
RTVSPropertyOp19
 70
     1
102
RTVSPropertyOp20
 70
     1
102
RTVSPropertyOp21
 70
     1
102
RTVSPropertyOp22
 70
     1
102
RTVSPropertyOp23
 70
     1
102
RTVSPropertyOp24
 70
     1
102
RTVSPropertyOp25
 70
     1
102
RTVSPropertyOp26
 70
     1
102
RTVSPropertyOp27
 70
     1
102
RTVSPropertyOp28
 70
     1
102
RTVSPropertyOp29
 70
     1
102
RTVSPropertyOp30
 70
     1
102
RTVSPropertyOp31
 70
     1
102
RTVSPropertyOp32
 70
     1
102
RTVSPropertyOp33
 70
     1
102
RTVSPropertyOp34
 70
     1
102
RTVSPropertyOp35
 70
     1
102
RTVSPropertyOp36
 70
     1
102
RTVSPropertyOp37
 70
     1
102
RTVSPropertyOp38
 70
     1
102
RTVSPropertyOp39
 70
     1
102
RTVSPropertyOp40
 70
     1
102
RTVSPropertyOp41
 70
     1
102
RTVSPropertyOp42
 70
     1
102
RTVSPropertyOp43
 70
     1
102
RTVSPropertyOp44
 70
     1
102
RTVSPropertyOp45
 70
     1
102
RTVSPropertyOp46
 70
     1
102
RTVSPropertyOp47
 70
     1
102
RTVSPropertyOp48
 70
     1
102
RTVSPropertyOp49
 70
     1
102
RTVSPropertyOp50
 70
     1
102
RTVSPropertyOp51
 70
     0
102
RTVSPropertyOp52
 70
     0
102
RTVSPropertyOp53
 70
     1
102
RTVSPropertyOp54
 70
     1
102
RTVSPropertyOp55
 70
     1
102
RTVSPropertyOp56
 70
     1
102
RTVSPropertyOp57
 70
     1
102
RTVSPropertyOp58
 70
     1
102
RTVSPropertyOp59
 70
     1
102
RTVSPropertyOp60
 70
     1
102
RTVSPropertyOp61
 70
     1
102
RTVSPropertyOp62
 70
     1
  0
XRECORD
  5
EF05
102
{ACAD_REACTORS
330
EF04
102
}
330
EF04
100
AcDbXrecord
280
     1
102
RTVSPost2010Prop28
280
     0
102
RTVSPost2010PropOp28
 70
     1
102
RTVSPost2010Prop29
280
     1
102
RTVSPost2010PropOp29
 70
     1
102
RTVSPost2010Prop30
280
     1
102
RTVSPost2010PropOp30
 70
     1
102
RTVSPost2010Prop31
280
     0
102
RTVSPost2010PropOp31
 70
     1
102
RTVSPost2010Prop32
280
     0
102
RTVSPost2010PropOp32
 70
     1
102
RTVSPost2010Prop33
280
     0
102
RTVSPost2010PropOp33
 70
     1
102
RTVSPost2010Prop34
280
     0
102
RTVSPost2010PropOp34
 70
     1
102
RTVSPost2010Prop35
280
     0
102
RTVSPost2010PropOp35
 70
     1
102
RTVSPost2010Prop36
280
     0
102
RTVSPost2010PropOp36
 70
     1
102
RTVSPost2010Prop37
 90
       50
102
RTVSPost2010PropOp37
 70
     1
102
RTVSPost2010Prop38
140
0.0
102
RTVSPost2010PropOp38
 70
     1
102
RTVSPost2010Prop39
140
1.0
102
RTVSPost2010PropOp39
 70
     1
102
RTVSPost2010Prop40
 90
        0
102
RTVSPost2010PropOp40
 70
     1
102
RTVSPost2010Prop41ColorIndex
 90
       18
102
RTVSPost2010Prop41ColorRGB
 90
        0
102
RTVSPost2010PropOp41
 70
     1
102
RTVSPost2010Prop42
 90
       50
102
RTVSPost2010PropOp42
 70
     1
102
RTVSPost2010Prop43
 90
        3
102
RTVSPost2010PropOp43
 70
     1
102
RTVSPost2010Prop44ColorIndex
 90
        5
102
RTVSPost2010Prop44ColorRGB
 90
      255
102
RTVSPost2010PropOp44
 70
     1
102
RTVSPost2010Prop45
280
     0
102
RTVSPost2010PropOp45
 70
     1
102
RTVSPost2010Prop46
 90
       50
102
RTVSPost2010PropOp46
 70
     1
102
RTVSPost2010Prop47
 90
       50
102
RTVSPost2010PropOp47
 70
     1
102
RTVSPost2010Prop48
 90
       50
102
RTVSPost2010PropOp48
 70
     1
102
RTVSPost2010Prop49
280
     0
102
RTVSPost2010PropOp49
 70
     1
102
RTVSPost2010Prop50
 90
       50
102
RTVSPost2010PropOp50
 70
     1
102
RTVSPost2010Prop51ColorIndex
 90
      256
102
RTVSPost2010Prop51ColorRGB
 90
-16777216
102
RTVSPost2010PropOp51
 70
     0
102
RTVSPost2010Prop52
140
1.0
102
RTVSPost2010PropOp52
 70
     0
102
RTVSPost2010Prop53
 90
        2
102
RTVSPost2010PropOp53
 70
     1
102
RTVSPost2010Prop54
  1
strokes_ogs.tif
102
RTVSPost2010PropOp54
 70
     1
102
RTVSPost2010Prop55
280
     0
102
RTVSPost2010PropOp55
 70
     1
102
RTVSPost2010Prop56
140
1.0
102
RTVSPost2010PropOp56
 70
     1
102
RTVSPost2010Prop57
140
1.0
102
RTVSPost2010PropOp57
 70
     1
102
RTVSPropertyOp0
 70
     1
102
RTVSPropertyOp1
 70
     1
102
RTVSPropertyOp2
 70
     1
102
RTVSPropertyOp3
 70
     1
102
RTVSPropertyOp4
 70
     1
102
RTVSPropertyOp5
 70
     1
102
RTVSPropertyOp6
 70
     1
102
RTVSPropertyOp7
 70
     1
102
RTVSPropertyOp8
 70
     1
102
RTVSPropertyOp9
 70
     1
102
RTVSPropertyOp10
 70
     1
102
RTVSPropertyOp11
 70
     1
102
RTVSPropertyOp12
 70
     1
102
RTVSPropertyOp13
 70
     1
102
RTVSPropertyOp14
 70
     1
102
RTVSPropertyOp15
 70
     1
102
RTVSPropertyOp16
 70
     1
102
RTVSPropertyOp17
 70
     1
102
RTVSPropertyOp18
 70
     1
102
RTVSPropertyOp19
 70
     1
102
RTVSPropertyOp20
 70
     1
102
RTVSPropertyOp21
 70
     1
102
RTVSPropertyOp22
 70
     1
102
RTVSPropertyOp23
 70
     1
102
RTVSPropertyOp24
 70
     1
102
RTVSPropertyOp25
 70
     1
102
RTVSPropertyOp26
 70
     1
102
RTVSPropertyOp27
 70
     1
102
RTVSPropertyOp28
 70
     1
102
RTVSPropertyOp29
 70
     1
102
RTVSPropertyOp30
 70
     1
102
RTVSPropertyOp31
 70
     1
102
RTVSPropertyOp32
 70
     1
102
RTVSPropertyOp33
 70
     1
102
RTVSPropertyOp34
 70
     1
102
RTVSPropertyOp35
 70
     1
102
RTVSPropertyOp36
 70
     1
102
RTVSPropertyOp37
 70
     1
102
RTVSPropertyOp38
 70
     1
102
RTVSPropertyOp39
 70
     1
102
RTVSPropertyOp40
 70
     1
102
RTVSPropertyOp41
 70
     1
102
RTVSPropertyOp42
 70
     1
102
RTVSPropertyOp43
 70
     1
102
RTVSPropertyOp44
 70
     1
102
RTVSPropertyOp45
 70
     1
102
RTVSPropertyOp46
 70
     1
102
RTVSPropertyOp47
 70
     1
102
RTVSPropertyOp48
 70
     1
102
RTVSPropertyOp49
 70
     1
102
RTVSPropertyOp50
 70
     1
102
RTVSPropertyOp51
 70
     0
102
RTVSPropertyOp52
 70
     0
102
RTVSPropertyOp53
 70
     1
102
RTVSPropertyOp54
 70
     1
102
RTVSPropertyOp55
 70
     1
102
RTVSPropertyOp56
 70
     1
102
RTVSPropertyOp57
 70
     1
102
RTVSPropertyOp58
 70
     1
102
RTVSPropertyOp59
 70
     1
102
RTVSPropertyOp60
 70
     1
102
RTVSPropertyOp61
 70
     1
102
RTVSPropertyOp62
 70
     1
  0
XRECORD
  5
EF12
102
{ACAD_REACTORS
330
EF11
102
}
330
EF11
100
AcDbXrecord
280
     1
102
RTVSPost2010Prop28
280
     0
102
RTVSPost2010PropOp28
 70
     1
102
RTVSPost2010Prop29
280
     1
102
RTVSPost2010PropOp29
 70
     1
102
RTVSPost2010Prop30
280
     1
102
RTVSPost2010PropOp30
 70
     1
102
RTVSPost2010Prop31
280
     0
102
RTVSPost2010PropOp31
 70
     1
102
RTVSPost2010Prop32
280
     0
102
RTVSPost2010PropOp32
 70
     1
102
RTVSPost2010Prop33
280
     0
102
RTVSPost2010PropOp33
 70
     1
102
RTVSPost2010Prop34
280
     0
102
RTVSPost2010PropOp34
 70
     1
102
RTVSPost2010Prop35
280
     0
102
RTVSPost2010PropOp35
 70
     1
102
RTVSPost2010Prop36
280
     0
102
RTVSPost2010PropOp36
 70
     1
102
RTVSPost2010Prop37
 90
       50
102
RTVSPost2010PropOp37
 70
     1
102
RTVSPost2010Prop38
140
0.0
102
RTVSPost2010PropOp38
 70
     1
102
RTVSPost2010Prop39
140
1.0
102
RTVSPost2010PropOp39
 70
     1
102
RTVSPost2010Prop40
 90
        0
102
RTVSPost2010PropOp40
 70
     1
102
RTVSPost2010Prop41ColorIndex
 90
       18
102
RTVSPost2010Prop41ColorRGB
 90
        0
102
RTVSPost2010PropOp41
 70
     1
102
RTVSPost2010Prop42
 90
       50
102
RTVSPost2010PropOp42
 70
     1
102
RTVSPost2010Prop43
 90
        3
102
RTVSPost2010PropOp43
 70
     1
102
RTVSPost2010Prop44ColorIndex
 90
        5
102
RTVSPost2010Prop44ColorRGB
 90
      255
102
RTVSPost2010PropOp44
 70
     1
102
RTVSPost2010Prop45
280
     0
102
RTVSPost2010PropOp45
 70
     1
102
RTVSPost2010Prop46
 90
       50
102
RTVSPost2010PropOp46
 70
     1
102
RTVSPost2010Prop47
 90
       50
102
RTVSPost2010PropOp47
 70
     1
102
RTVSPost2010Prop48
 90
       50
102
RTVSPost2010PropOp48
 70
     1
102
RTVSPost2010Prop49
280
     0
102
RTVSPost2010PropOp49
 70
     1
102
RTVSPost2010Prop50
 90
       50
102
RTVSPost2010PropOp50
 70
     1
102
RTVSPost2010Prop51ColorIndex
 90
      256
102
RTVSPost2010Prop51ColorRGB
 90
-16777216
102
RTVSPost2010PropOp51
 70
     0
102
RTVSPost2010Prop52
140
1.0
102
RTVSPost2010PropOp52
 70
     0
102
RTVSPost2010Prop53
 90
        2
102
RTVSPost2010PropOp53
 70
     1
102
RTVSPost2010Prop54
  1
strokes_ogs.tif
102
RTVSPost2010PropOp54
 70
     1
102
RTVSPost2010Prop55
280
     0
102
RTVSPost2010PropOp55
 70
     1
102
RTVSPost2010Prop56
140
1.0
102
RTVSPost2010PropOp56
 70
     1
102
RTVSPost2010Prop57
140
1.0
102
RTVSPost2010PropOp57
 70
     1
102
RTVSPropertyOp0
 70
     1
102
RTVSPropertyOp1
 70
     1
102
RTVSPropertyOp2
 70
     1
102
RTVSPropertyOp3
 70
     1
102
RTVSPropertyOp4
 70
     1
102
RTVSPropertyOp5
 70
     1
102
RTVSPropertyOp6
 70
     1
102
RTVSPropertyOp7
 70
     1
102
RTVSPropertyOp8
 70
     1
102
RTVSPropertyOp9
 70
     1
102
RTVSPropertyOp10
 70
     1
102
RTVSPropertyOp11
 70
     1
102
RTVSPropertyOp12
 70
     1
102
RTVSPropertyOp13
 70
     1
102
RTVSPropertyOp14
 70
     1
102
RTVSPropertyOp15
 70
     1
102
RTVSPropertyOp16
 70
     1
102
RTVSPropertyOp17
 70
     1
102
RTVSPropertyOp18
 70
     1
102
RTVSPropertyOp19
 70
     1
102
RTVSPropertyOp20
 70
     1
102
RTVSPropertyOp21
 70
     1
102
RTVSPropertyOp22
 70
     1
102
RTVSPropertyOp23
 70
     1
102
RTVSPropertyOp24
 70
     1
102
RTVSPropertyOp25
 70
     1
102
RTVSPropertyOp26
 70
     1
102
RTVSPropertyOp27
 70
     1
102
RTVSPropertyOp28
 70
     1
102
RTVSPropertyOp29
 70
     1
102
RTVSPropertyOp30
 70
     1
102
RTVSPropertyOp31
 70
     1
102
RTVSPropertyOp32
 70
     1
102
RTVSPropertyOp33
 70
     1
102
RTVSPropertyOp34
 70
     1
102
RTVSPropertyOp35
 70
     1
102
RTVSPropertyOp36
 70
     1
102
RTVSPropertyOp37
 70
     1
102
RTVSPropertyOp38
 70
     1
102
RTVSPropertyOp39
 70
     1
102
RTVSPropertyOp40
 70
     1
102
RTVSPropertyOp41
 70
     1
102
RTVSPropertyOp42
 70
     1
102
RTVSPropertyOp43
 70
     1
102
RTVSPropertyOp44
 70
     1
102
RTVSPropertyOp45
 70
     1
102
RTVSPropertyOp46
 70
     1
102
RTVSPropertyOp47
 70
     1
102
RTVSPropertyOp48
 70
     1
102
RTVSPropertyOp49
 70
     1
102
RTVSPropertyOp50
 70
     1
102
RTVSPropertyOp51
 70
     0
102
RTVSPropertyOp52
 70
     0
102
RTVSPropertyOp53
 70
     1
102
RTVSPropertyOp54
 70
     1
102
RTVSPropertyOp55
 70
     1
102
RTVSPropertyOp56
 70
     1
102
RTVSPropertyOp57
 70
     1
102
RTVSPropertyOp58
 70
     1
102
RTVSPropertyOp59
 70
     1
102
RTVSPropertyOp60
 70
     1
102
RTVSPropertyOp61
 70
     1
102
RTVSPropertyOp62
 70
     1
  0
XRECORD
  5
EF1A
102
{ACAD_REACTORS
330
EF19
102
}
330
EF19
100
AcDbXrecord
280
     1
102
RTVSPost2010Prop28
280
     0
102
RTVSPost2010PropOp28
 70
     1
102
RTVSPost2010Prop29
280
     1
102
RTVSPost2010PropOp29
 70
     1
102
RTVSPost2010Prop30
280
     1
102
RTVSPost2010PropOp30
 70
     1
102
RTVSPost2010Prop31
280
     0
102
RTVSPost2010PropOp31
 70
     1
102
RTVSPost2010Prop32
280
     0
102
RTVSPost2010PropOp32
 70
     1
102
RTVSPost2010Prop33
280
     0
102
RTVSPost2010PropOp33
 70
     1
102
RTVSPost2010Prop34
280
     0
102
RTVSPost2010PropOp34
 70
     1
102
RTVSPost2010Prop35
280
     0
102
RTVSPost2010PropOp35
 70
     1
102
RTVSPost2010Prop36
280
     0
102
RTVSPost2010PropOp36
 70
     1
102
RTVSPost2010Prop37
 90
       50
102
RTVSPost2010PropOp37
 70
     1
102
RTVSPost2010Prop38
140
0.0
102
RTVSPost2010PropOp38
 70
     1
102
RTVSPost2010Prop39
140
1.0
102
RTVSPost2010PropOp39
 70
     1
102
RTVSPost2010Prop40
 90
        0
102
RTVSPost2010PropOp40
 70
     1
102
RTVSPost2010Prop41ColorIndex
 90
       18
102
RTVSPost2010Prop41ColorRGB
 90
        0
102
RTVSPost2010PropOp41
 70
     1
102
RTVSPost2010Prop42
 90
       50
102
RTVSPost2010PropOp42
 70
     1
102
RTVSPost2010Prop43
 90
        3
102
RTVSPost2010PropOp43
 70
     1
102
RTVSPost2010Prop44ColorIndex
 90
        5
102
RTVSPost2010Prop44ColorRGB
 90
      255
102
RTVSPost2010PropOp44
 70
     1
102
RTVSPost2010Prop45
280
     0
102
RTVSPost2010PropOp45
 70
     1
102
RTVSPost2010Prop46
 90
       50
102
RTVSPost2010PropOp46
 70
     1
102
RTVSPost2010Prop47
 90
       50
102
RTVSPost2010PropOp47
 70
     1
102
RTVSPost2010Prop48
 90
       50
102
RTVSPost2010PropOp48
 70
     1
102
RTVSPost2010Prop49
280
     0
102
RTVSPost2010PropOp49
 70
     1
102
RTVSPost2010Prop50
 90
       50
102
RTVSPost2010PropOp50
 70
     1
102
RTVSPost2010Prop51ColorIndex
 90
      256
102
RTVSPost2010Prop51ColorRGB
 90
-16777216
102
RTVSPost2010PropOp51
 70
     0
102
RTVSPost2010Prop52
140
1.0
102
RTVSPost2010PropOp52
 70
     0
102
RTVSPost2010Prop53
 90
        2
102
RTVSPost2010PropOp53
 70
     1
102
RTVSPost2010Prop54
  1
strokes_ogs.tif
102
RTVSPost2010PropOp54
 70
     1
102
RTVSPost2010Prop55
280
     0
102
RTVSPost2010PropOp55
 70
     1
102
RTVSPost2010Prop56
140
1.0
102
RTVSPost2010PropOp56
 70
     1
102
RTVSPost2010Prop57
140
1.0
102
RTVSPost2010PropOp57
 70
     1
102
RTVSPropertyOp0
 70
     1
102
RTVSPropertyOp1
 70
     1
102
RTVSPropertyOp2
 70
     1
102
RTVSPropertyOp3
 70
     1
102
RTVSPropertyOp4
 70
     1
102
RTVSPropertyOp5
 70
     1
102
RTVSPropertyOp6
 70
     1
102
RTVSPropertyOp7
 70
     1
102
RTVSPropertyOp8
 70
     1
102
RTVSPropertyOp9
 70
     1
102
RTVSPropertyOp10
 70
     1
102
RTVSPropertyOp11
 70
     1
102
RTVSPropertyOp12
 70
     1
102
RTVSPropertyOp13
 70
     1
102
RTVSPropertyOp14
 70
     1
102
RTVSPropertyOp15
 70
     1
102
RTVSPropertyOp16
 70
     1
102
RTVSPropertyOp17
 70
     1
102
RTVSPropertyOp18
 70
     1
102
RTVSPropertyOp19
 70
     1
102
RTVSPropertyOp20
 70
     1
102
RTVSPropertyOp21
 70
     1
102
RTVSPropertyOp22
 70
     1
102
RTVSPropertyOp23
 70
     1
102
RTVSPropertyOp24
 70
     1
102
RTVSPropertyOp25
 70
     1
102
RTVSPropertyOp26
 70
     1
102
RTVSPropertyOp27
 70
     1
102
RTVSPropertyOp28
 70
     1
102
RTVSPropertyOp29
 70
     1
102
RTVSPropertyOp30
 70
     1
102
RTVSPropertyOp31
 70
     1
102
RTVSPropertyOp32
 70
     1
102
RTVSPropertyOp33
 70
     1
102
RTVSPropertyOp34
 70
     1
102
RTVSPropertyOp35
 70
     1
102
RTVSPropertyOp36
 70
     1
102
RTVSPropertyOp37
 70
     1
102
RTVSPropertyOp38
 70
     1
102
RTVSPropertyOp39
 70
     1
102
RTVSPropertyOp40
 70
     1
102
RTVSPropertyOp41
 70
     1
102
RTVSPropertyOp42
 70
     1
102
RTVSPropertyOp43
 70
     1
102
RTVSPropertyOp44
 70
     1
102
RTVSPropertyOp45
 70
     1
102
RTVSPropertyOp46
 70
     1
102
RTVSPropertyOp47
 70
     1
102
RTVSPropertyOp48
 70
     1
102
RTVSPropertyOp49
 70
     1
102
RTVSPropertyOp50
 70
     1
102
RTVSPropertyOp51
 70
     0
102
RTVSPropertyOp52
 70
     0
102
RTVSPropertyOp53
 70
     1
102
RTVSPropertyOp54
 70
     1
102
RTVSPropertyOp55
 70
     1
102
RTVSPropertyOp56
 70
     1
102
RTVSPropertyOp57
 70
     1
102
RTVSPropertyOp58
 70
     1
102
RTVSPropertyOp59
 70
     1
102
RTVSPropertyOp60
 70
     1
102
RTVSPropertyOp61
 70
     1
102
RTVSPropertyOp62
 70
     1
  0
XRECORD
  5
487A
102
{ACAD_REACTORS
330
4879
102
}
330
4879
100
AcDbXrecord
280
     1
330
1736
  0
ENDSEC
  0
EOF
